  0
SECTION
  2
HEADER
  9
$ACADVER
  1
AC1009
  9
$INSBASE
 10
-3.2788249062907902
 20
7.3369428740268328
 30
0.0
  9
$EXTMIN
 10
-5.2184258794758582
 20
5.3973419008417647
 30
0.0
  9
$EXTMAX
 10
-1.339223933105721
 20
9.2765438472119026
 30
0.0
  9
$LIMMIN
 10
0.0
 20
0.0
  9
$LIMMAX
 10
11.6929133858000007
 20
8.2677165353999982
  9
$ORTHOMODE
 70
     0
  9
$REGENMODE
 70
     1
  9
$FILLMODE
 70
     1
  9
$QTEXTMODE
 70
     0
  9
$MIRRTEXT
 70
     0
  9
$DRAGMODE
 70
     2
  9
$LTSCALE
 40
0.6431102362
  9
$OSMODE
 70
  4095
  9
$ATTMODE
 70
     1
  9
$TEXTSIZE
 40
0.2
  9
$TRACEWID
 40
0.05
  9
$TEXTSTYLE
  7
STANDARD
  9
$CLAYER
  8
0
  9
$CELTYPE
  6
BYLAYER
  9
$CECOLOR
 62
   256
  9
$DIMSCALE
 40
1.0
  9
$DIMASZ
 40
0.1875
  9
$DIMEXO
 40
0.0625
  9
$DIMDLI
 40
0.4443307087
  9
$DIMRND
 40
0.0
  9
$DIMDLE
 40
0.0
  9
$DIMEXE
 40
0.125
  9
$DIMTP
 40
0.0
  9
$DIMTM
 40
0.0
  9
$DIMTXT
 40
1.0
  9
$DIMCEN
 40
0.1052362205
  9
$DIMTSZ
 40
0.0
  9
$DIMTOL
 70
     0
  9
$DIMLIM
 70
     0
  9
$DIMTIH
 70
     1
  9
$DIMTOH
 70
     1
  9
$DIMSE1
 70
     0
  9
$DIMSE2
 70
     0
  9
$DIMTAD
 70
     0
  9
$DIMZIN
 70
     0
  9
$DIMBLK
  1

  9
$DIMASO
 70
     1
  9
$DIMSHO
 70
     1
  9
$DIMPOST
  1
\X
  9
$DIMAPOST
  1

  9
$DIMALT
 70
     1
  9
$DIMALTD
 70
     2
  9
$DIMALTF
 40
25.3999999999999986
  9
$DIMLFAC
 40
1.0
  9
$DIMTOFL
 70
     0
  9
$DIMTVP
 40
0.0
  9
$DIMTIX
 70
     0
  9
$DIMSOXD
 70
     0
  9
$DIMSAH
 70
     0
  9
$DIMBLK1
  1

  9
$DIMBLK2
  1

  9
$DIMSTYLE
  2
STANDARD
  9
$DIMCLRD
 70
     0
  9
$DIMCLRE
 70
     0
  9
$DIMCLRT
 70
     0
  9
$DIMTFAC
 40
1.0
  9
$DIMGAP
 40
0.09
  9
$LUNITS
 70
     2
  9
$LUPREC
 70
     4
  9
$SKETCHINC
 40
0.1
  9
$FILLETRAD
 40
0.0
  9
$AUNITS
 70
     0
  9
$AUPREC
 70
     0
  9
$MENU
  1
.
  9
$ELEVATION
 40
0.0
  9
$PELEVATION
 40
0.0
  9
$THICKNESS
 40
0.0
  9
$LIMCHECK
 70
     0
  9
$BLIPMODE
 70
     0
  9
$CHAMFERA
 40
0.0
  9
$CHAMFERB
 40
0.0
  9
$SKPOLY
 70
     0
  9
$TDCREATE
 40
2457676.5872337957844138
  9
$TDUPDATE
 40
2459578.9399884259328246
  9
$TDINDWG
 40
0.0350243403
  9
$TDUSRTIMER
 40
0.0350243403
  9
$USRTIMER
 70
     1
  9
$ANGBASE
 50
0.0
  9
$ANGDIR
 70
     0
  9
$PDMODE
 70
     0
  9
$PDSIZE
 40
0.3125
  9
$PLINEWID
 40
0.0
  9
$COORDS
 70
     1
  9
$SPLFRAME
 70
     0
  9
$SPLINETYPE
 70
     6
  9
$SPLINESEGS
 70
     8
  9
$ATTDIA
 70
     1
  9
$ATTREQ
 70
     1
  9
$HANDLING
 70
     1
  9
$HANDSEED
  5
FED
  9
$SURFTAB1
 70
     6
  9
$SURFTAB2
 70
     6
  9
$SURFTYPE
 70
     6
  9
$SURFU
 70
     6
  9
$SURFV
 70
     6
  9
$UCSNAME
  2

  9
$UCSORG
 10
0.0
 20
0.0
 30
0.0
  9
$UCSXDIR
 10
1.0
 20
0.0
 30
0.0
  9
$UCSYDIR
 10
0.0
 20
1.0
 30
0.0
  9
$PUCSNAME
  2

  9
$PUCSORG
 10
0.0
 20
0.0
 30
0.0
  9
$PUCSXDIR
 10
1.0
 20
0.0
 30
0.0
  9
$PUCSYDIR
 10
0.0
 20
1.0
 30
0.0
  9
$USERI1
 70
     0
  9
$USERI2
 70
     0
  9
$USERI3
 70
     0
  9
$USERI4
 70
     0
  9
$USERI5
 70
     0
  9
$USERR1
 40
0.0
  9
$USERR2
 40
0.0
  9
$USERR3
 40
0.0
  9
$USERR4
 40
0.0
  9
$USERR5
 40
0.0
  9
$WORLDVIEW
 70
     1
  9
$SHADEDGE
 70
     3
  9
$SHADEDIF
 70
    70
  9
$TILEMODE
 70
     1
  9
$MAXACTVP
 70
    48
  9
$PLIMCHECK
 70
     0
  9
$PEXTMIN
 10
1.0000000000000000E+20
 20
1.0000000000000000E+20
 30
1.0000000000000000E+20
  9
$PEXTMAX
 10
-1.0000000000000000E+20
 20
-1.0000000000000000E+20
 30
-1.0000000000000000E+20
  9
$PLIMMIN
 10
0.0
 20
0.0
  9
$PLIMMAX
 10
12.0
 20
9.0
  9
$UNITMODE
 70
     0
  9
$VISRETAIN
 70
     1
  9
$PLINEGEN
 70
     0
  9
$PSLTSCALE
 70
     1
  0
ENDSEC
  0
SECTION
  2
TABLES
  0
TABLE
  2
VPORT
 70
     1
  0
VPORT
  2
*ACTIVE
 70
     0
 10
0.0
 20
0.0
 11
1.0
 21
1.0
 12
0.0
 22
0.0
 13
0.0
 23
0.0
 14
1.0
 24
1.0
 15
0.0
 25
0.0
 16
-0.000000000000004
 26
0.0
 36
18.0551359287778013
 17
-3.2788248658180228
 27
7.3369429111480713
 37
0.0
 40
5.4872091737074751
 41
2.5429292929292919
 42
50.0
 43
0.0
 44
0.0
 50
0.0
 51
0.0
 71
     0
 72
   100
 73
     1
 74
     1
 75
     0
 76
     0
 77
     0
 78
     0
  0
ENDTAB
  0
TABLE
  2
LTYPE
 70
     1
  0
LTYPE
  2
CONTINUOUS
 70
     0
  3
Solid line
 72
    65
 73
     0
 40
0.0
  0
ENDTAB
  0
TABLE
  2
LAYER
 70
     2
  0
LAYER
  2
0
 70
     0
 62
     7
  6
CONTINUOUS
  0
LAYER
  2
DEFPOINTS
 70
     0
 62
     7
  6
CONTINUOUS
  0
ENDTAB
  0
TABLE
  2
STYLE
 70
     1
  0
STYLE
  2
STANDARD
 70
     0
 40
0.0
 41
0.8
 50
0.0
 71
     0
 42
0.2
  3
txt
  4

  0
ENDTAB
  0
TABLE
  2
VIEW
 70
     0
  0
ENDTAB
  0
TABLE
  2
UCS
 70
     0
  0
ENDTAB
  0
TABLE
  2
APPID
 70
     9
  0
APPID
  2
ACAD
 70
     0
  0
APPID
  2
ACADANNOTATIVE
 70
     0
  0
APPID
  2
ACAD_MLEADERVER
 70
     0
  0
APPID
  2
ACAD_NAV_VCDISPLAY
 70
     0
  0
APPID
  2
ACAD_EXEMPT_FROM_CAD_STANDARDS
 70
     0
  0
APPID
  2
ACAD_DSTYLE_DIMJAG
 70
     0
  0
APPID
  2
ACAD_DSTYLE_DIMTALN
 70
     0
  0
APPID
  2
ACAD_DSTYLE_DIMRADIAL_EXTENSION
 70
     0
  0
APPID
  2
ACDBATTR
 70
     0
  0
ENDTAB
  0
TABLE
  2
DIMSTYLE
 70
     2
  0
DIMSTYLE
  2
STANDARD
 70
     0
  3

  4

  5

  6

  7

 40
1.0
 41
0.1875
 42
0.0625
 43
0.38
 44
0.125
 45
0.0
 46
0.0
 47
1.5
 48
1.5
140
0.15625
141
0.09
142
0.0
143
25.3999999999999986
144
1.0
145
0.0
146
1.0
147
0.09
 71
     0
 72
     0
 73
     1
 74
     1
 75
     0
 76
     0
 77
     0
 78
     4
170
     0
171
     2
172
     0
173
     0
174
     0
175
     0
176
     0
177
     0
178
     0
  0
DIMSTYLE
  2
ANNOTATIVE
 70
     0
  3

  4

  5

  6

  7

 40
0.0
 41
0.18
 42
0.0625
 43
0.38
 44
0.18
 45
0.0
 46
0.0
 47
0.0
 48
0.0
140
0.18
141
0.09
142
0.0
143
25.3999999999999986
144
1.0
145
0.0
146
1.0
147
0.09
 71
     0
 72
     0
 73
     1
 74
     1
 75
     0
 76
     0
 77
     0
 78
     0
170
     0
171
     2
172
     0
173
     0
174
     0
175
     0
176
     0
177
     0
178
     0
  0
ENDTAB
  0
ENDSEC
  0
SECTION
  2
BLOCKS
  0
BLOCK
  8
0
  2
$MODEL_SPACE
 70
     0
 10
0.0
 20
0.0
 30
0.0
  3
$MODEL_SPACE
  1

  0
ENDBLK
  5
CD1
  8
0
  0
BLOCK
 67
     1
  8
0
  2
$PAPER_SPACE
 70
     0
 10
0.0
 20
0.0
 30
0.0
  3
$PAPER_SPACE
  1

  0
ENDBLK
  5
CCD
 67
     1
  8
0
  0
ENDSEC
  0
SECTION
  2
ENTITIES
  0
ATTDEF
  5
6FE
  8
DEFPOINTS
 10
-3.277162429991598
 20
7.3350948902873832
 30
0.0
 40
0.001
  1
K-T73140-3
  3

  2
MODELNUMBER
 70
     0
1001
ACDBATTR
1070
     0
1070
     1
  0
ATTDEF
  5
6FF
  8
DEFPOINTS
 10
-3.277162429991598
 20
7.3334282236207171
 30
0.0
 40
0.001
  1
COMPOSED
  3

  2
TRADENAME
 70
     0
1001
ACDBATTR
1070
     0
1070
     1
  0
ATTDEF
  5
700
  8
DEFPOINTS
 10
-3.277162429991598
 20
7.3317615569540511
 30
0.0
 40
0.001
  1
VALVE TRIM 
  3

  2
PRODUCT
 70
     0
1001
ACDBATTR
1070
     0
1070
     1
  0
ARC
  5
EC4
  8
0
 10
-1.9286557247236951
 20
7.5717152481104799
 30
0.0
 40
0.15774437544767
 50
18.8297025548646388
 51
71.1655687562295327
  0
ARC
  5
EC5
  8
0
 10
-3.0313549461214491
 20
8.6990160260821092
 30
0.0
 40
0.1423386803199607
 50
15.7398596062544005
 51
74.2601374547455322
  0
ARC
  5
EC6
  8
0
 10
-2.7750737745177392
 20
7.8403043558205869
 30
0.0
 40
0.1260414878650757
 50
198.8526191091833084
 51
251.1633683003377939
  0
LINE
  5
EC7
  8
0
 10
-2.9927278116457989
 20
8.8360132683807322
 30
0.0
 11
-3.56492200093578
 21
8.8360132683807322
 31
0.0
  0
LINE
  5
EC8
  8
0
 10
-2.8157688985580851
 20
7.7210132683807329
 30
0.0
 11
-1.8777303957727809
 21
7.7210132683807329
 31
0.0
  0
LINE
  5
EC9
  8
0
 10
-2.8943535020338742
 20
8.7376282551442461
 30
0.0
 11
-2.8943535020338742
 21
7.7995759472226744
 31
0.0
  0
LINE
  5
ECA
  8
0
 10
-1.779353502033876
 20
7.6226282551445887
 30
0.0
 11
-1.779353502033876
 21
7.0512574929090768
 31
0.0
  0
ARC
  5
ECD
  8
0
 10
-1.9286557247236951
 20
7.1021704999431856
 30
0.0
 40
0.15774437544767
 50
288.8344312437704957
 51
341.170297445135418
  0
ARC
  5
ECE
  8
0
 10
-3.0313549461214491
 20
5.9748697219715581
 30
0.0
 40
0.1423386803199607
 50
285.7398625452544252
 51
344.2601403937454734
  0
ARC
  5
ECF
  8
0
 10
-2.7750737745177392
 20
6.8335813922330786
 30
0.0
 40
0.1260414878650757
 50
108.8366316996622061
 51
161.1473808908166063
  0
LINE
  5
ED0
  8
0
 10
-2.8157688985580851
 20
6.9528724796729326
 30
0.0
 11
-1.8777303957727809
 21
6.9528724796729326
 31
0.0
  0
LINE
  5
ED1
  8
0
 10
-2.8943535020338742
 20
5.9362574929094212
 30
0.0
 11
-2.8943535020338742
 21
6.874309800830992
 31
0.0
  0
LINE
  5
ED2
  8
0
 10
-2.9927278116457989
 20
5.8378724796729333
 30
0.0
 11
-3.56492200093578
 21
5.8378724796729333
 31
0.0
  0
ARC
  5
ED5
  8
0
 10
-4.628994087857885
 20
7.5717152481104799
 30
0.0
 40
0.15774437544767
 50
108.8344312437703962
 51
161.1702974451353043
  0
ARC
  5
ED6
  8
0
 10
-3.5262948664601299
 20
8.6990160260821092
 30
0.0
 40
0.1423386803199607
 50
105.7398625452544962
 51
164.2601403937455018
  0
ARC
  5
ED7
  8
0
 10
-3.7825760380638398
 20
7.8403043558205869
 30
0.0
 40
0.1260414878650757
 50
288.8366316996620071
 51
341.1473808908165779
  0
LINE
  5
ED8
  8
0
 10
-3.7418809140234952
 20
7.7210132683807329
 30
0.0
 11
-4.6799194168087981
 21
7.7210132683807329
 31
0.0
  0
LINE
  5
ED9
  8
0
 10
-3.6632963105477052
 20
8.7376282551442461
 30
0.0
 11
-3.6632963105477052
 21
7.7995759472226744
 31
0.0
  0
LINE
  5
EDA
  8
0
 10
-4.7782963105477041
 20
7.6226282551445887
 30
0.0
 11
-4.7782963105477041
 21
7.0512574929090768
 31
0.0
  0
ARC
  5
EDD
  8
0
 10
-4.628994087857885
 20
7.1021704999431856
 30
0.0
 40
0.15774437544767
 50
198.8297025548646104
 51
251.1655687562295896
  0
ARC
  5
EDE
  8
0
 10
-3.5262948664601299
 20
5.9748697219715581
 30
0.0
 40
0.1423386803199607
 50
195.7398596062544129
 51
254.2601374547454043
  0
ARC
  5
EDF
  8
0
 10
-3.7825760380638398
 20
6.8335813922330786
 30
0.0
 40
0.1260414878650757
 50
18.8526191091833404
 51
71.1633683003379076
  0
LINE
  5
EE0
  8
0
 10
-3.7418809140234952
 20
6.9528724796729326
 30
0.0
 11
-4.6799194168087981
 21
6.9528724796729326
 31
0.0
  0
LINE
  5
EE1
  8
0
 10
-3.6632963105477052
 20
5.9362574929094212
 30
0.0
 11
-3.6632963105477052
 21
6.874309800830992
 31
0.0
  0
CIRCLE
  5
EE3
  8
0
 10
-3.2788249062907902
 20
7.3369428740268328
 30
0.0
 40
1.9396009731850681
  0
ENDSEC
  0
EOF
