  0
SECTION
  2
HEADER
  9
$ACADVER
  1
AC1009
  9
$INSBASE
 10
373.9036174972785034
 20
30.7603522739857702
 30
0.0
  9
$EXTMIN
 10
370.5767407997170722
 20
28.8184139290149908
 30
-0.0000000000000058
  9
$EXTMAX
 10
373.9300955058354248
 20
32.702423935917821
 30
0.0000000000000104
  9
$LIMMIN
 10
0.0
 20
0.0
  9
$LIMMAX
 10
22.0
 20
17.0
  9
$ORTHOMODE
 70
     0
  9
$REGENMODE
 70
     1
  9
$FILLMODE
 70
     1
  9
$QTEXTMODE
 70
     0
  9
$MIRRTEXT
 70
     0
  9
$DRAGMODE
 70
     2
  9
$LTSCALE
 40
1.2099999999999991
  9
$OSMODE
 70
  4095
  9
$ATTMODE
 70
     1
  9
$TEXTSIZE
 40
0.2
  9
$TRACEWID
 40
0.05
  9
$TEXTSTYLE
  7
STANDARD
  9
$CLAYER
  8
0
  9
$CELTYPE
  6
BYLAYER
  9
$CECOLOR
 62
   256
  9
$DIMSCALE
 40
1.0
  9
$DIMASZ
 40
0.1875
  9
$DIMEXO
 40
0.0625
  9
$DIMDLI
 40
0.38
  9
$DIMRND
 40
0.0
  9
$DIMDLE
 40
0.0
  9
$DIMEXE
 40
0.125
  9
$DIMTP
 40
1.5
  9
$DIMTM
 40
1.5
  9
$DIMTXT
 40
1.5
  9
$DIMCEN
 40
0.09
  9
$DIMTSZ
 40
0.0
  9
$DIMTOL
 70
     0
  9
$DIMLIM
 70
     0
  9
$DIMTIH
 70
     1
  9
$DIMTOH
 70
     1
  9
$DIMSE1
 70
     0
  9
$DIMSE2
 70
     0
  9
$DIMTAD
 70
     0
  9
$DIMZIN
 70
     4
  9
$DIMBLK
  1

  9
$DIMASO
 70
     1
  9
$DIMSHO
 70
     1
  9
$DIMPOST
  1

  9
$DIMAPOST
  1

  9
$DIMALT
 70
     0
  9
$DIMALTD
 70
     2
  9
$DIMALTF
 40
25.3999999999999986
  9
$DIMLFAC
 40
1.0
  9
$DIMTOFL
 70
     0
  9
$DIMTVP
 40
0.0
  9
$DIMTIX
 70
     0
  9
$DIMSOXD
 70
     0
  9
$DIMSAH
 70
     0
  9
$DIMBLK1
  1

  9
$DIMBLK2
  1

  9
$DIMSTYLE
  2
STANDARD
  9
$DIMCLRD
 70
     0
  9
$DIMCLRE
 70
     0
  9
$DIMCLRT
 70
     0
  9
$DIMTFAC
 40
1.0
  9
$DIMGAP
 40
0.09
  9
$LUNITS
 70
     2
  9
$LUPREC
 70
     4
  9
$SKETCHINC
 40
0.1
  9
$FILLETRAD
 40
0.0
  9
$AUNITS
 70
     0
  9
$AUPREC
 70
     0
  9
$MENU
  1
.
  9
$ELEVATION
 40
0.0
  9
$PELEVATION
 40
0.0
  9
$THICKNESS
 40
0.0
  9
$LIMCHECK
 70
     0
  9
$BLIPMODE
 70
     0
  9
$CHAMFERA
 40
0.0
  9
$CHAMFERB
 40
0.0
  9
$SKPOLY
 70
     0
  9
$TDCREATE
 40
2457827.4934837957844138
  9
$TDUPDATE
 40
2459648.6828703698702157
  9
$TDINDWG
 40
0.416008912
  9
$TDUSRTIMER
 40
0.416008912
  9
$USRTIMER
 70
     1
  9
$ANGBASE
 50
0.0
  9
$ANGDIR
 70
     0
  9
$PDMODE
 70
     0
  9
$PDSIZE
 40
0.3125
  9
$PLINEWID
 40
0.0
  9
$COORDS
 70
     1
  9
$SPLFRAME
 70
     0
  9
$SPLINETYPE
 70
     6
  9
$SPLINESEGS
 70
     8
  9
$ATTDIA
 70
     1
  9
$ATTREQ
 70
     1
  9
$HANDLING
 70
     1
  9
$HANDSEED
  5
91F5
  9
$SURFTAB1
 70
     6
  9
$SURFTAB2
 70
     6
  9
$SURFTYPE
 70
     6
  9
$SURFU
 70
     6
  9
$SURFV
 70
     6
  9
$UCSNAME
  2

  9
$UCSORG
 10
0.0
 20
0.0
 30
0.0
  9
$UCSXDIR
 10
1.0
 20
0.0
 30
0.0
  9
$UCSYDIR
 10
0.0
 20
1.0
 30
0.0
  9
$PUCSNAME
  2

  9
$PUCSORG
 10
0.0
 20
0.0
 30
0.0
  9
$PUCSXDIR
 10
1.0
 20
0.0
 30
0.0
  9
$PUCSYDIR
 10
0.0
 20
1.0
 30
0.0
  9
$USERI1
 70
     0
  9
$USERI2
 70
     0
  9
$USERI3
 70
     0
  9
$USERI4
 70
     0
  9
$USERI5
 70
     0
  9
$USERR1
 40
0.0
  9
$USERR2
 40
0.0
  9
$USERR3
 40
0.0
  9
$USERR4
 40
0.0
  9
$USERR5
 40
0.0
  9
$WORLDVIEW
 70
     1
  9
$SHADEDGE
 70
     3
  9
$SHADEDIF
 70
    70
  9
$TILEMODE
 70
     1
  9
$MAXACTVP
 70
    48
  9
$PLIMCHECK
 70
     0
  9
$PEXTMIN
 10
1.0000000000000000E+20
 20
1.0000000000000000E+20
 30
1.0000000000000000E+20
  9
$PEXTMAX
 10
-1.0000000000000000E+20
 20
-1.0000000000000000E+20
 30
-1.0000000000000000E+20
  9
$PLIMMIN
 10
0.0
 20
0.0
  9
$PLIMMAX
 10
12.0
 20
9.0
  9
$UNITMODE
 70
     0
  9
$VISRETAIN
 70
     1
  9
$PLINEGEN
 70
     0
  9
$PSLTSCALE
 70
     1
  0
ENDSEC
  0
SECTION
  2
TABLES
  0
TABLE
  2
VPORT
 70
     1
  0
VPORT
  2
*ACTIVE
 70
     0
 10
0.0
 20
0.0
 11
1.0
 21
1.0
 12
161.2744905404715041
 22
23.5579697469058509
 13
0.0
 23
0.0
 14
1.0
 24
1.0
 15
0.0
 25
0.0
 16
-0.0000000000000284
 26
0.0
 36
157.2215818301446859
 17
210.9789276123046875
 27
7.2024491855605604
 37
0.0
 40
3.9088078743339052
 41
2.005224660397074
 42
50.0
 43
0.0
 44
0.0
 50
0.0
 51
0.0
 71
     0
 72
   100
 73
     1
 74
     1
 75
     0
 76
     0
 77
     0
 78
     0
  0
ENDTAB
  0
TABLE
  2
LTYPE
 70
     2
  0
LTYPE
  2
CONTINUOUS
 70
     0
  3
Solid line
 72
    65
 73
     0
 40
0.0
  0
LTYPE
  2
PHANTOM2
 70
     0
  3
___ _ _ ___ _ _ ___ _ _ ___ _ _
 72
    65
 73
     6
 40
1.25
 49
0.625
 49
-0.125
 49
0.125
 49
-0.125
 49
0.125
 49
-0.125
  0
ENDTAB
  0
TABLE
  2
LAYER
 70
     2
  0
LAYER
  2
0
 70
     0
 62
     7
  6
CONTINUOUS
  0
LAYER
  2
DEFPOINTS
 70
     0
 62
     7
  6
CONTINUOUS
  0
ENDTAB
  0
TABLE
  2
STYLE
 70
     1
  0
STYLE
  2
STANDARD
 70
     0
 40
0.0
 41
0.8
 50
0.0
 71
     0
 42
0.2
  3
txt
  4

  0
ENDTAB
  0
TABLE
  2
VIEW
 70
     0
  0
ENDTAB
  0
TABLE
  2
UCS
 70
     0
  0
ENDTAB
  0
TABLE
  2
APPID
 70
     9
  0
APPID
  2
ACAD
 70
     0
  0
APPID
  2
ACAD_MLEADERVER
 70
     0
  0
APPID
  2
ACAD_EXEMPT_FROM_CAD_STANDARDS
 70
     0
  0
APPID
  2
ACAD_NAV_VCDISPLAY
 70
     0
  0
APPID
  2
ACADANNOMONITORALERTICONDI
 70
     0
  0
APPID
  2
ACAD_DSTYLE_DIMJAG
 70
     0
  0
APPID
  2
ACAD_DSTYLE_DIMTALN
 70
     0
  0
APPID
  2
ACDBATTR
 70
     0
  0
APPID
  2
DCO15
 70
     0
  0
ENDTAB
  0
TABLE
  2
DIMSTYLE
 70
     1
  0
DIMSTYLE
  2
STANDARD
 70
     0
  3

  4

  5

  6

  7

 40
1.0
 41
0.1875
 42
0.0625
 43
0.38
 44
0.125
 45
0.0
 46
0.0
 47
1.5
 48
1.5
140
1.5
141
0.09
142
0.0
143
25.3999999999999986
144
1.0
145
0.0
146
1.0
147
0.09
 71
     0
 72
     0
 73
     1
 74
     1
 75
     0
 76
     0
 77
     0
 78
     4
170
     0
171
     2
172
     0
173
     0
174
     0
175
     0
176
     0
177
     0
178
     0
  0
ENDTAB
  0
ENDSEC
  0
SECTION
  2
BLOCKS
  0
BLOCK
  8
0
  2
$MODEL_SPACE
 70
     0
 10
0.0
 20
0.0
 30
0.0
  3
$MODEL_SPACE
  1

  0
ENDBLK
  5
21
  8
0
  0
BLOCK
 67
     1
  8
0
  2
$PAPER_SPACE
 70
     0
 10
0.0
 20
0.0
 30
0.0
  3
$PAPER_SPACE
  1

  0
ENDBLK
  5
1D
 67
     1
  8
0
  0
ENDSEC
  0
SECTION
  2
ENTITIES
  0
ATTDEF
  5
4EF9
  8
DEFPOINTS
 10
373.9055282482581219
 20
30.7606629476015314
 30
0.0
 40
0.001
  1
K-T73135-3
  3

  2
MODELNUMBER
 70
     0
1001
ACDBATTR
1070
     0
1070
     1
  0
ATTDEF
  5
4EFA
  8
DEFPOINTS
 10
373.9055282482581219
 20
30.7589962809348414
 30
0.0
 40
0.001
  1
COMPOSED
  3

  2
TRADENAME
 70
     0
1001
ACDBATTR
1070
     0
1070
     1
  0
ATTDEF
  5
4EFB
  8
DEFPOINTS
 10
373.9055282482581219
 20
30.7573296142681691
 30
0.0
 40
0.001
  1
VALVE TRIM
  3

  2
PRODUCT
 70
     0
1001
ACDBATTR
1070
     0
1070
     1
  0
LINE
  5
9089
  8
0
 10
373.9036174972785034
 20
32.7003522741857822
 30
0.0
 11
373.9036174972785034
 21
28.8203522737857689
 31
0.0
  0
LINE
  5
908A
  8
0
 10
373.3202587902785012
 20
31.5488522741921784
 30
0.0
 11
373.3202587902785012
 21
29.9718522737793691
 31
0.0
  0
ARC
  5
908B
  8
0
 10
401.1587231819808039
 20
31.5601299273156499
 30
0.0
 40
27.8384666760499613
 50
177.7934060448498883
 51
180.0232111183545953
  0
ARC
  5
908C
  8
0
 10
373.402852981378885
 20
32.6296019526861016
 30
0.0
 40
0.062
 50
91.0000000025295037
 51
177.7934060448424987
  0
LINE
  5
908D
  8
0
 10
373.9036174972785034
 20
32.7003522741857822
 30
0.0
 11
373.4017709321769871
 21
32.6915925097857496
 31
0.0
  0
LINE
  5
908E
  8
0
 10
372.1902587902785058
 20
31.5188522741857717
 30
0.0
 11
372.1902587902785058
 21
30.0018522737857687
 31
0.0
  0
LINE
  5
908F
  8
0
 10
372.2202587902784217
 20
31.5488522741857693
 30
0.0
 11
373.3202587902785012
 21
31.5488522741857693
 31
0.0
  0
LINE
  5
9090
  8
0
 10
370.9482587902783735
 20
31.2803522741857698
 30
0.0
 11
370.9482587902783735
 21
30.2403522737857813
 31
0.0
  0
LINE
  5
9091
  8
0
 10
372.1602587902784194
 20
31.3103522741857709
 30
0.0
 11
370.9782587902785167
 21
31.3103522741857709
 31
0.0
  0
ARC
  5
9092
  8
0
 10
372.2202587902784217
 20
31.5188522741857717
 30
0.0
 40
0.03
 50
90.0000000000065086
 51
179.999999999996902
  0
ARC
  5
9093
  8
0
 10
372.1602587902784194
 20
31.3403522741857792
 30
0.0
 40
0.03
 50
270.0000000000032969
 51
359.9999999999964757
  0
ARC
  5
9094
  8
0
 10
370.9782587902785167
 20
31.2803522741857698
 30
0.0
 40
0.03
 50
90.0000000000065086
 51
179.9999999999984084
  0
LINE
  5
9095
  8
0
 10
370.9372587902784062
 20
32.2298240524311979
 30
0.0
 11
370.9372587902784062
 21
29.290880495540339
 31
0.0
  0
ARC
  5
9096
  8
0
 10
370.9672587902783789
 20
31.2307856440857599
 30
0.0
 40
0.0299999999999806
 50
180.0
 51
230.7035197608257135
  0
LINE
  5
9097
  8
0
 10
370.6127352180841967
 20
32.2546876941858827
 30
0.0
 11
370.9067352180841795
 21
32.2598194832858809
 31
0.0
  0
LINE
  5
9098
  8
0
 10
370.5832587902784212
 20
32.2246922633311996
 30
0.0
 11
370.5832587902784212
 21
29.2960122846403515
 31
0.0
  0
ARC
  5
9099
  8
0
 10
370.6132587902783939
 20
32.2246922633311996
 30
0.0
 40
0.03
 50
91.0000000021679369
 51
179.999999999996902
  0
ARC
  5
909A
  8
0
 10
370.9072587902784903
 20
32.2298240524311979
 30
0.0
 40
0.03
 50
0.000000000001832
 51
91.0000000021614284
  0
LINE
  5
909B
  8
0
 10
370.6127352180841967
 20
31.13968769418587
 30
0.0
 11
370.9067352180841795
 21
31.1448194832858682
 31
0.0
  0
ARC
  5
909C
  8
0
 10
370.6132587902783939
 20
31.1096922633312012
 30
0.0
 40
0.03
 50
91.0000000021646827
 51
179.9999999999951115
  0
ARC
  5
909D
  8
0
 10
370.9072587902784903
 20
31.1148240524311994
 30
0.0
 40
0.03
 50
0.0000000000004071
 51
91.0000000021646827
  0
ARC
  5
909E
  8
0
 10
401.1587231819808039
 20
29.9605746206558798
 30
0.0
 40
27.8384666760499613
 50
179.9767888816454047
 51
182.2065939551501117
  0
ARC
  5
909F
  8
0
 10
373.402852981378885
 20
28.8911025952854494
 30
0.0
 40
0.062
 50
182.2065939551573877
 51
268.9999999974705247
  0
LINE
  5
90A0
  8
0
 10
373.9036174972785034
 20
28.8203522737857689
 30
0.0
 11
373.4017709321769871
 21
28.8291120381858015
 31
0.0
  0
LINE
  5
90A1
  8
0
 10
372.2202587902784217
 20
29.9718522737857711
 30
0.0
 11
373.3202587902785012
 21
29.9718522737857711
 31
0.0
  0
LINE
  5
90A2
  8
0
 10
372.1602587902784194
 20
30.2103522737857801
 30
0.0
 11
370.9782587902785167
 21
30.2103522737857801
 31
0.0
  0
ARC
  5
90A3
  8
0
 10
372.2202587902784217
 20
30.0018522737857687
 30
0.0
 40
0.03
 50
180.0
 51
269.9999999999935199
  0
ARC
  5
90A4
  8
0
 10
372.1602587902784194
 20
30.1803522737857683
 30
0.0
 40
0.03
 50
0.0000000000034604
 51
89.9999999999967457
  0
ARC
  5
90A5
  8
0
 10
370.9782587902785167
 20
30.2403522737857813
 30
0.0
 40
0.03
 50
180.0000000000015916
 51
269.9999999999935199
  0
ARC
  5
90A6
  8
0
 10
370.9672587902783789
 20
30.2899189038857806
 30
0.0
 40
0.0299999999999806
 50
129.2964802391742865
 51
180.0
  0
LINE
  5
90A7
  8
0
 10
370.6127352180841967
 20
29.2660168537856684
 30
0.0
 11
370.9067352180841795
 21
29.2608850646856808
 31
0.0
  0
ARC
  5
90A8
  8
0
 10
370.6132587902783939
 20
29.2960122846403515
 30
0.0
 40
0.03
 50
180.0000000000028137
 51
268.999999997831992
  0
ARC
  5
90A9
  8
0
 10
370.9072587902784903
 20
29.290880495540339
 30
0.0
 40
0.03
 50
268.9999999978384722
 51
359.9999999999980105
  0
LINE
  5
90AA
  8
0
 10
370.6127352180841967
 20
30.3810168537856704
 30
0.0
 11
370.9067352180841795
 21
30.3758850646856686
 31
0.0
  0
ARC
  5
90AB
  8
0
 10
370.6132587902783939
 20
30.4110122846403499
 30
0.0
 40
0.03
 50
180.0000000000048885
 51
268.9999999978352889
  0
ARC
  5
90AC
  8
0
 10
370.9072587902784903
 20
30.4058804955403517
 30
0.0
 40
0.03
 50
268.9999999978352889
 51
359.9999999999996021
  0
LINE
  5
90AE
  8
0
 10
373.3408989548819932
 20
28.8887154210509891
 30
0.0
 11
373.3408989548819932
 21
32.6319891269204518
 31
0.0
  0
ENDSEC
  0
EOF
