  0
SECTION
  2
HEADER
  9
$ACADVER
  1
AC1009
  9
$INSBASE
 10
4767.126000845544695
 20
240.0959142696277127
 30
0.0
  9
$EXTMIN
 10
4763.7830008455439383
 20
236.8965284043486008
 30
0.0
  9
$EXTMAX
 10
4776.5791300549662992
 20
243.4710325671049986
 30
0.0
  9
$LIMMIN
 10
0.0
 20
0.0
  9
$LIMMAX
 10
11.6929133858000007
 20
8.2677165353999982
  9
$ORTHOMODE
 70
     0
  9
$REGENMODE
 70
     1
  9
$FILLMODE
 70
     1
  9
$QTEXTMODE
 70
     0
  9
$MIRRTEXT
 70
     0
  9
$DRAGMODE
 70
     2
  9
$LTSCALE
 40
0.6431102362
  9
$OSMODE
 70
  4095
  9
$ATTMODE
 70
     1
  9
$TEXTSIZE
 40
0.2
  9
$TRACEWID
 40
0.05
  9
$TEXTSTYLE
  7
STANDARD
  9
$CLAYER
  8
0
  9
$CELTYPE
  6
BYLAYER
  9
$CECOLOR
 62
   256
  9
$DIMSCALE
 40
1.0
  9
$DIMASZ
 40
0.1875
  9
$DIMEXO
 40
0.0625
  9
$DIMDLI
 40
0.4443307087
  9
$DIMRND
 40
0.0
  9
$DIMDLE
 40
0.0
  9
$DIMEXE
 40
0.125
  9
$DIMTP
 40
0.01
  9
$DIMTM
 40
0.01
  9
$DIMTXT
 40
2.0
  9
$DIMCEN
 40
0.1052362205
  9
$DIMTSZ
 40
0.0
  9
$DIMTOL
 70
     1
  9
$DIMLIM
 70
     0
  9
$DIMTIH
 70
     1
  9
$DIMTOH
 70
     1
  9
$DIMSE1
 70
     0
  9
$DIMSE2
 70
     0
  9
$DIMTAD
 70
     0
  9
$DIMZIN
 70
     0
  9
$DIMBLK
  1

  9
$DIMASO
 70
     1
  9
$DIMSHO
 70
     1
  9
$DIMPOST
  1
\X
  9
$DIMAPOST
  1

  9
$DIMALT
 70
     1
  9
$DIMALTD
 70
     2
  9
$DIMALTF
 40
25.3999999999999986
  9
$DIMLFAC
 40
1.0
  9
$DIMTOFL
 70
     0
  9
$DIMTVP
 40
0.0
  9
$DIMTIX
 70
     0
  9
$DIMSOXD
 70
     0
  9
$DIMSAH
 70
     0
  9
$DIMBLK1
  1

  9
$DIMBLK2
  1

  9
$DIMSTYLE
  2
STANDARD
  9
$DIMCLRD
 70
     0
  9
$DIMCLRE
 70
     0
  9
$DIMCLRT
 70
     0
  9
$DIMTFAC
 40
1.0
  9
$DIMGAP
 40
0.09
  9
$LUNITS
 70
     2
  9
$LUPREC
 70
     4
  9
$SKETCHINC
 40
0.1
  9
$FILLETRAD
 40
0.0
  9
$AUNITS
 70
     0
  9
$AUPREC
 70
     0
  9
$MENU
  1
.
  9
$ELEVATION
 40
0.0
  9
$PELEVATION
 40
0.0
  9
$THICKNESS
 40
0.0
  9
$LIMCHECK
 70
     0
  9
$BLIPMODE
 70
     0
  9
$CHAMFERA
 40
0.0
  9
$CHAMFERB
 40
0.0
  9
$SKPOLY
 70
     0
  9
$TDCREATE
 40
2458060.468368056230247
  9
$TDUPDATE
 40
2459578.9169907411560416
  9
$TDINDWG
 40
0.4593010417
  9
$TDUSRTIMER
 40
0.4593010417
  9
$USRTIMER
 70
     1
  9
$ANGBASE
 50
0.0
  9
$ANGDIR
 70
     0
  9
$PDMODE
 70
     0
  9
$PDSIZE
 40
0.3125
  9
$PLINEWID
 40
0.0
  9
$COORDS
 70
     1
  9
$SPLFRAME
 70
     0
  9
$SPLINETYPE
 70
     6
  9
$SPLINESEGS
 70
     8
  9
$ATTDIA
 70
     1
  9
$ATTREQ
 70
     1
  9
$HANDLING
 70
     1
  9
$HANDSEED
  5
D05C
  9
$SURFTAB1
 70
     6
  9
$SURFTAB2
 70
     6
  9
$SURFTYPE
 70
     6
  9
$SURFU
 70
     6
  9
$SURFV
 70
     6
  9
$UCSNAME
  2

  9
$UCSORG
 10
0.0
 20
0.0
 30
0.0
  9
$UCSXDIR
 10
1.0
 20
0.0
 30
0.0
  9
$UCSYDIR
 10
0.0
 20
1.0
 30
0.0
  9
$PUCSNAME
  2

  9
$PUCSORG
 10
0.0
 20
0.0
 30
0.0
  9
$PUCSXDIR
 10
1.0
 20
0.0
 30
0.0
  9
$PUCSYDIR
 10
0.0
 20
1.0
 30
0.0
  9
$USERI1
 70
     0
  9
$USERI2
 70
     0
  9
$USERI3
 70
     0
  9
$USERI4
 70
     0
  9
$USERI5
 70
     0
  9
$USERR1
 40
0.0
  9
$USERR2
 40
0.0
  9
$USERR3
 40
0.0
  9
$USERR4
 40
0.0
  9
$USERR5
 40
0.0
  9
$WORLDVIEW
 70
     1
  9
$SHADEDGE
 70
     3
  9
$SHADEDIF
 70
    70
  9
$TILEMODE
 70
     1
  9
$MAXACTVP
 70
    64
  9
$PLIMCHECK
 70
     0
  9
$PEXTMIN
 10
1.0000000000000000E+20
 20
1.0000000000000000E+20
 30
1.0000000000000000E+20
  9
$PEXTMAX
 10
-1.0000000000000000E+20
 20
-1.0000000000000000E+20
 30
-1.0000000000000000E+20
  9
$PLIMMIN
 10
0.0
 20
0.0
  9
$PLIMMAX
 10
12.0
 20
9.0
  9
$UNITMODE
 70
     0
  9
$VISRETAIN
 70
     1
  9
$PLINEGEN
 70
     0
  9
$PSLTSCALE
 70
     1
  0
ENDSEC
  0
SECTION
  2
TABLES
  0
TABLE
  2
VPORT
 70
     1
  0
VPORT
  2
*ACTIVE
 70
     0
 10
0.0
 20
0.0
 11
1.0
 21
1.0
 12
-8.3325772661297979
 22
-0.4460245280551121
 13
0.0
 23
0.0
 14
1.0
 24
1.0
 15
0.0
 25
0.0
 16
0.0
 26
0.0
 36
23.7622010706499793
 17
4774.90771484375
 27
240.2712631225585938
 37
0.0
 40
8.0920583640903612
 41
2.5429292929292919
 42
50.0
 43
0.0
 44
0.0
 50
0.0
 51
0.0
 71
     0
 72
   100
 73
     1
 74
     1
 75
     0
 76
     0
 77
     0
 78
     0
  0
ENDTAB
  0
TABLE
  2
LTYPE
 70
     2
  0
LTYPE
  2
CONTINUOUS
 70
     0
  3
Solid line
 72
    65
 73
     0
 40
0.0
  0
LTYPE
  2
PHANTOM2
 70
     0
  3
___ _ _ ___ _ _ ___ _ _ ___ _ _
 72
    65
 73
     6
 40
1.25
 49
0.625
 49
-0.125
 49
0.125
 49
-0.125
 49
0.125
 49
-0.125
  0
ENDTAB
  0
TABLE
  2
LAYER
 70
     2
  0
LAYER
  2
0
 70
     0
 62
   255
  6
CONTINUOUS
  0
LAYER
  2
DEFPOINTS
 70
     0
 62
     7
  6
CONTINUOUS
  0
ENDTAB
  0
TABLE
  2
STYLE
 70
     1
  0
STYLE
  2
STANDARD
 70
     0
 40
0.0
 41
0.8
 50
0.0
 71
     0
 42
0.2
  3
txt
  4

  0
ENDTAB
  0
TABLE
  2
VIEW
 70
     0
  0
ENDTAB
  0
TABLE
  2
UCS
 70
     0
  0
ENDTAB
  0
TABLE
  2
APPID
 70
    10
  0
APPID
  2
ACAD
 70
     0
  0
APPID
  2
ACAD_MLEADERVER
 70
     0
  0
APPID
  2
ACAD_EXEMPT_FROM_CAD_STANDARDS
 70
     0
  0
APPID
  2
ACAD_NAV_VCDISPLAY
 70
     0
  0
APPID
  2
ACAECLAYERSTANDARD
 70
     0
  0
APPID
  2
ACCMTRANSPARENCY
 70
     0
  0
APPID
  2
ACAD_DSTYLE_DIMJAG
 70
     0
  0
APPID
  2
ACAD_DSTYLE_DIMTALN
 70
     0
  0
APPID
  2
ACDBATTR
 70
     0
  0
APPID
  2
ACADANNOTATIVE
 70
     0
  0
ENDTAB
  0
TABLE
  2
DIMSTYLE
 70
     2
  0
DIMSTYLE
  2
STANDARD
 70
     0
  3

  4

  5

  6

  7

 40
1.0
 41
0.1875
 42
0.0625
 43
0.38
 44
0.125
 45
0.0
 46
0.0
 47
0.01
 48
0.01
140
0.15625
141
0.09
142
0.0
143
25.3999999999999986
144
1.0
145
0.0
146
1.0
147
0.09
 71
     1
 72
     0
 73
     1
 74
     1
 75
     0
 76
     0
 77
     0
 78
     4
170
     0
171
     2
172
     0
173
     0
174
     0
175
     0
176
     0
177
     0
178
     0
  0
DIMSTYLE
  2
ANNOTATIVE
 70
     0
  3

  4

  5

  6

  7

 40
0.0
 41
0.18
 42
0.0625
 43
0.38
 44
0.18
 45
0.0
 46
0.0
 47
0.0
 48
0.0
140
0.18
141
0.09
142
0.0
143
25.3999999999999986
144
1.0
145
0.0
146
1.0
147
0.09
 71
     0
 72
     0
 73
     1
 74
     1
 75
     0
 76
     0
 77
     0
 78
     0
170
     0
171
     2
172
     0
173
     0
174
     0
175
     0
176
     0
177
     0
178
     0
  0
ENDTAB
  0
ENDSEC
  0
SECTION
  2
BLOCKS
  0
BLOCK
  8
0
  2
$MODEL_SPACE
 70
     0
 10
0.0
 20
0.0
 30
0.0
  3
$MODEL_SPACE
  1

  0
ENDBLK
  5
21
  8
0
  0
BLOCK
 67
     1
  8
0
  2
$PAPER_SPACE
 70
     0
 10
0.0
 20
0.0
 30
0.0
  3
$PAPER_SPACE
  1

  0
ENDBLK
  5
1D
 67
     1
  8
0
  0
ENDSEC
  0
SECTION
  2
ENTITIES
  0
ATTDEF
  5
3930
  8
DEFPOINTS
 10
4767.1133259717762485
 20
240.0925424603713907
 30
0.0
 40
0.001
  1
K-T73133-3
  3

  2
MODELNUMBER
 70
     0
1001
ACDBATTR
1070
     0
1070
     1
  0
ATTDEF
  5
3931
  8
DEFPOINTS
 10
4767.1133259717762485
 20
240.0908757937046971
 30
0.0
 40
0.001
  1
COMPOSED
  3

  2
TRADENAME
 70
     0
1001
ACDBATTR
1070
     0
1070
     1
  0
ATTDEF
  5
3932
  8
DEFPOINTS
 10
4767.1133259717762485
 20
240.0892091270380888
 30
0.0
 40
0.001
  1
VALVE TRIM
  3

  2
PRODUCT
 70
     0
1001
ACDBATTR
1070
     0
1070
     1
  0
LINE
  5
CF30
  8
0
 10
4763.7830008455439383
 20
241.560254258677702
 30
0.0
 11
4763.7830008455439383
 21
238.6315742805776949
 31
0.0
  0
LINE
  5
CF31
  8
0
 10
4764.1370008455442076
 20
241.5653860477777073
 30
0.0
 11
4764.1370008455442076
 21
238.6264424914776896
 31
0.0
  0
LINE
  5
CF32
  8
0
 10
4764.1480008447506407
 20
240.6159163508048948
 30
0.0
 11
4764.1480008444623309
 21
239.5759121884505873
 31
0.0
  0
LINE
  5
CF33
  8
0
 10
4765.3900008455439092
 20
240.8544045645776919
 30
0.0
 11
4765.3900008455439092
 21
239.337423974677705
 31
0.0
  0
LINE
  5
CF34
  8
0
 10
4763.8124772733453938
 20
239.7165788496776884
 30
0.0
 11
4764.1099777947283656
 21
239.7118438752737859
 31
0.0
  0
LINE
  5
CF35
  8
0
 10
4764.1780008455443749
 20
239.5459142696776951
 30
0.0
 11
4765.3600008455441639
 21
239.5459142696776951
 31
0.0
  0
LINE
  5
CF36
  8
0
 10
4765.4200008455436546
 20
239.3074142696777074
 30
0.0
 11
4766.5200008455440184
 21
239.3074142696777074
 31
0.0
  0
LINE
  5
CF37
  8
0
 10
4766.5200008455440184
 20
240.8959142696776894
 30
0.0
 11
4766.5200008455440184
 21
239.2959142696776951
 31
0.0
  0
LINE
  5
CF38
  8
0
 10
4766.5624287924320015
 20
243.1912765453967893
 30
0.0
 11
4766.5624287924320015
 21
237.0005519938586929
 31
0.0
  0
LINE
  5
CF39
  8
0
 10
4763.8124772733453938
 20
238.6015788496777077
 30
0.0
 11
4764.1094176143969889
 21
238.5968438752738052
 31
0.0
  0
LINE
  5
CF3A
  8
0
 10
4767.126000845544695
 20
236.8965284043486008
 30
0.0
 11
4767.126000845544695
 21
243.2953001349069098
 31
0.0
  0
LINE
  5
CF3B
  8
0
 10
4766.6606152424446918
 20
236.9042627691777056
 30
0.0
 11
4767.126000845544695
 21
236.8965284043486008
 31
0.0
  0
ARC
  5
CF3C
  8
0
 10
4764.1813662097847555
 20
239.618674539606701
 30
0.0
 40
0.0448844302811497
 50
138.0185715066454861
 51
171.2779112152034031
  0
ARC
  5
CF3D
  8
0
 10
4764.1780008463601916
 20
239.5759142716478038
 30
0.0
 40
0.0300000019700392
 50
180.0039786133341977
 51
269.9999984415400149
  0
ARC
  5
CF3E
  8
0
 10
4764.1028585905587533
 20
239.7479453574248112
 30
0.0
 40
0.0367967400933517
 50
281.1555794818277718
 51
338.1037804471783943
  0
ARC
  5
CF3F
  8
0
 10
4763.8241699656737183
 20
239.7575499934968093
 30
0.0
 40
0.0426069675027381
 50
194.9273486091634879
 51
254.0718641893338088
  0
ARC
  5
CF40
  8
0
 10
4765.4225091093621813
 20
239.3399217239042116
 30
0.0
 40
0.0326040790035261
 50
184.3936478781552069
 51
265.5878199349151032
  0
ARC
  5
CF41
  8
0
 10
4765.3511172142825671
 20
239.5070306384172056
 30
0.0
 40
0.0398855322689824
 50
12.8693217414927101
 51
77.1306782585097466
  0
ARC
  5
CF42
  8
0
 10
4764.1014051300826395
 20
238.6319626308464024
 30
0.0
 40
0.0360212006717751
 50
282.8522697187231074
 51
351.1848603958806052
  0
ARC
  5
CF43
  8
0
 10
4763.8171312802787725
 20
238.6356332474339013
 30
0.0
 40
0.0343709439363574
 50
186.7820552179497895
 51
262.2179446821571105
  0
ARC
  5
CF44
  8
0
 10
4766.6623604838441679
 20
237.0042475386777028
 30
0.0
 40
0.1
 50
182.1178734630985048
 51
268.9999995779194251
  0
ARC
  5
CF45
  8
0
 10
4828.6310443592574302
 20
239.2959142702808037
 30
0.0
 40
62.1110435137118415
 50
180.000000000556895
 51
182.1178926874835042
  0
LINE
  5
CF46
  8
0
 10
4763.8124772733453938
 20
240.4752496895777938
 30
0.0
 11
4764.1099777947283656
 21
240.4799846639816963
 31
0.0
  0
LINE
  5
CF47
  8
0
 10
4764.1780008455443749
 20
240.6459142695777018
 30
0.0
 11
4765.3600008455441639
 21
240.6459142695777018
 31
0.0
  0
LINE
  5
CF48
  8
0
 10
4765.4200008455436546
 20
240.8844142695776895
 30
0.0
 11
4766.5200008455440184
 21
240.8844142695776895
 31
0.0
  0
LINE
  5
CF49
  8
0
 10
4763.8124772733453938
 20
241.5902496895776892
 30
0.0
 11
4764.1094176143969889
 21
241.5949846639815917
 31
0.0
  0
LINE
  5
CF4A
  8
0
 10
4766.6606152424446918
 20
243.2875657700776912
 30
0.0
 11
4767.126000845544695
 21
243.2953001349069098
 31
0.0
  0
ARC
  5
CF4B
  8
0
 10
4764.1813662097847555
 20
240.5731539996486958
 30
0.0
 40
0.0448844302811497
 50
188.7220887847965969
 51
221.9814284933545139
  0
ARC
  5
CF4C
  8
0
 10
4764.1780008461555553
 20
240.6159142681015908
 30
0.0
 40
0.0300000014761466
 50
90.0000011677376506
 51
179.9960223298654114
  0
ARC
  5
CF4D
  8
0
 10
4764.1028585905587533
 20
240.4438831818306994
 30
0.0
 40
0.036796740093353
 50
21.8962195528215808
 51
78.8444205181721998
  0
ARC
  5
CF4E
  8
0
 10
4763.8241699656737183
 20
240.4342785457587013
 30
0.0
 40
0.0426069675027381
 50
105.928135810666106
 51
165.0726513908365121
  0
ARC
  5
CF4F
  8
0
 10
4765.4225091093621813
 20
240.851906815351299
 30
0.0
 40
0.0326040790035261
 50
94.4121800650848968
 51
175.6063521218447931
  0
ARC
  5
CF50
  8
0
 10
4765.3511172142825671
 20
240.6847979008383049
 30
0.0
 40
0.0398855322689824
 50
282.8693217414901824
 51
347.1306782585072028
  0
ARC
  5
CF51
  8
0
 10
4764.1014051300826395
 20
241.5598659084091082
 30
0.0
 40
0.036021200671783
 50
8.8151396041210202
 51
77.1477302812764805
  0
ARC
  5
CF52
  8
0
 10
4763.8171312802787725
 20
241.5561952918216093
 30
0.0
 40
0.0343709439363574
 50
97.7820553178429179
 51
173.2179447820516884
  0
ARC
  5
CF53
  8
0
 10
4766.6623604838441679
 20
243.1875810005776941
 30
0.0
 40
0.1
 50
91.0000004220805749
 51
177.8821265368997899
  0
ARC
  5
CF54
  8
0
 10
4828.6310443592574302
 20
240.8959142689745931
 30
0.0
 40
62.1110435137118415
 50
177.8821073125164958
 51
179.9999999994429913
  0
ENDSEC
  0
EOF
