  0
SECTION
  2
HEADER
  9
$ACADVER
  1
AC1009
  9
$INSBASE
 10
4765.9604655852817814
 20
241.559385033523796
 30
0.0
  9
$EXTMIN
 10
4762.7610797200040906
 20
238.216385033523693
 30
0.0
  9
$EXTMAX
 10
4769.1598514505622006
 20
241.5643175573179064
 30
0.0
  9
$LIMMIN
 10
0.0
 20
0.0
  9
$LIMMAX
 10
11.6929133858000007
 20
8.2677165353999982
  9
$ORTHOMODE
 70
     0
  9
$REGENMODE
 70
     1
  9
$FILLMODE
 70
     1
  9
$QTEXTMODE
 70
     0
  9
$MIRRTEXT
 70
     0
  9
$DRAGMODE
 70
     2
  9
$LTSCALE
 40
0.6431102362
  9
$OSMODE
 70
  4095
  9
$ATTMODE
 70
     1
  9
$TEXTSIZE
 40
0.2
  9
$TRACEWID
 40
0.05
  9
$TEXTSTYLE
  7
STANDARD
  9
$CLAYER
  8
0
  9
$CELTYPE
  6
BYLAYER
  9
$CECOLOR
 62
   256
  9
$DIMSCALE
 40
1.0
  9
$DIMASZ
 40
0.1875
  9
$DIMEXO
 40
0.0625
  9
$DIMDLI
 40
0.4443307087
  9
$DIMRND
 40
0.0
  9
$DIMDLE
 40
0.0
  9
$DIMEXE
 40
0.125
  9
$DIMTP
 40
0.01
  9
$DIMTM
 40
0.01
  9
$DIMTXT
 40
2.0
  9
$DIMCEN
 40
0.1052362205
  9
$DIMTSZ
 40
0.0
  9
$DIMTOL
 70
     1
  9
$DIMLIM
 70
     0
  9
$DIMTIH
 70
     1
  9
$DIMTOH
 70
     1
  9
$DIMSE1
 70
     0
  9
$DIMSE2
 70
     0
  9
$DIMTAD
 70
     0
  9
$DIMZIN
 70
     0
  9
$DIMBLK
  1

  9
$DIMASO
 70
     1
  9
$DIMSHO
 70
     1
  9
$DIMPOST
  1
\X
  9
$DIMAPOST
  1

  9
$DIMALT
 70
     1
  9
$DIMALTD
 70
     2
  9
$DIMALTF
 40
25.3999999999999986
  9
$DIMLFAC
 40
1.0
  9
$DIMTOFL
 70
     0
  9
$DIMTVP
 40
0.0
  9
$DIMTIX
 70
     0
  9
$DIMSOXD
 70
     0
  9
$DIMSAH
 70
     0
  9
$DIMBLK1
  1

  9
$DIMBLK2
  1

  9
$DIMSTYLE
  2
STANDARD
  9
$DIMCLRD
 70
     0
  9
$DIMCLRE
 70
     0
  9
$DIMCLRT
 70
     0
  9
$DIMTFAC
 40
1.0
  9
$DIMGAP
 40
0.09
  9
$LUNITS
 70
     2
  9
$LUPREC
 70
     4
  9
$SKETCHINC
 40
0.1
  9
$FILLETRAD
 40
0.0
  9
$AUNITS
 70
     0
  9
$AUPREC
 70
     0
  9
$MENU
  1
.
  9
$ELEVATION
 40
0.0
  9
$PELEVATION
 40
0.0
  9
$THICKNESS
 40
0.0
  9
$LIMCHECK
 70
     0
  9
$BLIPMODE
 70
     0
  9
$CHAMFERA
 40
0.0
  9
$CHAMFERB
 40
0.0
  9
$SKPOLY
 70
     0
  9
$TDCREATE
 40
2458060.468368056230247
  9
$TDUPDATE
 40
2459578.9177893521264195
  9
$TDINDWG
 40
0.4601228009
  9
$TDUSRTIMER
 40
0.4601228009
  9
$USRTIMER
 70
     1
  9
$ANGBASE
 50
0.0
  9
$ANGDIR
 70
     0
  9
$PDMODE
 70
     0
  9
$PDSIZE
 40
0.3125
  9
$PLINEWID
 40
0.0
  9
$COORDS
 70
     1
  9
$SPLFRAME
 70
     0
  9
$SPLINETYPE
 70
     6
  9
$SPLINESEGS
 70
     8
  9
$ATTDIA
 70
     1
  9
$ATTREQ
 70
     1
  9
$HANDLING
 70
     1
  9
$HANDSEED
  5
CE43
  9
$SURFTAB1
 70
     6
  9
$SURFTAB2
 70
     6
  9
$SURFTYPE
 70
     6
  9
$SURFU
 70
     6
  9
$SURFV
 70
     6
  9
$UCSNAME
  2

  9
$UCSORG
 10
0.0
 20
0.0
 30
0.0
  9
$UCSXDIR
 10
1.0
 20
0.0
 30
0.0
  9
$UCSYDIR
 10
0.0
 20
1.0
 30
0.0
  9
$PUCSNAME
  2

  9
$PUCSORG
 10
0.0
 20
0.0
 30
0.0
  9
$PUCSXDIR
 10
1.0
 20
0.0
 30
0.0
  9
$PUCSYDIR
 10
0.0
 20
1.0
 30
0.0
  9
$USERI1
 70
     0
  9
$USERI2
 70
     0
  9
$USERI3
 70
     0
  9
$USERI4
 70
     0
  9
$USERI5
 70
     0
  9
$USERR1
 40
0.0
  9
$USERR2
 40
0.0
  9
$USERR3
 40
0.0
  9
$USERR4
 40
0.0
  9
$USERR5
 40
0.0
  9
$WORLDVIEW
 70
     1
  9
$SHADEDGE
 70
     3
  9
$SHADEDIF
 70
    70
  9
$TILEMODE
 70
     1
  9
$MAXACTVP
 70
    64
  9
$PLIMCHECK
 70
     0
  9
$PEXTMIN
 10
1.0000000000000000E+20
 20
1.0000000000000000E+20
 30
1.0000000000000000E+20
  9
$PEXTMAX
 10
-1.0000000000000000E+20
 20
-1.0000000000000000E+20
 30
-1.0000000000000000E+20
  9
$PLIMMIN
 10
0.0
 20
0.0
  9
$PLIMMAX
 10
12.0
 20
9.0
  9
$UNITMODE
 70
     0
  9
$VISRETAIN
 70
     1
  9
$PLINEGEN
 70
     0
  9
$PSLTSCALE
 70
     1
  0
ENDSEC
  0
SECTION
  2
TABLES
  0
TABLE
  2
VPORT
 70
     1
  0
VPORT
  2
*ACTIVE
 70
     0
 10
0.0
 20
0.0
 11
1.0
 21
1.0
 12
0.0
 22
0.0
 13
0.0
 23
0.0
 14
1.0
 24
1.0
 15
0.0
 25
0.0
 16
0.0
 26
0.0
 36
23.7668190398745693
 17
4765.9604492187490905
 27
239.8903512225066095
 37
0.0
 40
7.2306740411526134
 41
2.5429292929292919
 42
50.0
 43
0.0
 44
0.0
 50
0.0
 51
0.0
 71
     0
 72
   100
 73
     1
 74
     1
 75
     0
 76
     0
 77
     0
 78
     0
  0
ENDTAB
  0
TABLE
  2
LTYPE
 70
     2
  0
LTYPE
  2
CONTINUOUS
 70
     0
  3
Solid line
 72
    65
 73
     0
 40
0.0
  0
LTYPE
  2
PHANTOM2
 70
     0
  3
___ _ _ ___ _ _ ___ _ _ ___ _ _
 72
    65
 73
     6
 40
1.25
 49
0.625
 49
-0.125
 49
0.125
 49
-0.125
 49
0.125
 49
-0.125
  0
ENDTAB
  0
TABLE
  2
LAYER
 70
     2
  0
LAYER
  2
0
 70
     0
 62
   255
  6
CONTINUOUS
  0
LAYER
  2
DEFPOINTS
 70
     0
 62
     7
  6
CONTINUOUS
  0
ENDTAB
  0
TABLE
  2
STYLE
 70
     1
  0
STYLE
  2
STANDARD
 70
     0
 40
0.0
 41
0.8
 50
0.0
 71
     0
 42
0.2
  3
txt
  4

  0
ENDTAB
  0
TABLE
  2
VIEW
 70
     0
  0
ENDTAB
  0
TABLE
  2
UCS
 70
     0
  0
ENDTAB
  0
TABLE
  2
APPID
 70
    10
  0
APPID
  2
ACAD
 70
     0
  0
APPID
  2
ACAD_MLEADERVER
 70
     0
  0
APPID
  2
ACAD_EXEMPT_FROM_CAD_STANDARDS
 70
     0
  0
APPID
  2
ACAD_NAV_VCDISPLAY
 70
     0
  0
APPID
  2
ACAECLAYERSTANDARD
 70
     0
  0
APPID
  2
ACCMTRANSPARENCY
 70
     0
  0
APPID
  2
ACAD_DSTYLE_DIMJAG
 70
     0
  0
APPID
  2
ACAD_DSTYLE_DIMTALN
 70
     0
  0
APPID
  2
ACDBATTR
 70
     0
  0
APPID
  2
ACADANNOTATIVE
 70
     0
  0
ENDTAB
  0
TABLE
  2
DIMSTYLE
 70
     2
  0
DIMSTYLE
  2
STANDARD
 70
     0
  3

  4

  5

  6

  7

 40
1.0
 41
0.1875
 42
0.0625
 43
0.38
 44
0.125
 45
0.0
 46
0.0
 47
0.01
 48
0.01
140
0.15625
141
0.09
142
0.0
143
25.3999999999999986
144
1.0
145
0.0
146
1.0
147
0.09
 71
     1
 72
     0
 73
     1
 74
     1
 75
     0
 76
     0
 77
     0
 78
     4
170
     0
171
     2
172
     0
173
     0
174
     0
175
     0
176
     0
177
     0
178
     0
  0
DIMSTYLE
  2
ANNOTATIVE
 70
     0
  3

  4

  5

  6

  7

 40
0.0
 41
0.18
 42
0.0625
 43
0.38
 44
0.18
 45
0.0
 46
0.0
 47
0.0
 48
0.0
140
0.18
141
0.09
142
0.0
143
25.3999999999999986
144
1.0
145
0.0
146
1.0
147
0.09
 71
     0
 72
     0
 73
     1
 74
     1
 75
     0
 76
     0
 77
     0
 78
     0
170
     0
171
     2
172
     0
173
     0
174
     0
175
     0
176
     0
177
     0
178
     0
  0
ENDTAB
  0
ENDSEC
  0
SECTION
  2
BLOCKS
  0
BLOCK
  8
0
  2
$MODEL_SPACE
 70
     0
 10
0.0
 20
0.0
 30
0.0
  3
$MODEL_SPACE
  1

  0
ENDBLK
  5
21
  8
0
  0
BLOCK
 67
     1
  8
0
  2
$PAPER_SPACE
 70
     0
 10
0.0
 20
0.0
 30
0.0
  3
$PAPER_SPACE
  1

  0
ENDBLK
  5
1D
 67
     1
  8
0
  0
ENDSEC
  0
SECTION
  2
ENTITIES
  0
ATTDEF
  5
3930
  8
DEFPOINTS
 10
4765.9614311569903293
 20
241.563317557317788
 30
0.0
 40
0.001
  1
K-T73133-3
  3

  2
MODELNUMBER
 70
     0
1001
ACDBATTR
1070
     0
1070
     1
  0
ATTDEF
  5
3931
  8
DEFPOINTS
 10
4765.9614311569903293
 20
241.5616508906510944
 30
0.0
 40
0.001
  1
COMPOSED
  3

  2
TRADENAME
 70
     0
1001
ACDBATTR
1070
     0
1070
     1
  0
ATTDEF
  5
3932
  8
DEFPOINTS
 10
4765.9614311569903293
 20
241.5599842239844861
 30
0.0
 40
0.001
  1
VALVE TRIM
  3

  2
PRODUCT
 70
     0
1001
ACDBATTR
1070
     0
1070
     1
  0
LINE
  5
CD99
  8
0
 10
4764.4961255962343785
 20
238.2163850335238067
 30
0.0
 11
4767.4248055743319128
 21
238.2163850335238067
 31
0.0
  0
LINE
  5
CD9A
  8
0
 10
4764.4909938071332363
 20
238.5703850335237064
 30
0.0
 11
4767.429937363433055
 21
238.5703850335237064
 31
0.0
  0
LINE
  5
CD9B
  8
0
 10
4765.4404635041046276
 20
238.5813850327313048
 30
0.0
 11
4766.4804676664598446
 21
238.5813850324421139
 31
0.0
  0
LINE
  5
CD9C
  8
0
 10
4765.2019752903343033
 20
239.823385033523806
 30
0.0
 11
4766.718955880231988
 21
239.823385033523806
 31
0.0
  0
LINE
  5
CD9D
  8
0
 10
4766.339801005233312
 20
238.2458614613238126
 30
0.0
 11
4766.3449369895388372
 21
238.5408869313517926
 31
0.0
  0
LINE
  5
CD9E
  8
0
 10
4766.5104655852328506
 20
238.6113850335237032
 30
0.0
 11
4766.5104655852328506
 21
239.7933850335236912
 31
0.0
  0
LINE
  5
CD9F
  8
0
 10
4766.7489655852332362
 20
239.8533850335236934
 30
0.0
 11
4766.7489655852332362
 21
240.9533850335236878
 31
0.0
  0
LINE
  5
CDA0
  8
0
 10
4765.1604655852333963
 20
240.9533850335236878
 30
0.0
 11
4766.7604655852328506
 21
240.9533850335236878
 31
0.0
  0
LINE
  5
CDA1
  8
0
 10
4762.86510330951387
 20
240.995812980411614
 30
0.0
 11
4769.0558278610524212
 21
240.995812980411614
 31
0.0
  0
LINE
  5
CDA2
  8
0
 10
4767.4548010052330937
 20
238.2458614613238126
 30
0.0
 11
4767.4599369895386189
 21
238.5407787386021141
 31
0.0
  0
LINE
  5
CDA3
  8
0
 10
4769.1598514505622006
 20
241.559385033523796
 30
0.0
 11
4762.7610797200040906
 21
241.559385033523796
 31
0.0
  0
LINE
  5
CDA4
  8
0
 10
4769.1521170857340621
 20
241.0939994304237075
 30
0.0
 11
4769.1598514505622006
 21
241.559385033523796
 31
0.0
  0
ARC
  5
CDA5
  8
0
 10
4766.4377053153029919
 20
238.614750397764908
 30
0.0
 40
0.0448844302811497
 50
228.0185715066187129
 51
261.2779112151947061
  0
ARC
  5
CDA6
  8
0
 10
4766.4804655832631397
 20
238.6113850343398042
 30
0.0
 40
0.0300000019700392
 50
270.0039786133343114
 51
359.9999984415237009
  0
ARC
  5
CDA7
  8
0
 10
4766.308434497485905
 20
238.5362427785389912
 30
0.0
 40
0.0367967400933594
 50
7.2506940086538201
 51
68.1037804471765753
  0
ARC
  5
CDA8
  8
0
 10
4766.2988298614136511
 20
238.2575541536544108
 30
0.0
 40
0.0426069675027381
 50
284.9273486091769882
 51
344.0718641893303129
  0
ARC
  5
CDA9
  8
0
 10
4766.7164581310062204
 20
239.8558932973419076
 30
0.0
 40
0.0326040790035261
 50
274.3936478781575943
 51
355.5878199349244824
  0
ARC
  5
CDAA
  8
0
 10
4766.5493492164932832
 20
239.7845014022632029
 30
0.0
 40
0.0398855322689824
 50
102.8693217414905945
 51
167.1306782585120061
  0
ARC
  5
CDAB
  8
0
 10
4767.4244172240642001
 20
238.5347893180627068
 30
0.0
 40
0.0360212006717726
 50
9.5713023937149178
 51
81.1848603959030157
  0
ARC
  5
CDAC
  8
0
 10
4767.4207466074758486
 20
238.2505154682577881
 30
0.0
 40
0.0343709439363574
 50
276.7820552179214815
 51
352.2179446821489819
  0
ARC
  5
CDAD
  8
0
 10
4769.0521323162320186
 20
241.0957446718238089
 30
0.0
 40
0.1
 50
272.1178734631055818
 51
358.9999995778998141
  0
ARC
  5
CDAE
  8
0
 10
4766.7604655846298556
 20
303.0644285472355932
 30
0.0
 40
62.1110435137118415
 50
270.000000000573209
 51
272.1178926874995909
  0
LINE
  5
CDAF
  8
0
 10
4765.5811301653320697
 20
238.2458614613238126
 30
0.0
 11
4765.575994181025635
 21
238.5408869313517926
 31
0.0
  0
LINE
  5
CDB0
  8
0
 10
4765.4104655853334407
 20
238.6113850335237032
 30
0.0
 11
4765.4104655853334407
 21
239.7933850335236912
 31
0.0
  0
LINE
  5
CDB1
  8
0
 10
4765.1719655853330551
 20
239.8533850335236934
 30
0.0
 11
4765.1719655853330551
 21
240.9533850335236878
 31
0.0
  0
LINE
  5
CDB2
  8
0
 10
4764.466130165334107
 20
238.2458614613238126
 30
0.0
 11
4764.4609941810258533
 21
238.5407787386021141
 31
0.0
  0
LINE
  5
CDB3
  8
0
 10
4762.7688140848331386
 20
241.0939994304237075
 30
0.0
 11
4762.7610797200040906
 21
241.559385033523796
 31
0.0
  0
ARC
  5
CDB4
  8
0
 10
4765.4832258552623898
 20
238.614750397764908
 30
0.0
 40
0.0448844302811497
 50
278.7220887848051234
 51
311.9814284933813155
  0
ARC
  5
CDB5
  8
0
 10
4765.4404655868092959
 20
238.6113850341351963
 30
0.0
 40
0.0300000014761466
 50
180.0000011677603879
 51
269.9960223298605797
  0
ARC
  5
CDB6
  8
0
 10
4765.6124966730812957
 20
238.5362427785389912
 30
0.0
 40
0.0367967400933594
 50
111.8962195528233963
 51
172.7493059913460911
  0
ARC
  5
CDB7
  8
0
 10
4765.6221013091508212
 20
238.2575541536544108
 30
0.0
 40
0.0426069675027381
 50
195.9281358106696871
 51
255.0726513908230118
  0
ARC
  5
CDB8
  8
0
 10
4765.2044730395591614
 20
239.8558932973419076
 30
0.0
 40
0.0326040790035261
 50
184.4121800650754892
 51
265.6063521218424057
  0
ARC
  5
CDB9
  8
0
 10
4765.3715819540720986
 20
239.7845014022632029
 30
0.0
 40
0.0398855322689824
 50
12.8693217414879495
 51
77.1306782585093771
  0
ARC
  5
CDBA
  8
0
 10
4764.4965139465020911
 20
238.5347893180627068
 30
0.0
 40
0.0360212006717726
 50
98.8151396040969985
 51
170.4286976062851124
  0
ARC
  5
CDBB
  8
0
 10
4764.5001845630886237
 20
238.2505154682577881
 30
0.0
 40
0.0343709439363574
 50
187.7820553178509897
 51
263.2179447820785185
  0
ARC
  5
CDBC
  8
0
 10
4762.8687988543333631
 20
241.0957446718238089
 30
0.0
 40
0.1
 50
181.0000004221001859
 51
267.8821265368944182
  0
ARC
  5
CDBD
  8
0
 10
4765.1604655859364357
 20
303.0644285472355932
 30
0.0
 40
62.1110435137118415
 50
267.8821073125004091
 51
269.999999999426791
  0
ENDSEC
  0
EOF
