  0
SECTION
  2
HEADER
  9
$ACADVER
  1
AC1009
  9
$INSBASE
 10
349.4217646446491017
 20
32.6767011947649735
 30
0.0
  9
$EXTMIN
 10
346.21487575552419
 20
29.4852621841221882
 30
-0.0000000349181948
  9
$EXTMAX
 10
352.6179914753063258
 20
35.8669033372704718
 30
0.0000000814935746
  9
$LIMMIN
 10
0.0
 20
0.0
  9
$LIMMAX
 10
22.0
 20
17.0
  9
$ORTHOMODE
 70
     0
  9
$REGENMODE
 70
     1
  9
$FILLMODE
 70
     1
  9
$QTEXTMODE
 70
     0
  9
$MIRRTEXT
 70
     0
  9
$DRAGMODE
 70
     2
  9
$LTSCALE
 40
1.2099999999999991
  9
$OSMODE
 70
  4095
  9
$ATTMODE
 70
     1
  9
$TEXTSIZE
 40
0.2
  9
$TRACEWID
 40
0.05
  9
$TEXTSTYLE
  7
STANDARD
  9
$CLAYER
  8
0
  9
$CELTYPE
  6
BYLAYER
  9
$CECOLOR
 62
   256
  9
$DIMSCALE
 40
1.0
  9
$DIMASZ
 40
0.1875
  9
$DIMEXO
 40
0.0625
  9
$DIMDLI
 40
0.38
  9
$DIMRND
 40
0.0
  9
$DIMDLE
 40
0.0
  9
$DIMEXE
 40
0.125
  9
$DIMTP
 40
1.5
  9
$DIMTM
 40
1.5
  9
$DIMTXT
 40
1.5
  9
$DIMCEN
 40
0.09
  9
$DIMTSZ
 40
0.0
  9
$DIMTOL
 70
     0
  9
$DIMLIM
 70
     0
  9
$DIMTIH
 70
     1
  9
$DIMTOH
 70
     1
  9
$DIMSE1
 70
     0
  9
$DIMSE2
 70
     0
  9
$DIMTAD
 70
     0
  9
$DIMZIN
 70
     4
  9
$DIMBLK
  1

  9
$DIMASO
 70
     1
  9
$DIMSHO
 70
     1
  9
$DIMPOST
  1

  9
$DIMAPOST
  1

  9
$DIMALT
 70
     0
  9
$DIMALTD
 70
     2
  9
$DIMALTF
 40
25.3999999999999986
  9
$DIMLFAC
 40
1.0
  9
$DIMTOFL
 70
     0
  9
$DIMTVP
 40
0.0
  9
$DIMTIX
 70
     0
  9
$DIMSOXD
 70
     0
  9
$DIMSAH
 70
     0
  9
$DIMBLK1
  1

  9
$DIMBLK2
  1

  9
$DIMSTYLE
  2
STANDARD
  9
$DIMCLRD
 70
     0
  9
$DIMCLRE
 70
     0
  9
$DIMCLRT
 70
     0
  9
$DIMTFAC
 40
1.0
  9
$DIMGAP
 40
0.09
  9
$LUNITS
 70
     2
  9
$LUPREC
 70
     4
  9
$SKETCHINC
 40
0.1
  9
$FILLETRAD
 40
0.0
  9
$AUNITS
 70
     0
  9
$AUPREC
 70
     0
  9
$MENU
  1
.
  9
$ELEVATION
 40
0.0
  9
$PELEVATION
 40
0.0
  9
$THICKNESS
 40
0.0
  9
$LIMCHECK
 70
     0
  9
$BLIPMODE
 70
     0
  9
$CHAMFERA
 40
0.0
  9
$CHAMFERB
 40
0.0
  9
$SKPOLY
 70
     0
  9
$TDCREATE
 40
2457827.4934837957844138
  9
$TDUPDATE
 40
2459653.5554745369590819
  9
$TDINDWG
 40
0.4094001157
  9
$TDUSRTIMER
 40
0.4094001157
  9
$USRTIMER
 70
     1
  9
$ANGBASE
 50
0.0
  9
$ANGDIR
 70
     0
  9
$PDMODE
 70
     0
  9
$PDSIZE
 40
0.3125
  9
$PLINEWID
 40
0.0
  9
$COORDS
 70
     1
  9
$SPLFRAME
 70
     0
  9
$SPLINETYPE
 70
     6
  9
$SPLINESEGS
 70
     8
  9
$ATTDIA
 70
     1
  9
$ATTREQ
 70
     1
  9
$HANDLING
 70
     1
  9
$HANDSEED
  5
8F2F
  9
$SURFTAB1
 70
     6
  9
$SURFTAB2
 70
     6
  9
$SURFTYPE
 70
     6
  9
$SURFU
 70
     6
  9
$SURFV
 70
     6
  9
$UCSNAME
  2

  9
$UCSORG
 10
0.0
 20
0.0
 30
0.0
  9
$UCSXDIR
 10
1.0
 20
0.0
 30
0.0
  9
$UCSYDIR
 10
0.0
 20
1.0
 30
0.0
  9
$PUCSNAME
  2

  9
$PUCSORG
 10
0.0
 20
0.0
 30
0.0
  9
$PUCSXDIR
 10
1.0
 20
0.0
 30
0.0
  9
$PUCSYDIR
 10
0.0
 20
1.0
 30
0.0
  9
$USERI1
 70
     0
  9
$USERI2
 70
     0
  9
$USERI3
 70
     0
  9
$USERI4
 70
     0
  9
$USERI5
 70
     0
  9
$USERR1
 40
0.0
  9
$USERR2
 40
0.0
  9
$USERR3
 40
0.0
  9
$USERR4
 40
0.0
  9
$USERR5
 40
0.0
  9
$WORLDVIEW
 70
     1
  9
$SHADEDGE
 70
     3
  9
$SHADEDIF
 70
    70
  9
$TILEMODE
 70
     1
  9
$MAXACTVP
 70
    48
  9
$PLIMCHECK
 70
     0
  9
$PEXTMIN
 10
1.0000000000000000E+20
 20
1.0000000000000000E+20
 30
1.0000000000000000E+20
  9
$PEXTMAX
 10
-1.0000000000000000E+20
 20
-1.0000000000000000E+20
 30
-1.0000000000000000E+20
  9
$PLIMMIN
 10
0.0
 20
0.0
  9
$PLIMMAX
 10
12.0
 20
9.0
  9
$UNITMODE
 70
     0
  9
$VISRETAIN
 70
     1
  9
$PLINEGEN
 70
     0
  9
$PSLTSCALE
 70
     1
  0
ENDSEC
  0
SECTION
  2
TABLES
  0
TABLE
  2
VPORT
 70
     1
  0
VPORT
  2
*ACTIVE
 70
     0
 10
0.0
 20
0.0
 11
1.0
 21
1.0
 12
138.4375060031105136
 22
25.4736335751357714
 13
0.0
 23
0.0
 14
1.0
 24
1.0
 15
0.0
 25
0.0
 16
-0.0000000000000284
 26
0.0
 36
157.2215818301446859
 17
210.9789276123046875
 27
7.2024491855605604
 37
0.0
 40
6.4216096781158072
 41
2.005224660397074
 42
50.0
 43
0.0
 44
0.0
 50
0.0
 51
0.0
 71
     0
 72
   100
 73
     1
 74
     1
 75
     0
 76
     0
 77
     0
 78
     0
  0
ENDTAB
  0
TABLE
  2
LTYPE
 70
     2
  0
LTYPE
  2
CONTINUOUS
 70
     0
  3
Solid line
 72
    65
 73
     0
 40
0.0
  0
LTYPE
  2
PHANTOM2
 70
     0
  3
___ _ _ ___ _ _ ___ _ _ ___ _ _
 72
    65
 73
     6
 40
1.25
 49
0.625
 49
-0.125
 49
0.125
 49
-0.125
 49
0.125
 49
-0.125
  0
ENDTAB
  0
TABLE
  2
LAYER
 70
     2
  0
LAYER
  2
0
 70
     0
 62
     7
  6
CONTINUOUS
  0
LAYER
  2
DEFPOINTS
 70
     0
 62
     7
  6
CONTINUOUS
  0
ENDTAB
  0
TABLE
  2
STYLE
 70
     1
  0
STYLE
  2
STANDARD
 70
     0
 40
0.0
 41
0.8
 50
0.0
 71
     0
 42
0.2
  3
txt
  4

  0
ENDTAB
  0
TABLE
  2
VIEW
 70
     0
  0
ENDTAB
  0
TABLE
  2
UCS
 70
     0
  0
ENDTAB
  0
TABLE
  2
APPID
 70
     9
  0
APPID
  2
ACAD
 70
     0
  0
APPID
  2
ACAD_MLEADERVER
 70
     0
  0
APPID
  2
ACAD_EXEMPT_FROM_CAD_STANDARDS
 70
     0
  0
APPID
  2
ACAD_NAV_VCDISPLAY
 70
     0
  0
APPID
  2
ACADANNOMONITORALERTICONDI
 70
     0
  0
APPID
  2
ACAD_DSTYLE_DIMJAG
 70
     0
  0
APPID
  2
ACAD_DSTYLE_DIMTALN
 70
     0
  0
APPID
  2
ACDBATTR
 70
     0
  0
APPID
  2
DCO15
 70
     0
  0
ENDTAB
  0
TABLE
  2
DIMSTYLE
 70
     1
  0
DIMSTYLE
  2
STANDARD
 70
     0
  3

  4

  5

  6

  7

 40
1.0
 41
0.1875
 42
0.0625
 43
0.38
 44
0.125
 45
0.0
 46
0.0
 47
1.5
 48
1.5
140
1.5
141
0.09
142
0.0
143
25.3999999999999986
144
1.0
145
0.0
146
1.0
147
0.09
 71
     0
 72
     0
 73
     1
 74
     1
 75
     0
 76
     0
 77
     0
 78
     4
170
     0
171
     2
172
     0
173
     0
174
     0
175
     0
176
     0
177
     0
178
     0
  0
ENDTAB
  0
ENDSEC
  0
SECTION
  2
BLOCKS
  0
BLOCK
  8
0
  2
$MODEL_SPACE
 70
     0
 10
0.0
 20
0.0
 30
0.0
  3
$MODEL_SPACE
  1

  0
ENDBLK
  5
21
  8
0
  0
BLOCK
 67
     1
  8
0
  2
$PAPER_SPACE
 70
     0
 10
0.0
 20
0.0
 30
0.0
  3
$PAPER_SPACE
  1

  0
ENDBLK
  5
1D
 67
     1
  8
0
  0
ENDSEC
  0
SECTION
  2
ENTITIES
  0
ATTDEF
  5
4EF9
  8
DEFPOINTS
 10
349.418244476063478
 20
32.6805231907671114
 30
0.0
 40
0.001
  1
K-T73117-3
  3

  2
MODELNUMBER
 70
     0
1001
ACDBATTR
1070
     0
1070
     1
  0
ATTDEF
  5
4EFA
  8
DEFPOINTS
 10
349.418244476063478
 20
32.6788565241004321
 30
0.0
 40
0.001
  1
COMPOSED
  3

  2
TRADENAME
 70
     0
1001
ACDBATTR
1070
     0
1070
     1
  0
ATTDEF
  5
4EFB
  8
DEFPOINTS
 10
349.418244476063478
 20
32.6771898574337527
 30
0.0
 40
0.001
  1
VALVE TRIM
  3

  2
PRODUCT
 70
     0
1001
ACDBATTR
1070
     0
1070
     1
  0
ARC
  5
8DBD
  8
0
 10
349.4217646446491017
 20
32.6767011947649735
 30
0.0
 40
3.1899999999999991
 50
272.810878654443286
 51
267.189121345556714
  0
LINE
  5
8DBE
  8
0
 10
347.9222928664177061
 20
32.9627729729964329
 30
0.0
 11
347.9222928664177061
 21
32.3906294165334998
 31
0.0
  0
LINE
  5
8DBF
  8
0
 10
349.0372928664176015
 20
34.0777729729964278
 30
0.0
 11
349.0372928664176015
 21
33.139872972996443
 31
0.0
  0
ARC
  5
8DC0
  8
0
 10
348.958592866417689
 20
33.139872972996443
 30
0.0
 40
0.0787
 50
270.0
 51
0.0
  0
LINE
  5
8DC1
  8
0
 10
349.0372928664176015
 20
32.2135294165334969
 30
0.0
 11
349.0372928664176015
 21
31.2756294165335085
 31
0.0
  0
ARC
  5
8DC2
  8
0
 10
349.4217646446491017
 20
32.6767011947643127
 30
0.0
 40
3.189214522099336
 50
268.2549506401699091
 51
270.0
  0
ARC
  5
8DC3
  8
0
 10
349.5516857317430777
 20
36.941123895967749
 30
0.0
 40
7.4556158702393569
 50
267.8300243140375869
 51
268.2549506401699091
  0
ARC
  5
8DC4
  8
0
 10
349.2687163118011995
 20
29.473205703369171
 30
0.0
 40
0.0176614445648484
 50
87.8300243140375585
 51
101.0575903882610049
  0
ARC
  5
8DC5
  8
0
 10
349.4217646446492154
 20
32.6767011947643127
 30
0.0
 40
3.189214522099336
 50
270.0
 51
271.7450493598300909
  0
ARC
  5
8DC6
  8
0
 10
349.2918435575551825
 20
36.941123895967749
 30
0.0
 40
7.4556158702393569
 50
271.7450493598300909
 51
272.1699756859624131
  0
ARC
  5
8DC7
  8
0
 10
349.5748129774970039
 20
29.473205703369171
 30
0.0
 40
0.0176614445648484
 50
78.942409611738924
 51
92.1699756859624557
  0
LINE
  5
8DC8
  8
0
 10
348.958592866417689
 20
33.0611729729964381
 30
0.0
 11
348.0206928664176758
 21
33.0611729729964381
 31
0.0
  0
LINE
  5
8DC9
  8
0
 10
348.0206928664176758
 20
32.2922294165334876
 30
0.0
 11
348.958592866417689
 21
32.2922294165334876
 31
0.0
  0
LINE
  5
8DCA
  8
0
 10
349.1356928664176849
 20
31.1772294165334998
 30
0.0
 11
349.7078364228805754
 21
31.1772294165334998
 31
0.0
  0
LINE
  5
8DCB
  8
0
 10
349.1356928664176849
 20
34.176172972996433
 30
0.0
 11
349.7078364228805754
 21
34.176172972996433
 31
0.0
  0
ARC
  5
8DCC
  8
0
 10
349.1356928664176849
 20
34.0777729729964278
 30
0.0
 40
0.0984
 50
90.0
 51
180.0
  0
ARC
  5
8DCD
  8
0
 10
348.0206928664176758
 20
32.9627729729964329
 30
0.0
 40
0.0984
 50
90.0
 51
179.9999999999994031
  0
ARC
  5
8DCE
  8
0
 10
348.0206928664176758
 20
32.3906294165334998
 30
0.0
 40
0.0984
 50
180.0000000000003979
 51
270.0
  0
ARC
  5
8DCF
  8
0
 10
349.1356928664176849
 20
31.2756294165335085
 30
0.0
 40
0.0984
 50
180.0000000000003979
 51
270.0
  0
ARC
  5
8DD0
  8
0
 10
348.958592866417689
 20
32.2135294165334969
 30
0.0
 40
0.0787
 50
359.9999999999993747
 51
90.0
  0
ARC
  5
8DD1
  8
0
 10
349.4217646446491017
 20
32.6767011947649735
 30
0.0
 40
1.0009399881000001
 50
22.5885436859709294
 51
67.4114563140292091
  0
ARC
  5
8DD2
  8
0
 10
349.4217646446491017
 20
32.6767011947649735
 30
0.0
 40
1.0009399881000001
 50
112.5885436859708051
 51
157.4114563140290102
  0
ARC
  5
8DD3
  8
0
 10
349.4217646446491017
 20
32.6767011947649735
 30
0.0
 40
1.0009399881000001
 50
202.5885436859709046
 51
247.4114563140292091
  0
ARC
  5
8DD4
  8
0
 10
349.4217646446491017
 20
32.6767011947649735
 30
0.0
 40
1.0009399881000001
 50
292.5885436859707056
 51
337.4114563140291239
  0
ARC
  5
8DD5
  8
0
 10
349.4217646446491017
 20
32.6767011947649735
 30
0.0
 40
1.0409384649999991
 50
21.67560417195374
 51
68.3243958280464199
  0
ARC
  5
8DD6
  8
0
 10
349.4217646446491017
 20
32.6767011947649735
 30
0.0
 40
1.0409384649999991
 50
111.6756041719535943
 51
158.3243958280461925
  0
ARC
  5
8DD7
  8
0
 10
349.4217646446491017
 20
32.6767011947649735
 30
0.0
 40
1.0409384649999991
 50
201.6756041719536938
 51
248.3243958280463062
  0
ARC
  5
8DD8
  8
0
 10
349.4217646446491017
 20
32.6767011947649735
 30
0.0
 40
1.0409384649999991
 50
291.6756041719535801
 51
338.3243958280463062
  0
LINE
  5
8DD9
  8
0
 10
350.9212364228806109
 20
32.9627729729964329
 30
0.0
 11
350.9212364228806109
 21
32.3906294165334998
 31
0.0
  0
LINE
  5
8DDA
  8
0
 10
349.8062364228806018
 20
34.0777729729964278
 30
0.0
 11
349.8062364228806018
 21
33.139872972996443
 31
0.0
  0
ARC
  5
8DDB
  8
0
 10
349.884936422880628
 20
33.139872972996443
 30
0.0
 40
0.0787
 50
180.0
 51
270.0
  0
LINE
  5
8DDC
  8
0
 10
349.8062364228806018
 20
32.2135294165334969
 30
0.0
 11
349.8062364228806018
 21
31.2756294165335085
 31
0.0
  0
LINE
  5
8DDD
  8
0
 10
349.884936422880628
 20
33.0611729729964381
 30
0.0
 11
350.8228364228805845
 21
33.0611729729964381
 31
0.0
  0
LINE
  5
8DDE
  8
0
 10
350.8228364228805845
 20
32.2922294165334876
 30
0.0
 11
349.884936422880628
 21
32.2922294165334876
 31
0.0
  0
ARC
  5
8DDF
  8
0
 10
349.7078364228805754
 20
34.0777729729964278
 30
0.0
 40
0.0984
 50
0.0
 51
90.0
  0
ARC
  5
8DE0
  8
0
 10
350.8228364228805845
 20
32.9627729729964329
 30
0.0
 40
0.0984
 50
0.0000000000006107
 51
90.0
  0
ARC
  5
8DE1
  8
0
 10
350.8228364228805845
 20
32.3906294165334998
 30
0.0
 40
0.0984
 50
270.0
 51
359.9999999999993747
  0
ARC
  5
8DE2
  8
0
 10
349.7078364228805754
 20
31.2756294165335085
 30
0.0
 40
0.0984
 50
270.0
 51
359.9999999999993747
  0
ARC
  5
8DE3
  8
0
 10
349.884936422880628
 20
32.2135294165334969
 30
0.0
 40
0.0787
 50
90.0
 51
180.0000000000005969
  0
CIRCLE
  5
8DE4
  8
0
 10
349.4217646446491017
 20
30.3767012878149707
 30
0.0
 40
0.4500000000000002
  0
ENDSEC
  0
EOF
