  0
SECTION
  2
HEADER
  9
$ACADVER
  1
AC1009
  9
$INSBASE
 10
4.4822373702
 20
61.261478577008049
 30
0.0
  9
$EXTMIN
 10
-0.2118863021318873
 20
52.096028420182961
 30
-0.0015258207003583
  9
$EXTMAX
 10
8.1876337123197942
 20
63.924481791718222
 30
0.0000000349246037
  9
$LIMMIN
 10
0.0
 20
0.0
  9
$LIMMAX
 10
11.692913385800001
 20
8.2677165353999982
  9
$ORTHOMODE
 70
     1
  9
$REGENMODE
 70
     1
  9
$FILLMODE
 70
     1
  9
$QTEXTMODE
 70
     0
  9
$MIRRTEXT
 70
     0
  9
$DRAGMODE
 70
     2
  9
$LTSCALE
 40
0.6431102362
  9
$OSMODE
 70
  3071
  9
$ATTMODE
 70
     1
  9
$TEXTSIZE
 40
0.2
  9
$TRACEWID
 40
0.05
  9
$TEXTSTYLE
  7
STANDARD
  9
$CLAYER
  8
0
  9
$CELTYPE
  6
BYLAYER
  9
$CECOLOR
 62
   256
  9
$DIMSCALE
 40
1.0
  9
$DIMASZ
 40
0.1875
  9
$DIMEXO
 40
0.0625
  9
$DIMDLI
 40
0.4443307087
  9
$DIMRND
 40
0.0
  9
$DIMDLE
 40
0.0
  9
$DIMEXE
 40
0.125
  9
$DIMTP
 40
0.0
  9
$DIMTM
 40
0.0
  9
$DIMTXT
 40
1.0
  9
$DIMCEN
 40
0.1052362205
  9
$DIMTSZ
 40
0.0
  9
$DIMTOL
 70
     0
  9
$DIMLIM
 70
     0
  9
$DIMTIH
 70
     0
  9
$DIMTOH
 70
     0
  9
$DIMSE1
 70
     0
  9
$DIMSE2
 70
     0
  9
$DIMTAD
 70
     0
  9
$DIMZIN
 70
     0
  9
$DIMBLK
  1

  9
$DIMASO
 70
     1
  9
$DIMSHO
 70
     1
  9
$DIMPOST
  1
\X
  9
$DIMAPOST
  1

  9
$DIMALT
 70
     1
  9
$DIMALTD
 70
     2
  9
$DIMALTF
 40
25.399999999999999
  9
$DIMLFAC
 40
1.0
  9
$DIMTOFL
 70
     0
  9
$DIMTVP
 40
0.0
  9
$DIMTIX
 70
     0
  9
$DIMSOXD
 70
     0
  9
$DIMSAH
 70
     0
  9
$DIMBLK1
  1

  9
$DIMBLK2
  1

  9
$DIMSTYLE
  2
STANDARD
  9
$DIMCLRD
 70
     0
  9
$DIMCLRE
 70
     0
  9
$DIMCLRT
 70
     0
  9
$DIMTFAC
 40
1.0
  9
$DIMGAP
 40
0.09
  9
$LUNITS
 70
     2
  9
$LUPREC
 70
     4
  9
$SKETCHINC
 40
0.1
  9
$FILLETRAD
 40
0.0
  9
$AUNITS
 70
     0
  9
$AUPREC
 70
     0
  9
$MENU
  1
.
  9
$ELEVATION
 40
0.0
  9
$PELEVATION
 40
0.0
  9
$THICKNESS
 40
0.0
  9
$LIMCHECK
 70
     0
  9
$BLIPMODE
 70
     0
  9
$CHAMFERA
 40
0.0
  9
$CHAMFERB
 40
0.0
  9
$SKPOLY
 70
     0
  9
$TDCREATE
 40
2457972.4509026268
  9
$TDUPDATE
 40
2457972.7233890281
  9
$TDINDWG
 40
0.0853004398
  9
$TDUSRTIMER
 40
0.0853004398
  9
$USRTIMER
 70
     1
  9
$ANGBASE
 50
0.0
  9
$ANGDIR
 70
     0
  9
$PDMODE
 70
     0
  9
$PDSIZE
 40
0.3125
  9
$PLINEWID
 40
0.0
  9
$COORDS
 70
     1
  9
$SPLFRAME
 70
     0
  9
$SPLINETYPE
 70
     6
  9
$SPLINESEGS
 70
     8
  9
$ATTDIA
 70
     1
  9
$ATTREQ
 70
     1
  9
$HANDLING
 70
     1
  9
$HANDSEED
  5
2483
  9
$SURFTAB1
 70
     6
  9
$SURFTAB2
 70
     6
  9
$SURFTYPE
 70
     6
  9
$SURFU
 70
     6
  9
$SURFV
 70
     6
  9
$UCSNAME
  2

  9
$UCSORG
 10
0.0
 20
0.0
 30
0.0
  9
$UCSXDIR
 10
1.0
 20
0.0
 30
0.0
  9
$UCSYDIR
 10
0.0
 20
1.0
 30
0.0
  9
$PUCSNAME
  2

  9
$PUCSORG
 10
0.0
 20
0.0
 30
0.0
  9
$PUCSXDIR
 10
1.0
 20
0.0
 30
0.0
  9
$PUCSYDIR
 10
0.0
 20
1.0
 30
0.0
  9
$USERI1
 70
     0
  9
$USERI2
 70
     0
  9
$USERI3
 70
     0
  9
$USERI4
 70
     0
  9
$USERI5
 70
     0
  9
$USERR1
 40
0.0
  9
$USERR2
 40
0.0
  9
$USERR3
 40
0.0
  9
$USERR4
 40
0.0
  9
$USERR5
 40
0.0
  9
$WORLDVIEW
 70
     1
  9
$SHADEDGE
 70
     3
  9
$SHADEDIF
 70
    70
  9
$TILEMODE
 70
     1
  9
$MAXACTVP
 70
    48
  9
$PLIMCHECK
 70
     0
  9
$PEXTMIN
 10
1.0000000000000000E+020
 20
1.0000000000000000E+020
 30
1.0000000000000000E+020
  9
$PEXTMAX
 10
-1.0000000000000000E+020
 20
-1.0000000000000000E+020
 30
-1.0000000000000000E+020
  9
$PLIMMIN
 10
0.0
 20
0.0
  9
$PLIMMAX
 10
12.0
 20
9.0
  9
$UNITMODE
 70
     0
  9
$VISRETAIN
 70
     1
  9
$PLINEGEN
 70
     0
  9
$PSLTSCALE
 70
     1
  0
ENDSEC
  0
SECTION
  2
TABLES
  0
TABLE
  2
VPORT
 70
     1
  0
VPORT
  2
*ACTIVE
 70
     0
 10
0.0
 20
0.0
 11
1.0
 21
1.0
 12
-25.589446088309199
 22
32.907314546563377
 13
0.0
 23
0.0
 14
1.0
 24
1.0
 15
0.0
 25
0.0
 16
-0.0000000000000604
 26
0.0
 36
270.27243966881667
 17
29.577319793403149
 27
25.102940559387211
 37
0.0
 40
11.90753126015343
 41
2.0508658008657998
 42
50.0
 43
0.0
 44
0.0
 50
0.0
 51
0.0
 71
     0
 72
   100
 73
     1
 74
     1
 75
     0
 76
     0
 77
     0
 78
     0
  0
ENDTAB
  0
TABLE
  2
LTYPE
 70
     2
  0
LTYPE
  2
CONTINUOUS
 70
     0
  3
Solid line
 72
    65
 73
     0
 40
0.0
  0
LTYPE
  2
PHANTOM2
 70
     0
  3
___ _ _ ___ _ _ ___ _ _ ___ _ _
 72
    65
 73
     6
 40
1.25
 49
0.625
 49
-0.125
 49
0.125
 49
-0.125
 49
0.125
 49
-0.125
  0
ENDTAB
  0
TABLE
  2
LAYER
 70
     2
  0
LAYER
  2
0
 70
     0
 62
     7
  6
CONTINUOUS
  0
LAYER
  2
DEFPOINTS
 70
     0
 62
     7
  6
CONTINUOUS
  0
ENDTAB
  0
TABLE
  2
STYLE
 70
     1
  0
STYLE
  2
STANDARD
 70
     0
 40
0.0
 41
0.8
 50
0.0
 71
     0
 42
0.2
  3
txt
  4

  0
ENDTAB
  0
TABLE
  2
VIEW
 70
     1
  0
ENDTAB
  0
TABLE
  2
UCS
 70
     0
  0
ENDTAB
  0
TABLE
  2
APPID
 70
     7
  0
APPID
  2
ACAD
 70
     0
  0
APPID
  2
ACAD_MLEADERVER
 70
     0
  0
APPID
  2
ACAD_DSTYLE_DIMJAG
 70
     0
  0
APPID
  2
ACAD_DSTYLE_DIMTALN
 70
     0
  0
APPID
  2
ACAD_NAV_VCDISPLAY
 70
     0
  0
APPID
  2
ACAD_EXEMPT_FROM_CAD_STANDARDS
 70
     0
  0
APPID
  2
AcDbAttr
 70
     0
  0
ENDTAB
  0
TABLE
  2
DIMSTYLE
 70
     1
  0
DIMSTYLE
  2
STANDARD
 70
     0
  3

  4

  5

  6

  7

 40
1.0
 41
0.1875
 42
0.0625
 43
0.38
 44
0.125
 45
0.0
 46
0.0
 47
1.5
 48
1.5
140
0.15625
141
0.09
142
0.0
143
25.399999999999999
144
1.0
145
0.0
146
1.0
147
0.09
 71
     0
 72
     0
 73
     1
 74
     1
 75
     0
 76
     0
 77
     0
 78
     4
170
     0
171
     2
172
     0
173
     0
174
     0
175
     0
176
     0
177
     0
178
     0
  0
ENDTAB
  0
ENDSEC
  0
SECTION
  2
BLOCKS
  0
BLOCK
  8
0
  2
$MODEL_SPACE
 70
     0
 10
0.0
 20
0.0
 30
0.0
  3
$MODEL_SPACE
  1

  0
ENDBLK
  5
21
  8
0
  0
BLOCK
 67
     1
  8
0
  2
$PAPER_SPACE
 70
     0
 10
0.0
 20
0.0
 30
0.0
  3
$PAPER_SPACE
  1

  0
ENDBLK
  5
1D
 67
     1
  8
0
  0
ENDSEC
  0
SECTION
  2
ENTITIES
  0
LINE
  5
1FEB
  8
0
 10
3.6869617796999998
 20
52.098071797999999
 30
0.0
 11
5.2775129607000011
 21
52.098090984499997
 31
0.0
  0
ARC
  5
1FEC
  8
0
 10
5.2738282932311176
 20
52.251869120861862
 30
0.0
 40
0.1538223335330671
 50
271.37352183719378
 51
4.7637638532868216
  0
LINE
  5
1FED
  8
0
 10
5.4271192599999987
 20
52.264643697200043
 30
0.0
 11
5.4271192599999969
 21
61.266074811400003
 31
0.0
  0
ARC
  5
1FEE
  8
0
 10
4.4822373702
 20
61.261478577008049
 30
0.0
 40
0.9448930685758039
 50
0.2787044159762174
 51
179.72129558402381
  0
LINE
  5
1FEF
  8
0
 10
3.537281362499999
 20
61.2660748638
 30
0.0
 11
3.5373554804
 21
52.2646436972
 31
0.0
  0
ARC
  5
1FF0
  8
0
 10
3.6905033300539372
 20
52.251722921399718
 30
0.0
 40
0.1536919331028993
 50
175.1774909144028
 51
268.6796063654171
  0
LINE
  5
1FF1
  8
0
 10
7.5157019371000002
 20
62.209506655399998
 30
0.0
 11
8.1432938353994082
 21
62.20402974392654
 31
0.0
  0
ARC
  5
1FF2
  8
0
 10
8.1430189838999834
 20
62.172534880199983
 30
0.0
 40
0.0314960630000206
 50
1.3224578990277229
 51
89.499999999970086
  0
ARC
  5
1FF4
  8
0
 10
-31.185085274420629
 20
61.264632053592607
 30
0.0
 40
39.370078550220633
 50
358.67754209170988
 51
1.3224579018908511
  0
ARC
  5
1FF5
  8
0
 10
8.143018983946634
 20
60.356729222579858
 30
0.0
 40
0.0314960629529121
 50
270.49999989439448
 51
358.67755137065268
  0
LINE
  5
1FF6
  8
0
 10
7.5157019371000002
 20
62.209506655399998
 30
0.0
 11
7.5157019371000011
 21
60.319757447299992
 31
0.0
  0
LINE
  5
1FF7
  8
0
 10
7.5157019371000011
 20
60.319757447299992
 30
0.0
 11
8.1432938354619147
 21
60.325234358900552
 31
0.0
  0
ARC
  5
1FF8
  8
0
 10
7.046348573599877
 20
61.610740655199898
 30
0.0
 40
0.6692913386001618
 50
45.471083577497751
 51
59.908375140695377
  0
LINE
  5
1FF9
  8
0
 10
7.381919279299999
 20
62.189828901800013
 30
0.0
 11
7.3720011496999991
 21
62.189828901800013
 31
0.0
  0
LINE
  5
1FFA
  8
0
 10
7.3720011496999991
 20
62.189828901800013
 30
0.0
 11
7.3720011496999991
 21
62.209489340499992
 31
0.0
  0
LINE
  5
1FFB
  8
0
 10
7.3720011496999991
 20
62.209489340499992
 30
0.0
 11
5.6142623048000004
 21
62.208494444300001
 31
0.0
  0
ARC
  5
1FFC
  8
0
 10
7.04634857516261
 20
60.918523445798293
 30
0.0
 40
0.6692913362197557
 50
300.09148204186943
 51
314.52891643529961
  0
LINE
  5
1FFD
  8
0
 10
7.3819192792999928
 20
60.339435201000001
 30
0.0
 11
7.3720011496999991
 21
60.339435201000001
 31
0.0
  0
LINE
  5
1FFE
  8
0
 10
7.3720011496999991
 20
60.339435201000001
 30
0.0
 11
7.3720011496999991
 21
62.189828901800013
 31
0.0
  0
LINE
  5
1FFF
  8
0
 10
7.3819207223850434
 20
62.189828065600871
 30
0.0
 11
7.381919279299999
 21
61.689997120100003
 31
0.0
  0
LINE
  5
2000
  8
0
 10
7.381919279299999
 20
61.689997120100003
 30
0.0
 11
7.4034972126999987
 21
61.684647988699993
 31
0.0
  0
LINE
  5
2001
  8
0
 10
7.4034972126999987
 20
61.684647988699993
 30
0.0
 11
7.4034972126999987
 21
61.540170983699987
 31
0.0
  0
LINE
  5
2002
  8
0
 10
7.4034972126999987
 20
61.540170983699987
 30
0.0
 11
7.381919279299999
 21
61.544824167299993
 31
0.0
  0
LINE
  5
2003
  8
0
 10
7.381919279299999
 20
61.544824167299993
 30
0.0
 11
7.381919279299999
 21
60.339435201000001
 31
0.0
  0
LINE
  5
2004
  8
0
 10
7.381919279299999
 20
61.689997120100003
 30
0.0
 11
7.3720011497
 21
61.690151411000002
 31
0.0
  0
LINE
  5
2005
  8
0
 10
7.4034972126999987
 20
61.674565541900002
 30
0.0
 11
7.3720011496999991
 21
61.674863072999997
 31
0.0
  0
LINE
  5
2006
  8
0
 10
7.381919279299999
 20
61.544741370499999
 30
0.0
 11
7.3720011497
 21
61.544658571199989
 31
0.0
  0
LINE
  5
2007
  8
0
 10
7.3720011496999991
 20
60.339435201000001
 30
0.0
 11
7.3720011496999991
 21
60.319774762199998
 31
0.0
  0
LINE
  5
2008
  8
0
 10
7.3720011496999991
 20
60.319774762199998
 30
0.0
 11
5.4271192599999969
 21
60.322538611899986
 31
0.0
  0
ARC
  5
200A
  8
0
 10
5.5744216226918724
 20
64.188411426527693
 30
0.0
 40
1.9803177867363739
 50
265.88433636661478
 51
271.1527730383965
  0
ARC
  5
200B
  8
0
 10
5.4699782492475704
 20
62.830500367327772
 30
0.0
 40
0.6184490687535432
 50
249.41964392154571
 51
266.50660233759243
  0
ARC
  5
200C
  8
0
 10
5.2859532475943372
 20
62.36040817660772
 30
0.0
 40
0.113886902640795
 50
183.18950490386331
 51
252.96034692233809
  0
ARC
  5
200D
  8
0
 10
5.6139070129965019
 20
62.384656561732179
 30
0.0
 40
0.4427219772412469
 50
179.3560732849844
 51
183.96136259935849
  0
LINE
  5
200E
  8
0
 10
5.1712129941000002
 20
62.389632636899989
 30
0.0
 11
5.1712137481999987
 21
63.233135988399987
 31
0.0
  0
ARC
  5
200F
  8
0
 10
4.4822373702000071
 20
63.233135988400001
 30
0.0
 40
0.6889763779999925
 50
359.99999998008701
 51
180.00000000169999
  0
LINE
  5
2010
  8
0
 10
3.7932609922
 20
63.233135988400001
 30
0.0
 11
3.7932610150814532
 21
62.389633275599351
 31
0.0
  0
ARC
  5
2011
  8
0
 10
2.4510105804921101
 20
62.353950913418743
 30
0.0
 40
1.3427246404702879
 50
346.06625044079772
 51
1.5227913494572389
  0
ARC
  5
2012
  8
0
 10
0.6833371702874758
 20
63.014212205263711
 30
0.0
 40
3.2245622007991428
 50
337.10570908924552
 51
342.24001444811
  0
ARC
  5
201C
  8
0
 10
4.8455049490579762
 20
61.213009507264609
 30
0.0
 40
1.311066365824247
 50
155.35323973276411
 51
170.38829364228411
  0
CIRCLE
  5
201D
  8
0
 10
4.4822373702
 20
63.233135988400001
 30
0.0
 40
0.3405511811000004
  0
ARC
  5
201E
  8
0
 10
4.4822373702
 20
61.261478577008049
 30
0.0
 40
2.443806462878932
 50
193.8911521135891
 51
247.25277960921349
  0
ARC
  5
201F
  8
0
 10
4.4822373702
 20
61.261478577008049
 30
0.0
 40
2.443806462878932
 50
22.816202014772252
 51
76.874370189541509
  0
ARC
  5
2021
  8
0
 10
4.4822373702
 20
61.261478577008049
 30
0.0
 40
2.443806462878932
 50
292.7458088583935
 51
337.35786221322491
  0
ARC
  5
2022
  8
0
 10
4.4822373702
 20
61.261478577008049
 30
0.0
 40
2.443806462878932
 50
103.12562981045851
 51
149.28013773104269
  0
LINE
  5
2025
  8
0
 10
3.5373554804
 20
60.674774074300011
 30
0.0
 11
0.3483791025000009
 21
60.674774074300011
 31
0.0
  0
ARC
  5
2026
  8
0
 10
0.3484111170153498
 20
61.264811543468582
 30
0.0
 40
0.5900374700403307
 50
229.55684454615519
 51
269.99688543130998
  0
ARC
  5
2027
  8
0
 10
-0.0201099547874559
 20
60.830846595791989
 30
0.0
 40
0.0207156814587291
 50
140.38868299698109
 51
226.65918374980001
  0
LINE
  5
2028
  8
0
 10
-0.0360690219836334
 20
60.844054473215849
 30
0.0
 11
0.0078652834650299
 21
60.892000354223072
 31
0.0
  0
LINE
  5
2029
  8
0
 10
0.0097125332
 20
61.635247829099988
 30
0.0
 11
-0.0360398403267865
 21
61.685177783303061
 31
0.0
  0
ARC
  5
202A
  8
0
 10
-0.0201340370161379
 20
61.698418127732289
 30
0.0
 40
0.0206975432008081
 50
133.2277836823057
 51
219.6551471499902
  0
ARC
  5
202B
  8
0
 10
0.3483791025000558
 20
61.264632051399801
 30
0.0
 40
0.5898579771002096
 50
89.999999999605365
 51
130.44978924401411
  0
LINE
  5
202C
  8
0
 10
0.3483791025
 20
61.854490028500003
 30
0.0
 11
3.6921319222679161
 21
61.854490028500003
 31
0.0
  0
LINE
  5
202D
  8
0
 10
0.2400095812
 20
61.7245396255
 30
0.0
 11
0.2400095811999989
 21
61.754842611800001
 31
0.0
  0
ARC
  5
202E
  8
0
 10
0.3452003049400172
 20
61.082925215322028
 30
0.0
 40
0.6801017417748736
 50
90.016014457414187
 51
98.897608533883513
  0
ARC
  5
202F
  8
0
 10
0.3448204348348978
 20
61.082963999329557
 30
0.0
 40
0.6800629576798221
 50
81.102017362630932
 51
89.983341329028036
  0
LINE
  5
2030
  8
0
 10
0.4500095811999997
 20
61.754842611800001
 30
0.0
 11
0.4500095812
 21
61.724332148108971
 31
0.0
  0
ARC
  5
2032
  8
0
 10
0.2681827351718089
 20
61.231894420366999
 30
0.0
 40
0.4790624360601388
 50
122.6518834298658
 51
176.2738615196412
  0
ARC
  5
2033
  8
0
 10
0.3436010315964892
 20
61.105814968433201
 30
0.0
 40
0.6259238640855226
 50
50.956341179074457
 51
122.23770625493501
  0
ARC
  5
2034
  8
0
 10
0.4790976909766986
 20
61.260127224577921
 30
0.0
 40
0.4208003965877082
 50
298.6804869049605
 51
52.050093770232621
  0
ARC
  5
2035
  8
0
 10
0.3452748321956918
 20
61.417647158576713
 30
0.0
 40
0.6246196974974573
 50
237.30383655465781
 51
302.51821533574667
  0
ARC
  5
2036
  8
0
 10
0.2421648717442872
 20
61.27889611092337
 30
0.0
 40
0.4523103184314114
 50
182.0105447587467
 51
238.8013909508424
  0
LINE
  5
2037
  8
0
 10
0.0863529197924109
 20
60.849220197763579
 30
0.0
 11
0.0878051753069045
 21
60.81472801977209
 31
0.0
  0
LINE
  5
2089
  8
0
 10
0.6036097323275134
 20
60.8490139383007
 30
0.0
 11
0.6022139870930944
 21
60.81472801977209
 31
0.0
  0
ARC
  5
208A
  8
0
 10
0.3450095811990484
 20
61.395501061319159
 30
0.0
 40
0.6351782680469665
 50
246.11309461027071
 51
293.88690538992051
  0
ARC
  5
208B
  8
0
 10
31.84925937834203
 20
-2.1732277589508509
 30
0.0
 40
71.069764020494347
 50
115.41437382403041
 51
115.72158151160561
  0
ARC
  5
208C
  8
0
 10
6073.6848053333933
 20
-12688.684929216901
 30
0.0
 40
14122.80827276926
 50
115.46287636777799
 51
115.46544102612459
  0
ARC
  5
208D
  8
0
 10
-91.460431062715656
 20
259.9108810732825
 30
0.0
 40
218.57160378826481
 50
295.29180138387562
 51
295.63615365409862
  0
ARC
  5
208E
  8
0
 10
48.303550009149532
 20
-31.405045484099428
 30
0.0
 40
104.5366471692341
 50
115.20045397051059
 51
115.6177171795717
  0
ARC
  5
208F
  8
0
 10
-62.952383564344217
 20
199.735915288222
 30
0.0
 40
152.4863439115363
 50
295.2813692626346
 51
295.70678878811998
  0
ARC
  5
2090
  8
0
 10
-14.330496400390871
 20
99.889786596767067
 30
0.0
 40
41.434922232823332
 50
295.01575165064759
 51
295.938296438777
  0
ATTDEF
  5
23DC
  8
DEFPOINTS
 10
4.4952503137924724
 20
61.266628133056969
 30
0.0
 40
0.001
  1
K-T73087-4
  3

  2
MODELNUMBER
 70
     0
1001
AcDbAttr
1070
     0
1070
     1
  0
ATTDEF
  5
23DD
  8
DEFPOINTS
 10
4.4952503137924724
 20
61.264961466390311
 30
0.0
 40
0.001
  1
COMPOSED
  3

  2
TRADENAME
 70
     0
1001
AcDbAttr
1070
     0
1070
     1
  0
ATTDEF
  5
23DE
  8
DEFPOINTS
 10
4.4952503137924724
 20
61.263294799723639
 30
0.0
 40
0.001
  1
BATH FILLER
  3

  2
PRODUCT
 70
     0
1001
AcDbAttr
1070
     0
1070
     1
  0
ATTDEF
  5
23DF
  8
DEFPOINTS
 10
4.4952503137924724
 20
61.261628133056959
 30
0.0
 40
0.001
  1
METAL
  3

  2
MATERIAL
 70
     0
1001
AcDbAttr
1070
     0
1070
     1
  0
ENDSEC
  0
EOF
