  0
SECTION
  2
HEADER
  9
$ACADVER
  1
AC1009
  9
$INSBASE
 10
3728.720535289343843
 20
135.9504842279405921
 30
0.0
  9
$EXTMIN
 10
3724.2585430351418836
 20
132.6518133773057002
 30
0.0
  9
$EXTMAX
 10
3728.7317650030331606
 20
138.1977778858156114
 30
0.0
  9
$LIMMIN
 10
0.0
 20
0.0
  9
$LIMMAX
 10
11.6929133858000007
 20
8.2677165353999982
  9
$ORTHOMODE
 70
     0
  9
$REGENMODE
 70
     1
  9
$FILLMODE
 70
     1
  9
$QTEXTMODE
 70
     0
  9
$MIRRTEXT
 70
     0
  9
$DRAGMODE
 70
     2
  9
$LTSCALE
 40
0.6431102362
  9
$OSMODE
 70
  4095
  9
$ATTMODE
 70
     1
  9
$TEXTSIZE
 40
0.2
  9
$TRACEWID
 40
0.05
  9
$TEXTSTYLE
  7
STANDARD
  9
$CLAYER
  8
0
  9
$CELTYPE
  6
BYLAYER
  9
$CECOLOR
 62
   256
  9
$DIMSCALE
 40
1.0
  9
$DIMASZ
 40
0.1875
  9
$DIMEXO
 40
0.0625
  9
$DIMDLI
 40
0.4443307087
  9
$DIMRND
 40
0.0
  9
$DIMDLE
 40
0.0
  9
$DIMEXE
 40
0.125
  9
$DIMTP
 40
0.01
  9
$DIMTM
 40
0.01
  9
$DIMTXT
 40
2.0
  9
$DIMCEN
 40
0.1052362205
  9
$DIMTSZ
 40
0.0
  9
$DIMTOL
 70
     1
  9
$DIMLIM
 70
     0
  9
$DIMTIH
 70
     1
  9
$DIMTOH
 70
     1
  9
$DIMSE1
 70
     0
  9
$DIMSE2
 70
     0
  9
$DIMTAD
 70
     0
  9
$DIMZIN
 70
     0
  9
$DIMBLK
  1

  9
$DIMASO
 70
     1
  9
$DIMSHO
 70
     1
  9
$DIMPOST
  1
\X
  9
$DIMAPOST
  1

  9
$DIMALT
 70
     1
  9
$DIMALTD
 70
     2
  9
$DIMALTF
 40
25.3999999999999986
  9
$DIMLFAC
 40
1.0
  9
$DIMTOFL
 70
     0
  9
$DIMTVP
 40
0.0
  9
$DIMTIX
 70
     0
  9
$DIMSOXD
 70
     0
  9
$DIMSAH
 70
     0
  9
$DIMBLK1
  1

  9
$DIMBLK2
  1

  9
$DIMSTYLE
  2
STANDARD
  9
$DIMCLRD
 70
     0
  9
$DIMCLRE
 70
     0
  9
$DIMCLRT
 70
     0
  9
$DIMTFAC
 40
1.0
  9
$DIMGAP
 40
0.09
  9
$LUNITS
 70
     2
  9
$LUPREC
 70
     4
  9
$SKETCHINC
 40
0.1
  9
$FILLETRAD
 40
0.0
  9
$AUNITS
 70
     0
  9
$AUPREC
 70
     0
  9
$MENU
  1
.
  9
$ELEVATION
 40
0.0
  9
$PELEVATION
 40
0.0
  9
$THICKNESS
 40
0.0
  9
$LIMCHECK
 70
     0
  9
$BLIPMODE
 70
     0
  9
$CHAMFERA
 40
0.0
  9
$CHAMFERB
 40
0.0
  9
$SKPOLY
 70
     0
  9
$TDCREATE
 40
2458060.468368056230247
  9
$TDUPDATE
 40
2459647.8585995370522141
  9
$TDINDWG
 40
0.3434677083
  9
$TDUSRTIMER
 40
0.3434677083
  9
$USRTIMER
 70
     1
  9
$ANGBASE
 50
0.0
  9
$ANGDIR
 70
     0
  9
$PDMODE
 70
     0
  9
$PDSIZE
 40
0.3125
  9
$PLINEWID
 40
0.0
  9
$COORDS
 70
     1
  9
$SPLFRAME
 70
     0
  9
$SPLINETYPE
 70
     6
  9
$SPLINESEGS
 70
     8
  9
$ATTDIA
 70
     1
  9
$ATTREQ
 70
     1
  9
$HANDLING
 70
     1
  9
$HANDSEED
  5
16573
  9
$SURFTAB1
 70
     6
  9
$SURFTAB2
 70
     6
  9
$SURFTYPE
 70
     6
  9
$SURFU
 70
     6
  9
$SURFV
 70
     6
  9
$UCSNAME
  2

  9
$UCSORG
 10
0.0
 20
0.0
 30
0.0
  9
$UCSXDIR
 10
1.0
 20
0.0
 30
0.0
  9
$UCSYDIR
 10
0.0
 20
1.0
 30
0.0
  9
$PUCSNAME
  2

  9
$PUCSORG
 10
0.0
 20
0.0
 30
0.0
  9
$PUCSXDIR
 10
1.0
 20
0.0
 30
0.0
  9
$PUCSYDIR
 10
0.0
 20
1.0
 30
0.0
  9
$USERI1
 70
     0
  9
$USERI2
 70
     0
  9
$USERI3
 70
     0
  9
$USERI4
 70
     0
  9
$USERI5
 70
     0
  9
$USERR1
 40
0.0
  9
$USERR2
 40
0.0
  9
$USERR3
 40
0.0
  9
$USERR4
 40
0.0
  9
$USERR5
 40
0.0
  9
$WORLDVIEW
 70
     1
  9
$SHADEDGE
 70
     3
  9
$SHADEDIF
 70
    70
  9
$TILEMODE
 70
     1
  9
$MAXACTVP
 70
    64
  9
$PLIMCHECK
 70
     0
  9
$PEXTMIN
 10
1.0000000000000000E+20
 20
1.0000000000000000E+20
 30
1.0000000000000000E+20
  9
$PEXTMAX
 10
-1.0000000000000000E+20
 20
-1.0000000000000000E+20
 30
-1.0000000000000000E+20
  9
$PLIMMIN
 10
0.0
 20
0.0
  9
$PLIMMAX
 10
12.0
 20
9.0
  9
$UNITMODE
 70
     0
  9
$VISRETAIN
 70
     1
  9
$PLINEGEN
 70
     0
  9
$PSLTSCALE
 70
     1
  0
ENDSEC
  0
SECTION
  2
TABLES
  0
TABLE
  2
VPORT
 70
     1
  0
VPORT
  2
*ACTIVE
 70
     0
 10
0.0
 20
0.0
 11
1.0
 21
1.0
 12
-77.0489133637254326
 22
9.4295334348107644
 13
0.0
 23
0.0
 14
1.0
 24
1.0
 15
0.0
 25
0.0
 16
0.0
 26
0.0
 36
17.1152628219792007
 17
3803.5440673828129547
 27
125.9952621967499056
 37
0.0
 40
5.5899219550767567
 41
2.0410052910052912
 42
50.0
 43
0.0
 44
0.0
 50
0.0
 51
0.0
 71
     0
 72
   100
 73
     1
 74
     1
 75
     0
 76
     0
 77
     0
 78
     1
  0
ENDTAB
  0
TABLE
  2
LTYPE
 70
     2
  0
LTYPE
  2
CONTINUOUS
 70
     0
  3
Solid line
 72
    65
 73
     0
 40
0.0
  0
LTYPE
  2
PHANTOM2
 70
     0
  3
___ _ _ ___ _ _ ___ _ _ ___ _ _
 72
    65
 73
     6
 40
1.25
 49
0.625
 49
-0.125
 49
0.125
 49
-0.125
 49
0.125
 49
-0.125
  0
ENDTAB
  0
TABLE
  2
LAYER
 70
     2
  0
LAYER
  2
0
 70
     0
 62
   255
  6
CONTINUOUS
  0
LAYER
  2
DEFPOINTS
 70
     0
 62
     7
  6
CONTINUOUS
  0
ENDTAB
  0
TABLE
  2
STYLE
 70
     1
  0
STYLE
  2
STANDARD
 70
     0
 40
0.0
 41
0.8
 50
0.0
 71
     0
 42
0.2
  3
txt
  4

  0
ENDTAB
  0
TABLE
  2
VIEW
 70
     0
  0
ENDTAB
  0
TABLE
  2
UCS
 70
     0
  0
ENDTAB
  0
TABLE
  2
APPID
 70
     9
  0
APPID
  2
ACAD
 70
     0
  0
APPID
  2
ACAD_MLEADERVER
 70
     0
  0
APPID
  2
ACAD_EXEMPT_FROM_CAD_STANDARDS
 70
     0
  0
APPID
  2
ACAD_NAV_VCDISPLAY
 70
     0
  0
APPID
  2
ACAECLAYERSTANDARD
 70
     0
  0
APPID
  2
ACCMTRANSPARENCY
 70
     0
  0
APPID
  2
ACAD_DSTYLE_DIMJAG
 70
     0
  0
APPID
  2
ACAD_DSTYLE_DIMTALN
 70
     0
  0
APPID
  2
ACDBATTR
 70
     0
  0
ENDTAB
  0
TABLE
  2
DIMSTYLE
 70
     1
  0
DIMSTYLE
  2
STANDARD
 70
     0
  3

  4

  5

  6

  7

 40
1.0
 41
0.1875
 42
0.0625
 43
0.38
 44
0.125
 45
0.0
 46
0.0
 47
0.01
 48
0.01
140
0.15625
141
0.09
142
0.0
143
25.3999999999999986
144
1.0
145
0.0
146
1.0
147
0.09
 71
     1
 72
     0
 73
     1
 74
     1
 75
     0
 76
     0
 77
     0
 78
     4
170
     0
171
     2
172
     0
173
     0
174
     0
175
     0
176
     0
177
     0
178
     0
  0
ENDTAB
  0
ENDSEC
  0
SECTION
  2
BLOCKS
  0
BLOCK
  8
0
  2
$MODEL_SPACE
 70
     0
 10
0.0
 20
0.0
 30
0.0
  3
$MODEL_SPACE
  1

  0
ENDBLK
  5
21
  8
0
  0
BLOCK
 67
     1
  8
0
  2
$PAPER_SPACE
 70
     0
 10
0.0
 20
0.0
 30
0.0
  3
$PAPER_SPACE
  1

  0
ENDBLK
  5
1D
 67
     1
  8
0
  0
ENDSEC
  0
SECTION
  2
ENTITIES
  0
ATTDEF
  5
15A25
  8
DEFPOINTS
 10
3728.7210983363638661
 20
135.9510051732617057
 30
0.0
 40
0.001
  1
K-T72771-4
  3

  2
MODELNUMBER
 70
     0
1001
ACDBATTR
1070
     0
1070
     1
  0
ATTDEF
  5
15A26
  8
DEFPOINTS
 10
3728.7210983363638661
 20
135.9493385065950122
 30
0.0
 40
0.001
  1
ARTIFACTS
  3

  2
TRADENAME
 70
     0
1001
ACDBATTR
1070
     0
1070
     1
  0
ATTDEF
  5
15A27
  8
DEFPOINTS
 10
3728.7210983363638661
 20
135.9476718399284039
 30
0.0
 40
0.001
  1
VALVE TRIM
  3

  2
PRODUCT
 70
     0
1001
ACDBATTR
1070
     0
1070
     1
  0
LINE
  5
163EF
  8
0
 10
3728.1425352893438685
 20
134.8337142184394963
 30
0.0
 11
3728.1425273799450224
 21
137.0616597256656064
 31
0.0
  0
LINE
  5
163F0
  8
0
 10
3728.1425352893438685
 20
134.8837760577156928
 30
0.0
 11
3728.0550847033450736
 21
134.8837760577156075
 31
0.0
  0
ARC
  5
163F1
  8
0
 10
3728.0515414418059663
 20
134.8589019014980863
 30
0.0
 40
0.025125253229873
 50
81.8928999688497044
 51
167.4157673513875011
  0
ARC
  5
163F2
  8
0
 10
3727.9147565222820049
 20
134.9067774011782035
 30
0.0
 40
0.1200038026873888
 50
193.9021212498051057
 51
339.3086673201943881
  0
ARC
  5
163F3
  8
0
 10
3727.7723306580710414
 20
134.8748498881344915
 30
0.0
 40
0.0261212581024244
 50
6.8045528992904778
 51
97.0069192256154196
  0
ARC
  5
163F4
  8
0
 10
3727.7416233914450459
 20
117.5059936772257032
 30
0.0
 40
17.3948041511413294
 50
89.909350875097104
 51
90.0906491249029102
  0
ARC
  5
163F5
  8
0
 10
3727.7111498326748915
 20
134.9259775271466992
 30
0.0
 40
0.0253738666937951
 50
199.4920771610422037
 51
276.6827572613260031
  0
ARC
  5
163F6
  8
0
 10
3727.2641265347037915
 20
134.6821606183351889
 30
0.0
 40
0.4841554001516926
 50
29.0848787939003905
 51
57.0038138372388872
  0
ARC
  5
163F7
  8
0
 10
3726.9109895741789842
 20
134.0197022398010915
 30
0.0
 40
1.233767836420451
 50
60.0045073336382586
 51
80.3283099465195676
  0
ARC
  5
163F8
  8
0
 10
3726.5562743690811658
 20
131.6582607124738047
 30
0.0
 40
3.6215439244048442
 50
81.0727661258347183
 51
89.1110566679202236
  0
ARC
  5
163F9
  8
0
 10
3726.6627030564281995
 20
136.6268042586723936
 30
0.0
 40
1.348371884591681
 50
257.3155999999269739
 51
267.864563155354972
  0
ARC
  5
163FA
  8
0
 10
3726.4237070093950024
 20
135.5988406564314914
 30
0.0
 40
0.2931119928946719
 50
219.4326363926942918
 51
258.770541773243508
  0
ARC
  5
163FB
  8
0
 10
3726.1722481530650839
 20
135.3960334026203043
 30
0.0
 40
0.030082701839171
 50
33.5625744474380028
 51
147.9853492865406963
  0
ARC
  5
163FC
  8
0
 10
3726.1194015339251564
 20
135.4310684378689018
 30
0.0
 40
0.0333428421229624
 50
273.1526283681387781
 51
325.0787526996006136
  0
LINE
  5
163FD
  8
0
 10
3726.1212352563447894
 20
135.3977760576156015
 30
0.0
 11
3725.9696693959449476
 21
135.3977760576156015
 31
0.0
  0
ARC
  5
163FE
  8
0
 10
3725.9709677549672051
 20
135.4294728695097092
 30
0.0
 40
0.0317233922070987
 50
197.5009523285089017
 51
267.6543770931190807
  0
ARC
  5
163FF
  8
0
 10
3697.6822715243129096
 20
127.7741452576136965
 30
0.0
 40
29.2745208599603615
 50
15.1398237433274403
 51
15.2027179667661194
  0
ARC
  5
16400
  8
0
 10
3725.9065737702189836
 20
135.4470320623526902
 30
0.0
 40
0.0260254029871671
 50
8.6538326365350695
 51
92.1816823460933392
  0
ARC
  5
16401
  8
0
 10
3725.9119499623297997
 20
135.6548112614300976
 30
0.0
 40
0.1818841338043679
 50
222.1764151215303116
 51
267.993925601042406
  0
ARC
  5
16402
  8
0
 10
3726.0394803723888799
 20
135.7486399664284988
 30
0.0
 40
0.3397738012731752
 50
188.6095024120884034
 51
219.4619484610290101
  0
LINE
  5
16403
  8
0
 10
3725.7035352893449272
 20
135.6977760577156005
 30
0.0
 11
3725.7035352893449272
 21
136.1977760577156005
 31
0.0
  0
LINE
  5
16404
  8
0
 10
3725.7035352893449272
 20
135.7077760577155914
 30
0.0
 11
3725.685535289344898
 21
135.7077760577155914
 31
0.0
  0
LINE
  5
16405
  8
0
 10
3725.685535289344898
 20
135.7077760577155914
 30
0.0
 11
3725.685535289344898
 21
136.1877760577156096
 31
0.0
  0
ARC
  5
16406
  8
0
 10
3725.675535289344225
 20
135.7077760577155914
 30
0.0
 40
0.009999999999998
 50
270.0
 51
0.0000000000211698
  0
LINE
  5
16407
  8
0
 10
3725.675535289344225
 20
135.6977760577156005
 30
0.0
 11
3725.6477815024441043
 21
135.6977760577156005
 31
0.0
  0
ARC
  5
16408
  8
0
 10
3725.6477815024441043
 20
135.6377759938746976
 30
0.0
 40
0.0600000638409428
 50
90.0
 51
166.9980873471905909
  0
ARC
  5
16409
  8
0
 10
3725.5563302103319074
 20
135.658892403837001
 30
0.0
 40
0.0338574963155072
 50
291.245037486740614
 51
346.9980873471906762
  0
ARC
  5
1640A
  8
0
 10
3725.5438556495450939
 20
135.6909789105318964
 30
0.0
 40
0.0682836285220498
 50
267.2128359161848721
 51
291.245037486740614
  0
LINE
  5
1640B
  8
0
 10
3725.5405352893449162
 20
135.6227760577156118
 30
0.0
 11
3725.3232908277450406
 21
135.6227760577156118
 31
0.0
  0
ARC
  5
1640C
  8
0
 10
3725.3211784530258228
 20
135.5980461327939963
 30
0.0
 40
0.0248199781140265
 50
85.1177738997004951
 51
140.5754089465565073
  0
ARC
  5
1640D
  8
0
 10
3724.9641625615818157
 20
135.947960153573689
 30
0.0
 40
0.4751795452839066
 50
299.3029309683694805
 51
315.3147533707426078
  0
ARC
  5
1640E
  8
0
 10
3724.5558269545981602
 20
135.2060023753849975
 30
0.0
 40
0.3716556184196865
 50
62.3571980949891866
 51
74.4525791482368362
  0
ARC
  5
1640F
  8
0
 10
3724.6570392935841483
 20
135.58882222751879
 30
0.0
 40
0.0248148390443571
 50
179.3339412037628904
 51
266.3139823786586931
  0
ARC
  5
16410
  8
0
 10
3724.5563710262849781
 20
135.5892850218297099
 30
0.0
 40
0.0758553052825424
 50
359.8683229868535136
 51
72.6082482731841452
  0
ARC
  5
16411
  8
0
 10
3724.5619598095649962
 20
135.6080326392043105
 30
0.0
 40
0.056294909022714
 50
72.3329950113871121
 51
154.8564116257010141
  0
ARC
  5
16412
  8
0
 10
3724.4850294614320774
 20
135.6404407658195908
 30
0.0
 40
0.0273218873737361
 50
295.1223231659087105
 51
341.8981987119669839
  0
ARC
  5
16413
  8
0
 10
3724.4435203503981029
 20
135.7183311562502865
 30
0.0
 40
0.1155550995003031
 50
245.8656840865355093
 51
297.3610508174534743
  0
ARC
  5
16414
  8
0
 10
3724.4050105124401853
 20
135.6379726374657935
 30
0.0
 40
0.026573560041531
 50
175.0693390893044921
 51
250.8026501375516091
  0
ARC
  5
16415
  8
0
 10
3724.3534249491372066
 20
135.6441293934886971
 30
0.0
 40
0.0254072317600829
 50
351.2323805634899827
 51
59.7745372292266879
  0
ARC
  5
16416
  8
0
 10
3724.4989297039078338
 20
135.8465122561646012
 30
0.0
 40
0.2239822781630314
 50
195.6113645002043882
 51
233.6637464093753067
  0
ARC
  5
16417
  8
0
 10
3724.7998189205118251
 20
135.9477760552155985
 30
0.0
 40
0.5412758853697202
 50
162.6359051481888969
 51
197.3640948518111031
  0
LINE
  5
16418
  8
0
 10
3728.1425352893438685
 20
137.0117760527155895
 30
0.0
 11
3728.0550847033450736
 21
137.0117760527155895
 31
0.0
  0
ARC
  5
16419
  8
0
 10
3728.0515414418059663
 20
137.0366502089331959
 30
0.0
 40
0.025125253229873
 50
192.5842326486124989
 51
278.1071000311503099
  0
ARC
  5
1641A
  8
0
 10
3727.9147565222820049
 20
136.9887747092529935
 30
0.0
 40
0.1200038026873888
 50
20.6913326798056403
 51
166.0978787501948943
  0
ARC
  5
1641B
  8
0
 10
3727.7723306580710414
 20
137.0207022222967055
 30
0.0
 40
0.0261212581024244
 50
262.9930807743846231
 51
353.1954471007078951
  0
ARC
  5
1641C
  8
0
 10
3727.7416233914450459
 20
154.389558433205508
 30
0.0
 40
17.3948041511413294
 50
269.9093508750971182
 51
270.0906491249028818
  0
ARC
  5
1641D
  8
0
 10
3727.7111498326748915
 20
136.9695745832846114
 30
0.0
 40
0.0253738666937951
 50
83.3172427386739969
 51
160.5079228389577111
  0
ARC
  5
1641E
  8
0
 10
3727.2641265347037915
 20
137.2133914920960933
 30
0.0
 40
0.4841554001516926
 50
302.9961861627610915
 51
330.9151212060996272
  0
ARC
  5
1641F
  8
0
 10
3726.9413215715921979
 20
137.791754235721811
 30
0.0
 40
1.14588019769577
 50
278.8830100530176992
 51
300.7841726668272031
  0
ARC
  5
16420
  8
0
 10
3726.5562743690811658
 20
140.237291397957506
 30
0.0
 40
3.6215439244048442
 50
270.8889433320798048
 51
278.9272338741653243
  0
ARC
  5
16421
  8
0
 10
3726.6627030564281995
 20
135.2687478517588886
 30
0.0
 40
1.348371884591681
 50
92.1354368446449996
 51
102.6844000000728983
  0
ARC
  5
16422
  8
0
 10
3726.4237070093950024
 20
136.2967114539997056
 30
0.0
 40
0.2931119928946719
 50
101.2294582267565062
 51
140.5673636073057082
  0
ARC
  5
16423
  8
0
 10
3726.1722481530650839
 20
136.4995187078110064
 30
0.0
 40
0.030082701839171
 50
212.0146507134593037
 51
326.4374255525619901
  0
ARC
  5
16424
  8
0
 10
3726.1194015339251564
 20
136.4644836725624089
 30
0.0
 40
0.0333428421229624
 50
34.9212473003993935
 51
86.8473716318611508
  0
LINE
  5
16425
  8
0
 10
3726.1212352563447894
 20
136.4977760528155954
 30
0.0
 11
3725.9696693959449476
 21
136.4977760528155954
 31
0.0
  0
ARC
  5
16426
  8
0
 10
3725.9709677549672051
 20
136.4660792409216015
 30
0.0
 40
0.0317233922070987
 50
92.3456229068809051
 51
162.4990476714910983
  0
ARC
  5
16427
  8
0
 10
3697.6822715243129096
 20
144.1214068528176142
 30
0.0
 40
29.2745208599603615
 50
344.7972820332337847
 51
344.8601762566726165
  0
ARC
  5
16428
  8
0
 10
3725.9065737702189836
 20
136.448520048078592
 30
0.0
 40
0.0260254029871671
 50
267.8183176539067176
 51
351.3461673634648719
  0
ARC
  5
16429
  8
0
 10
3725.9119499623297997
 20
136.2407408490012131
 30
0.0
 40
0.1818841338043679
 50
92.006074398957594
 51
137.8235848784696884
  0
ARC
  5
1642A
  8
0
 10
3726.0394803813042017
 20
136.1469121384866128
 30
0.0
 40
0.3397738116613888
 50
140.5380517762361876
 51
171.3904960595976945
  0
LINE
  5
1642B
  8
0
 10
3725.7035352893449272
 20
136.1877760527156056
 30
0.0
 11
3725.685535289344898
 21
136.1877760527156056
 31
0.0
  0
ARC
  5
1642C
  8
0
 10
3725.675535289344225
 20
136.1877760527156056
 30
0.0
 40
0.009999999999998
 50
359.9999999999789111
 51
90.0
  0
LINE
  5
1642D
  8
0
 10
3725.675535289344225
 20
136.1977760527155965
 30
0.0
 11
3725.6477815024441043
 21
136.1977760527155965
 31
0.0
  0
ARC
  5
1642E
  8
0
 10
3725.6477815024441043
 20
136.257776116556613
 30
0.0
 40
0.0600000638409428
 50
193.0019126528092954
 51
270.0
  0
ARC
  5
1642F
  8
0
 10
3725.5563302103319074
 20
136.2366597065943097
 30
0.0
 40
0.0338574963155072
 50
13.0019126528093505
 51
68.7549625132594997
  0
ARC
  5
16430
  8
0
 10
3725.5438556495450939
 20
136.2045731998993858
 30
0.0
 40
0.0682836285220498
 50
68.7549625132594997
 51
92.7871640838150284
  0
LINE
  5
16431
  8
0
 10
3725.5405352893449162
 20
136.2727760527156988
 30
0.0
 11
3725.3232908277450406
 21
136.2727760527156988
 31
0.0
  0
ARC
  5
16432
  8
0
 10
3725.3211784530258228
 20
136.2975059776372859
 30
0.0
 40
0.0248199781140265
 50
219.4245910534434074
 51
274.8822261002994765
  0
ARC
  5
16433
  8
0
 10
3724.9641625615818157
 20
135.947591956857508
 30
0.0
 40
0.4751795452839066
 50
44.6852466292573567
 51
118.6038926552953967
  0
ARC
  5
16434
  8
0
 10
3724.5541113493368357
 20
136.6945497013890929
 30
0.0
 40
0.3769326040692996
 50
285.5949467505711254
 51
298.9683281657408997
  0
ARC
  5
16435
  8
0
 10
3724.657044636379851
 20
136.3067186467210092
 30
0.0
 40
0.024826395901508
 50
93.6966554155720672
 51
181.4446142567699098
  0
ARC
  5
16436
  8
0
 10
3724.5563710262849781
 20
136.3062670886016008
 30
0.0
 40
0.0758553052825285
 50
287.3917517268158122
 51
359.8683229870227933
  0
ARC
  5
16437
  8
0
 10
3724.5619598371740722
 20
136.2875200052162086
 30
0.0
 40
0.0562954094483655
 50
205.1461152128233039
 51
287.666813276610128
  0
ARC
  5
16438
  8
0
 10
3724.4850294614320774
 20
136.2551113446116062
 30
0.0
 40
0.0273218873737568
 50
18.0975518916606894
 51
64.8776768340656957
  0
ARC
  5
16439
  8
0
 10
3724.4435203503981029
 20
136.1772209541809957
 30
0.0
 40
0.1155550995003031
 50
62.6389491825465115
 51
114.1343159134644054
  0
ARC
  5
1643A
  8
0
 10
3724.4050105124401853
 20
136.2575794729654035
 30
0.0
 40
0.026573560041531
 50
109.1973498624483057
 51
184.9306609106955079
  0
ARC
  5
1643B
  8
0
 10
3724.3534249491372066
 20
136.2514227169426135
 30
0.0
 40
0.0254072317600821
 50
300.2254627707740724
 51
8.7676194365115698
  0
ARC
  5
1643C
  8
0
 10
3724.510273660691837
 20
136.0412032035360994
 30
0.0
 40
0.2370592906058086
 50
127.4226767391312052
 51
163.3022123512756991
  0
LINE
  5
1643D
  8
0
 10
3728.0550847033450736
 20
134.8837760577156075
 30
0.0
 11
3728.0550847033450736
 21
137.0117760527155895
 31
0.0
  0
LINE
  5
1643E
  8
0
 10
3727.7691441465440221
 20
134.9007760577156034
 30
0.0
 11
3727.7691441465440221
 21
136.9947760527157072
 31
0.0
  0
ARC
  5
1643F
  8
0
 10
3726.1040176827859796
 20
135.4307535756470031
 30
0.0
 40
0.0330241862361165
 50
273.046374366556222
 51
321.2360216111338218
  0
ARC
  5
16440
  8
0
 10
3726.111981247123822
 20
135.4243589445756015
 30
0.0
 40
0.0228109759907352
 50
321.2360216111350155
 51
344.7713198147729941
  0
ARC
  5
16441
  8
0
 10
3725.5719414044838231
 20
135.5377637207149917
 30
0.0
 40
0.5745916273625343
 50
348.0069046815806928
 51
0.0924443781946498
  0
ARC
  5
16442
  8
0
 10
3723.6310828926589238
 20
135.5606228193840934
 30
0.0
 40
2.515545001304111
 50
359.5004549493464197
 51
1.5332662543821269
  0
ARC
  5
16443
  8
0
 10
3725.5903219395509041
 20
135.6140725341055884
 30
0.0
 40
0.5555781832861005
 50
1.4294644186899821
 51
11.8844678422221097
  0
ARC
  5
16444
  8
0
 10
3724.2230797750758029
 20
135.947776098476794
 30
0.0
 40
1.9234526123067861
 50
353.4536063680897087
 51
6.546359104385143
  0
ARC
  5
16445
  8
0
 10
3725.5611297118421135
 20
136.2878205500587114
 30
0.0
 40
0.5854509053034758
 50
348.0965213559397853
 51
0.7391984982715171
  0
ARC
  5
16446
  8
0
 10
3724.2153046002558767
 20
136.3220696590371972
 30
0.0
 40
1.9314118013710639
 50
359.2080271647374161
 51
2.472106297123549
  0
ARC
  5
16447
  8
0
 10
3725.1671305353647767
 20
136.2933128429627061
 30
0.0
 40
0.9841892816772441
 50
6.5381470624279157
 51
10.7676101612703796
  0
ARC
  5
16448
  8
0
 10
3726.104509697577214
 20
136.4664139968215864
 30
0.0
 40
0.0313874831969739
 50
20.0696184457595592
 51
87.6937998265798484
  0
ARC
  5
16449
  8
0
 10
3725.9830290165041333
 20
135.4307535756470031
 30
0.0
 40
0.0330241862361165
 50
218.7639783888648992
 51
266.953625633443778
  0
ARC
  5
1644A
  8
0
 10
3725.9750654521649267
 20
135.4243589445756015
 30
0.0
 40
0.0228109759907352
 50
195.2286801852270059
 51
218.7639783888648992
  0
ARC
  5
1644B
  8
0
 10
3726.5151052948049255
 20
135.5377637207149917
 30
0.0
 40
0.5745916273625343
 50
179.9075556218037093
 51
191.9930953184193925
  0
ARC
  5
1644C
  8
0
 10
3728.4559638066311891
 20
135.5606228193840934
 30
0.0
 40
2.515545001304111
 50
178.4667337456178018
 51
180.4995450506534951
  0
ARC
  5
1644D
  8
0
 10
3726.4967247597378446
 20
135.6140725341055884
 30
0.0
 40
0.5555781832861005
 50
168.1155321577778921
 51
178.570535581309997
  0
ARC
  5
1644E
  8
0
 10
3727.8639669242129457
 20
135.947776098476794
 30
0.0
 40
1.9234526123067861
 50
173.4536408956147966
 51
186.5463936319102913
  0
ARC
  5
1644F
  8
0
 10
3726.5259169874479994
 20
136.2878205500587114
 30
0.0
 40
0.5854509053034758
 50
179.2608015017283947
 51
191.903478644060101
  0
ARC
  5
16450
  8
0
 10
3727.8717420990328719
 20
136.3220696590371972
 30
0.0
 40
1.9314118013710639
 50
177.5278937028764119
 51
180.7919728352626123
  0
ARC
  5
16451
  8
0
 10
3726.9199161639239719
 20
136.2933128429627061
 30
0.0
 40
0.9841892816772441
 50
169.2323898387296026
 51
173.4618529375721039
  0
ARC
  5
16452
  8
0
 10
3725.9825370017119894
 20
136.4664139968215864
 30
0.0
 40
0.0313874831969739
 50
92.3062001734201374
 51
159.9303815542403981
  0
ARC
  5
16453
  8
0
 10
3726.1036815549441599
 20
136.1493225572691017
 30
0.0
 40
0.0351200694056176
 50
30.3410869277561304
 51
86.5863887083299346
  0
LINE
  5
16454
  8
0
 10
3726.1057727273450837
 20
136.1843803135155895
 30
0.0
 11
3725.9812739714211602
 21
136.1843803135155895
 31
0.0
  0
ARC
  5
16455
  8
0
 10
3725.981346823108197
 20
136.1526114840316097
 30
0.0
 40
0.0317689130149375
 50
90.1313893816655991
 51
152.9411359289271104
  0
ARC
  5
16456
  8
0
 10
3726.102147494512792
 20
135.7487303721489127
 30
0.0
 40
0.0377331223006844
 50
275.5132310586939752
 51
327.5563762571385951
  0
LINE
  5
16457
  8
0
 10
3726.1057727273450837
 20
135.7111718018155955
 30
0.0
 11
3725.9812739719450292
 21
135.7111718022156026
 31
0.0
  0
ARC
  5
16458
  8
0
 10
3725.9814460319080354
 20
135.743102982653312
 30
0.0
 40
0.0319316440035874
 50
207.2391270259062992
 51
269.6912668382699962
  0
LINE
  5
16459
  8
0
 10
3725.5893196869451458
 20
136.2442770873497864
 30
0.0
 11
3725.5893196869451458
 21
135.6512750230814959
 31
0.0
  0
LINE
  5
1645A
  8
0
 10
3725.3232908277450406
 20
135.6227760577156118
 30
0.0
 11
3725.3232908277450406
 21
136.2727760527156988
 31
0.0
  0
LINE
  5
1645B
  8
0
 10
3724.6322261312448063
 20
136.30609275828769
 30
0.0
 11
3724.6322261312448063
 21
135.5891106915156001
 31
0.0
  0
LINE
  5
1645C
  8
0
 10
3724.378535289345109
 20
135.6480021496616928
 30
0.0
 11
3724.378535289345109
 21
136.2475499607695042
 31
0.0
  0
LINE
  5
1645D
  8
0
 10
3724.5109990783280409
 20
135.6319516829520069
 30
0.0
 11
3724.5109997078579909
 21
136.263598501394398
 31
0.0
  0
LINE
  5
1645E
  8
0
 10
3727.7141026363437959
 20
136.9947760527155936
 30
0.0
 11
3727.7141026363437959
 21
134.9007760577156034
 31
0.0
  0
ARC
  5
1645F
  8
0
 10
3725.4281508706831119
 20
135.4751677495291062
 30
0.0
 40
0.2714239808983177
 50
184.3228163417321923
 51
250.8577823943888916
  0
ARC
  5
16460
  8
0
 10
3725.1339426790409561
 20
135.2188021885162073
 30
0.0
 40
0.2052044521999323
 50
304.2792739745511881
 51
359.9858374995002919
  0
ARC
  5
16461
  8
0
 10
3725.2543261599948892
 20
135.0405746120655976
 30
0.0
 40
0.0099104361459681
 50
119.0137562084281058
 51
240.9862437915718942
  0
ARC
  5
16462
  8
0
 10
3725.2240790475730137
 20
134.9887800166058014
 30
0.0
 40
0.0500722112928509
 50
293.4270280577310928
 51
59.4644176901131587
  0
ARC
  5
16463
  8
0
 10
3725.2522138777908367
 20
134.917537132302698
 30
0.0
 40
0.0266023902875997
 50
108.0146998867073052
 51
189.3845291608168111
  0
LINE
  5
16464
  8
0
 10
3725.2259675278719442
 20
134.9131993581156053
 30
0.0
 11
3725.3325420873720759
 21
133.4054554515155928
 31
0.0
  0
ARC
  5
16465
  8
0
 10
3725.3572866414569944
 20
133.403670106806004
 30
0.0
 40
0.024808877698241
 50
175.8732024464403878
 51
256.8307381105847185
  0
ARC
  5
16466
  8
0
 10
3725.3342696864679056
 20
133.3327433745278938
 30
0.0
 40
0.0498898426083062
 50
329.9376696309465729
 51
69.6311434997889194
  0
ARC
  5
16467
  8
0
 10
3725.3962301852948258
 20
133.2909786240668097
 30
0.0
 40
0.0251810217077552
 50
138.2339532052909874
 51
249.5270512746465954
  0
ARC
  5
16468
  8
0
 10
3725.334145664397056
 20
133.1827600912268963
 30
0.0
 40
0.1000017349513401
 50
302.1737602397828937
 51
57.8077685789167504
  0
ARC
  5
16469
  8
0
 10
3725.3961242233672237
 20
133.0745564298956083
 30
0.0
 40
0.0251235623116779
 50
110.3304143088104041
 51
221.9816506232452866
  0
ARC
  5
1646A
  8
0
 10
3725.3341471249150345
 20
133.0327514656208052
 30
0.0
 40
0.0500000000558378
 50
287.0123759530411007
 51
29.9999999561620001
  0
ARC
  5
1646B
  8
0
 10
3725.352883505086993
 20
132.9610198165603094
 30
0.0
 40
0.0242696747598339
 50
99.7437953493166702
 51
169.0687916014589973
  0
ARC
  5
1646C
  8
0
 10
3725.0966576158812131
 20
133.035474778110995
 30
0.0
 40
0.2426676054819544
 50
300.4919532173412904
 51
343.2705139617855252
  0
ARC
  5
1646D
  8
0
 10
3725.231060678780068
 20
132.8018596347723985
 30
0.0
 40
0.0269751218220048
 50
114.6936755776650045
 51
183.8718286848861965
  0
LINE
  5
1646E
  8
0
 10
3725.2041471249708593
 20
132.8000381467155933
 30
0.0
 11
3725.2041240818862207
 21
132.7774330861155931
 31
0.0
  0
ARC
  5
1646F
  8
0
 10
3725.1791054784698645
 20
132.7732013391681107
 30
0.0
 40
0.0253739669563336
 50
269.7537216851991957
 51
9.6003716393584853
  0
ARC
  5
16470
  8
0
 10
3725.1948681267808752
 20
132.6450053749113067
 30
0.0
 40
0.1040400050812435
 50
98.7749613114375222
 51
164.693086574014302
  0
ARC
  5
16471
  8
0
 10
3725.0658478986338196
 20
132.6820381665824016
 30
0.0
 40
0.0302251393395145
 50
270.2757572005995144
 51
341.5464644145241095
  0
LINE
  5
16472
  8
0
 10
3725.0659933677720801
 20
132.6518133773057002
 30
0.0
 11
3724.8590749173717995
 21
132.6518133773057002
 31
0.0
  0
ARC
  5
16473
  8
0
 10
3724.5001360907590424
 20
135.4751665855266936
 30
0.0
 40
0.2714239808983177
 50
289.1422176056111084
 51
355.6771836582677793
  0
ARC
  5
16474
  8
0
 10
3724.7943442824030171
 20
135.2188010245137946
 30
0.0
 40
0.2052044521999323
 50
180.0141625004997081
 51
235.7207260254486982
  0
ARC
  5
16475
  8
0
 10
3724.6739608014490841
 20
135.0405734480632987
 30
0.0
 40
0.0099104361459681
 50
299.0137562084281058
 51
60.9862437915719227
  0
ARC
  5
16476
  8
0
 10
3724.7042079138700501
 20
134.9887788526033887
 30
0.0
 40
0.0500722112928509
 50
120.5355823098868058
 51
246.5729719422689072
  0
ARC
  5
16477
  8
0
 10
3724.6760730836522271
 20
134.9175359683003137
 30
0.0
 40
0.0266023902875997
 50
350.615470839181512
 51
71.9853001132926522
  0
LINE
  5
16478
  8
0
 10
3724.7023194335711196
 20
134.9131981941131926
 30
0.0
 11
3724.5957448740718974
 21
133.4054542875132086
 31
0.0
  0
ARC
  5
16479
  8
0
 10
3724.5710003199851599
 20
133.4036689428035061
 30
0.0
 40
0.0248088776982437
 50
283.1810561382681044
 51
4.1267975535530246
  0
ARC
  5
1647A
  8
0
 10
3724.5940162867850631
 20
133.3327421216544906
 30
0.0
 40
0.0498889428308066
 50
110.3619381337503995
 51
210.0628105540970978
  0
ARC
  5
1647B
  8
0
 10
3724.5320567761477832
 20
133.2909774600643971
 30
0.0
 40
0.0251810217077571
 50
290.4805196658358
 51
41.7660467947089913
  0
ARC
  5
1647C
  8
0
 10
3724.5941413101368198
 20
133.1827581216660121
 30
0.0
 40
0.1000017480804482
 50
122.1901251833539988
 51
237.8241086555142942
  0
ARC
  5
1647D
  8
0
 10
3724.53216273807584
 20
133.0745552658931956
 30
0.0
 40
0.0251235623116761
 50
318.0183493767535197
 51
69.6772275994845103
  0
ARC
  5
1647E
  8
0
 10
3724.5941398365280293
 20
133.0327503016183925
 30
0.0
 40
0.0500000000558378
 50
150.0000000438380141
 51
252.983065693587605
  0
ARC
  5
1647F
  8
0
 10
3724.5754021473308057
 20
132.9610179488263952
 30
0.0
 40
0.0242710934866404
 50
10.9322535376865098
 51
80.2627552121965664
  0
ARC
  5
16480
  8
0
 10
3724.8316293455632149
 20
133.0354736141086107
 30
0.0
 40
0.2426676054819544
 50
196.7294860382129116
 51
239.5080467826585959
  0
ARC
  5
16481
  8
0
 10
3724.6972262826639053
 20
132.8018584707699858
 30
0.0
 40
0.0269751218220048
 50
356.1281713151137183
 51
65.3063244223349244
  0
LINE
  5
16482
  8
0
 10
3724.7241398364708402
 20
132.800036982713209
 30
0.0
 11
3724.7241628795568431
 21
132.7774319221132089
 31
0.0
  0
ARC
  5
16483
  8
0
 10
3724.7491814829741088
 20
132.7732001751656981
 30
0.0
 40
0.0253739669563336
 50
170.3996283606414863
 51
270.2462783148008043
  0
ARC
  5
16484
  8
0
 10
3724.7334188346621886
 20
132.645004210908894
 30
0.0
 40
0.1040400050812435
 50
15.3069134259856501
 51
81.2250386885624636
  0
ARC
  5
16485
  8
0
 10
3724.8594694867788348
 20
132.6781271266480076
 30
0.0
 40
0.026316707420721
 50
192.4141042126445029
 51
269.1409256318553957
  0
LINE
  5
16486
  8
0
 10
3724.5891398364710767
 20
135.2187503016131984
 30
0.0
 11
3725.3391471249719871
 21
135.2187514656156111
 31
0.0
  0
LINE
  5
16487
  8
0
 10
3724.6787696553001297
 20
135.0319079031156093
 30
0.0
 11
3725.2495194042721778
 21
135.0319079031156093
 31
0.0
  0
LINE
  5
16488
  8
0
 10
3724.684257122255076
 20
134.942852909415592
 30
0.0
 11
3725.2440271594869046
 21
134.942852909415592
 31
0.0
  0
LINE
  5
16489
  8
0
 10
3724.5766574625799876
 20
133.3795136711156033
 30
0.0
 11
3725.3516344713088984
 21
133.3795136711156033
 31
0.0
  0
LINE
  5
1648A
  8
0
 10
3724.5408673360398097
 20
133.2673881004155874
 30
0.0
 11
3725.3874227425271783
 21
133.2673881004155874
 31
0.0
  0
LINE
  5
1648B
  8
0
 10
3724.5408883620862071
 20
133.0981149108156103
 30
0.0
 11
3725.3873954571331524
 21
133.0981149108156103
 31
0.0
  0
LINE
  5
1648C
  8
0
 10
3724.5795071196707795
 20
132.984939386515606
 30
0.0
 11
3725.3487760379721294
 21
132.984939386515606
 31
0.0
  0
LINE
  5
1648D
  8
0
 10
3724.7481096662709206
 20
132.7478488555144907
 30
0.0
 11
3725.1801493997768375
 21
132.7478488555144907
 31
0.0
  0
LINE
  5
1648E
  8
0
 10
3724.7084936158039454
 20
132.8263679977156073
 30
0.0
 11
3725.2197913687718938
 21
132.8263679976155913
 31
0.0
  0
ARC
  5
1648F
  8
0
 10
3725.2368716153578134
 20
135.4644165592075069
 30
0.0
 40
0.0799713920309445
 50
120.1304907200212
 51
186.9730892602368044
  0
ARC
  5
16490
  8
0
 10
3724.6901855166438509
 20
135.4636344897770925
 30
0.0
 40
0.0810952166991558
 50
353.6802519066495165
 51
61.9983105622323265
  0
ARC
  5
16491
  8
0
 10
3728.2025095652870732
 20
137.0616965203986126
 30
0.0
 40
0.0599742865778919
 50
117.3799655090296028
 51
180.0341218792964924
  0
ARC
  5
16492
  8
0
 10
3728.1511010309550329
 20
134.7373873958127888
 30
0.0
 40
0.0491952194346729
 50
9.1342893592552468
 51
61.115602736042888
  0
ARC
  5
16493
  8
0
 10
3728.0777775323199421
 20
134.7255978626938884
 30
0.0
 40
0.1234604774172822
 50
0.9156537071026042
 51
9.1342893592552468
  0
LINE
  5
16494
  8
0
 10
3728.201222244301789
 20
134.7275708218342913
 30
0.0
 11
3728.2179400840491326
 21
134.1406386649813101
 31
0.0
  0
ARC
  5
16495
  8
0
 10
3728.2712472770040222
 20
134.135997166408913
 30
0.0
 40
0.0535088808495966
 50
175.0237622670580038
 51
277.1118699230540869
  0
LINE
  5
16496
  8
0
 10
3728.2778720539449751
 20
134.0828999662919045
 30
0.0
 11
3728.3063707409451126
 21
134.0828026491655862
 31
0.0
  0
ARC
  5
16497
  8
0
 10
3728.312699277793854
 20
134.0307027845659036
 30
0.0
 40
0.0524828188073309
 50
5.6257666675108409
 51
96.9257515680906039
  0
ARC
  5
16498
  8
0
 10
3728.9619743696589467
 20
134.1606427650453099
 30
0.0
 40
0.6099480414957485
 50
191.806055310314008
 51
213.1360163760896
  0
ARC
  5
16499
  8
0
 10
3728.6955783225098457
 20
133.9967329556822904
 30
0.0
 40
0.2973945003167568
 50
214.7479456918624976
 51
265.1695095013644163
  0
LINE
  5
1649A
  8
0
 10
3728.6705352893450254
 20
133.7003947446656014
 30
0.0
 11
3728.6705352893450254
 21
133.7039296355656006
 31
0.0
  0
ARC
  5
1649B
  8
0
 10
3728.6749142351632145
 20
133.6869326037964925
 30
0.0
 40
0.017552044195589
 50
82.6974067862700366
 51
104.446951841914597
  0
ARC
  5
1649C
  8
0
 10
3728.6466759705158438
 20
132.4282476822803005
 30
0.0
 40
1.276458301341292
 50
87.5333468879158261
 51
88.6322092112514639
  0
ARC
  5
1649D
  8
0
 10
3728.7200592545377731
 20
134.2144389799607893
 30
0.0
 40
0.5112486315184155
 50
267.9321712608210078
 51
270.0533493639151743
  0
LINE
  5
1649E
  8
0
 10
3728.720535289343843
 20
133.7031905700656012
 30
0.0
 11
3728.720535289343843
 21
138.1977778858156114
 31
0.0
  0
ARC
  5
1649F
  8
0
 10
3728.1511645780551589
 20
137.1580274047184105
 30
0.0
 40
0.0491952194346729
 50
298.884397263957112
 51
350.8657106407447941
  0
ARC
  5
164A0
  8
0
 10
3728.0778410794200681
 20
137.1698169378373109
 30
0.0
 40
0.1234604774172822
 50
350.8657106407447941
 51
359.084346292897294
  0
LINE
  5
164A1
  8
0
 10
3728.201285791401915
 20
137.1678439786969932
 30
0.0
 11
3728.2180036311488038
 21
137.7547761355498892
 31
0.0
  0
ARC
  5
164A2
  8
0
 10
3728.2713108241041482
 20
137.7594176341223999
 30
0.0
 40
0.0535088808495966
 50
82.8881300769459131
 51
184.9762377329419962
  0
LINE
  5
164A3
  8
0
 10
3728.2779356010441916
 20
137.8125148342394084
 30
0.0
 11
3728.3064342880438744
 21
137.812612151365613
 31
0.0
  0
ARC
  5
164A4
  8
0
 10
3728.31276282489398
 20
137.8647120159654094
 30
0.0
 40
0.0524828188073309
 50
263.0742484319093819
 51
354.3742333324892115
  0
ARC
  5
164A5
  8
0
 10
3728.9620379167590727
 20
137.734772035486003
 30
0.0
 40
0.6099480414957485
 50
146.8639836239104
 51
168.1939446896859067
  0
ARC
  5
164A6
  8
0
 10
3728.7231791540361883
 20
137.847774159873893
 30
0.0
 40
0.3500137114365873
 50
90.432793699292958
 51
140.9700704791740975
  0
ARC
  5
164A7
  8
0
 10
3728.202488746247127
 20
134.8336726771022995
 30
0.0
 40
0.0599534712946694
 50
179.9603001554312129
 51
242.5637322388467112
  0
LINE
  5
164A8
  8
0
 10
3728.2012092745449081
 20
137.1650443163563011
 30
0.0
 11
3728.201222244301789
 21
134.7275708218342913
 31
0.0
  0
LINE
  5
164A9
  8
0
 10
3728.3649293086450598
 20
134.0358476992657017
 30
0.0
 11
3728.3649928557451858
 21
137.8595671012656965
 31
0.0
  0
ENDSEC
  0
EOF
