  0
SECTION
  2
HEADER
  9
$ACADVER
  1
AC1009
  9
$INSBASE
 10
3728.6712004787991646
 20
135.1146119418704075
 30
0.0
  9
$EXTMIN
 10
3724.2672082245958336
 20
131.818649616320414
 30
0.0
  9
$EXTMAX
 10
3728.6830761669912135
 20
138.134610809062309
 30
0.0
  9
$LIMMIN
 10
0.0
 20
0.0
  9
$LIMMAX
 10
11.6929133858000007
 20
8.2677165353999982
  9
$ORTHOMODE
 70
     0
  9
$REGENMODE
 70
     1
  9
$FILLMODE
 70
     1
  9
$QTEXTMODE
 70
     0
  9
$MIRRTEXT
 70
     0
  9
$DRAGMODE
 70
     2
  9
$LTSCALE
 40
0.6431102362
  9
$OSMODE
 70
  4095
  9
$ATTMODE
 70
     1
  9
$TEXTSIZE
 40
0.2
  9
$TRACEWID
 40
0.05
  9
$TEXTSTYLE
  7
STANDARD
  9
$CLAYER
  8
0
  9
$CELTYPE
  6
BYLAYER
  9
$CECOLOR
 62
   256
  9
$DIMSCALE
 40
1.0
  9
$DIMASZ
 40
0.1875
  9
$DIMEXO
 40
0.0625
  9
$DIMDLI
 40
0.4443307087
  9
$DIMRND
 40
0.0
  9
$DIMDLE
 40
0.0
  9
$DIMEXE
 40
0.125
  9
$DIMTP
 40
0.01
  9
$DIMTM
 40
0.01
  9
$DIMTXT
 40
2.0
  9
$DIMCEN
 40
0.1052362205
  9
$DIMTSZ
 40
0.0
  9
$DIMTOL
 70
     1
  9
$DIMLIM
 70
     0
  9
$DIMTIH
 70
     1
  9
$DIMTOH
 70
     1
  9
$DIMSE1
 70
     0
  9
$DIMSE2
 70
     0
  9
$DIMTAD
 70
     0
  9
$DIMZIN
 70
     0
  9
$DIMBLK
  1

  9
$DIMASO
 70
     1
  9
$DIMSHO
 70
     1
  9
$DIMPOST
  1
\X
  9
$DIMAPOST
  1

  9
$DIMALT
 70
     1
  9
$DIMALTD
 70
     2
  9
$DIMALTF
 40
25.3999999999999986
  9
$DIMLFAC
 40
1.0
  9
$DIMTOFL
 70
     0
  9
$DIMTVP
 40
0.0
  9
$DIMTIX
 70
     0
  9
$DIMSOXD
 70
     0
  9
$DIMSAH
 70
     0
  9
$DIMBLK1
  1

  9
$DIMBLK2
  1

  9
$DIMSTYLE
  2
STANDARD
  9
$DIMCLRD
 70
     0
  9
$DIMCLRE
 70
     0
  9
$DIMCLRT
 70
     0
  9
$DIMTFAC
 40
1.0
  9
$DIMGAP
 40
0.09
  9
$LUNITS
 70
     2
  9
$LUPREC
 70
     4
  9
$SKETCHINC
 40
0.1
  9
$FILLETRAD
 40
0.0
  9
$AUNITS
 70
     0
  9
$AUPREC
 70
     0
  9
$MENU
  1
.
  9
$ELEVATION
 40
0.0
  9
$PELEVATION
 40
0.0
  9
$THICKNESS
 40
0.0
  9
$LIMCHECK
 70
     0
  9
$BLIPMODE
 70
     0
  9
$CHAMFERA
 40
0.0
  9
$CHAMFERB
 40
0.0
  9
$SKPOLY
 70
     0
  9
$TDCREATE
 40
2458060.468368056230247
  9
$TDUPDATE
 40
2459647.8689004629850388
  9
$TDINDWG
 40
0.3430047454
  9
$TDUSRTIMER
 40
0.3430047454
  9
$USRTIMER
 70
     1
  9
$ANGBASE
 50
0.0
  9
$ANGDIR
 70
     0
  9
$PDMODE
 70
     0
  9
$PDSIZE
 40
0.3125
  9
$PLINEWID
 40
0.0
  9
$COORDS
 70
     1
  9
$SPLFRAME
 70
     0
  9
$SPLINETYPE
 70
     6
  9
$SPLINESEGS
 70
     8
  9
$ATTDIA
 70
     1
  9
$ATTREQ
 70
     1
  9
$HANDLING
 70
     1
  9
$HANDSEED
  5
16521
  9
$SURFTAB1
 70
     6
  9
$SURFTAB2
 70
     6
  9
$SURFTYPE
 70
     6
  9
$SURFU
 70
     6
  9
$SURFV
 70
     6
  9
$UCSNAME
  2

  9
$UCSORG
 10
0.0
 20
0.0
 30
0.0
  9
$UCSXDIR
 10
1.0
 20
0.0
 30
0.0
  9
$UCSYDIR
 10
0.0
 20
1.0
 30
0.0
  9
$PUCSNAME
  2

  9
$PUCSORG
 10
0.0
 20
0.0
 30
0.0
  9
$PUCSXDIR
 10
1.0
 20
0.0
 30
0.0
  9
$PUCSYDIR
 10
0.0
 20
1.0
 30
0.0
  9
$USERI1
 70
     0
  9
$USERI2
 70
     0
  9
$USERI3
 70
     0
  9
$USERI4
 70
     0
  9
$USERI5
 70
     0
  9
$USERR1
 40
0.0
  9
$USERR2
 40
0.0
  9
$USERR3
 40
0.0
  9
$USERR4
 40
0.0
  9
$USERR5
 40
0.0
  9
$WORLDVIEW
 70
     1
  9
$SHADEDGE
 70
     3
  9
$SHADEDIF
 70
    70
  9
$TILEMODE
 70
     1
  9
$MAXACTVP
 70
    64
  9
$PLIMCHECK
 70
     0
  9
$PEXTMIN
 10
1.0000000000000000E+20
 20
1.0000000000000000E+20
 30
1.0000000000000000E+20
  9
$PEXTMAX
 10
-1.0000000000000000E+20
 20
-1.0000000000000000E+20
 30
-1.0000000000000000E+20
  9
$PLIMMIN
 10
0.0
 20
0.0
  9
$PLIMMAX
 10
12.0
 20
9.0
  9
$UNITMODE
 70
     0
  9
$VISRETAIN
 70
     1
  9
$PLINEGEN
 70
     0
  9
$PSLTSCALE
 70
     1
  0
ENDSEC
  0
SECTION
  2
TABLES
  0
TABLE
  2
VPORT
 70
     1
  0
VPORT
  2
*ACTIVE
 70
     0
 10
0.0
 20
0.0
 11
1.0
 21
1.0
 12
-77.0689251870192038
 22
8.9813680159414133
 13
0.0
 23
0.0
 14
1.0
 24
1.0
 15
0.0
 25
0.0
 16
0.0
 26
0.0
 36
17.1152628219792007
 17
3803.5440673828129547
 27
125.9952621967499056
 37
0.0
 40
6.3660216513369434
 41
2.0410052910052912
 42
50.0
 43
0.0
 44
0.0
 50
0.0
 51
0.0
 71
     0
 72
   100
 73
     1
 74
     1
 75
     0
 76
     0
 77
     0
 78
     1
  0
ENDTAB
  0
TABLE
  2
LTYPE
 70
     2
  0
LTYPE
  2
CONTINUOUS
 70
     0
  3
Solid line
 72
    65
 73
     0
 40
0.0
  0
LTYPE
  2
PHANTOM2
 70
     0
  3
___ _ _ ___ _ _ ___ _ _ ___ _ _
 72
    65
 73
     6
 40
1.25
 49
0.625
 49
-0.125
 49
0.125
 49
-0.125
 49
0.125
 49
-0.125
  0
ENDTAB
  0
TABLE
  2
LAYER
 70
     2
  0
LAYER
  2
0
 70
     0
 62
   255
  6
CONTINUOUS
  0
LAYER
  2
DEFPOINTS
 70
     0
 62
     7
  6
CONTINUOUS
  0
ENDTAB
  0
TABLE
  2
STYLE
 70
     1
  0
STYLE
  2
STANDARD
 70
     0
 40
0.0
 41
0.8
 50
0.0
 71
     0
 42
0.2
  3
txt
  4

  0
ENDTAB
  0
TABLE
  2
VIEW
 70
     0
  0
ENDTAB
  0
TABLE
  2
UCS
 70
     0
  0
ENDTAB
  0
TABLE
  2
APPID
 70
     9
  0
APPID
  2
ACAD
 70
     0
  0
APPID
  2
ACAD_MLEADERVER
 70
     0
  0
APPID
  2
ACAD_EXEMPT_FROM_CAD_STANDARDS
 70
     0
  0
APPID
  2
ACAD_NAV_VCDISPLAY
 70
     0
  0
APPID
  2
ACAECLAYERSTANDARD
 70
     0
  0
APPID
  2
ACCMTRANSPARENCY
 70
     0
  0
APPID
  2
ACAD_DSTYLE_DIMJAG
 70
     0
  0
APPID
  2
ACAD_DSTYLE_DIMTALN
 70
     0
  0
APPID
  2
ACDBATTR
 70
     0
  0
ENDTAB
  0
TABLE
  2
DIMSTYLE
 70
     1
  0
DIMSTYLE
  2
STANDARD
 70
     0
  3

  4

  5

  6

  7

 40
1.0
 41
0.1875
 42
0.0625
 43
0.38
 44
0.125
 45
0.0
 46
0.0
 47
0.01
 48
0.01
140
0.15625
141
0.09
142
0.0
143
25.3999999999999986
144
1.0
145
0.0
146
1.0
147
0.09
 71
     1
 72
     0
 73
     1
 74
     1
 75
     0
 76
     0
 77
     0
 78
     4
170
     0
171
     2
172
     0
173
     0
174
     0
175
     0
176
     0
177
     0
178
     0
  0
ENDTAB
  0
ENDSEC
  0
SECTION
  2
BLOCKS
  0
BLOCK
  8
0
  2
$MODEL_SPACE
 70
     0
 10
0.0
 20
0.0
 30
0.0
  3
$MODEL_SPACE
  1

  0
ENDBLK
  5
21
  8
0
  0
BLOCK
 67
     1
  8
0
  2
$PAPER_SPACE
 70
     0
 10
0.0
 20
0.0
 30
0.0
  3
$PAPER_SPACE
  1

  0
ENDBLK
  5
1D
 67
     1
  8
0
  0
ENDSEC
  0
SECTION
  2
ENTITIES
  0
ATTDEF
  5
15A25
  8
DEFPOINTS
 10
3728.672409500321919
 20
135.1150023048770947
 30
0.0
 40
0.001
  1
K-T72769-4
  3

  2
MODELNUMBER
 70
     0
1001
ACDBATTR
1070
     0
1070
     1
  0
ATTDEF
  5
15A26
  8
DEFPOINTS
 10
3728.672409500321919
 20
135.1133356382104012
 30
0.0
 40
0.001
  1
ARTIFACTS
  3

  2
TRADENAME
 70
     0
1001
ACDBATTR
1070
     0
1070
     1
  0
ATTDEF
  5
15A27
  8
DEFPOINTS
 10
3728.672409500321919
 20
135.1116689715437928
 30
0.0
 40
0.001
  1
VALVE TRIM
  3

  2
PRODUCT
 70
     0
1001
ACDBATTR
1070
     0
1070
     1
  0
ARC
  5
163E8
  8
0
 10
3728.6534724062889836
 20
132.4148442463799995
 30
0.0
 40
0.3191252795324502
 50
234.4502185480629919
 51
264.1959741234334729
  0
ARC
  5
163E9
  8
0
 10
3728.7869142942249709
 20
132.5108853951593915
 30
0.0
 40
0.4777686391005276
 50
189.4191338688335122
 51
228.1136790411312916
  0
ARC
  5
163EA
  8
0
 10
3728.2627303318031409
 20
132.4267476924854918
 30
0.0
 40
0.0531904520148555
 50
6.4208049453423692
 51
96.1547568361906144
  0
LINE
  5
163EB
  8
0
 10
3728.2570275547991514
 20
132.479631551270387
 30
0.0
 11
3728.2297049873977812
 21
132.4796373830704113
 31
0.0
  0
ARC
  5
163EC
  8
0
 10
3728.2231510238298142
 20
132.5329186112712136
 30
0.0
 40
0.0536828060341886
 50
174.4115558394460095
 51
277.0125516462686051
  0
ARC
  5
163ED
  8
0
 10
6445.8030968099828897
 20
166.5764310761043134
 30
0.0
 40
2717.8465293807921626
 50
180.6857030023392099
 51
180.7175905708940888
  0
LINE
  5
163EE
  8
0
 10
3728.1512004787978185
 20
134.0506315512704134
 30
0.0
 11
3728.1512004787978185
 21
136.1786315512703993
 31
0.0
  0
LINE
  5
163EF
  8
0
 10
3728.1512004787978185
 20
134.0506315512704987
 30
0.0
 11
3728.0637498927990237
 21
134.0506315512704134
 31
0.0
  0
ARC
  5
163F0
  8
0
 10
3728.0602066312608258
 20
134.0257573950528069
 30
0.0
 40
0.025125253229873
 50
81.8928999688497044
 51
167.4157673513875011
  0
ARC
  5
163F1
  8
0
 10
3727.9234217117359549
 20
134.0736328947330094
 30
0.0
 40
0.1200038026873888
 50
193.9021212498051057
 51
339.3086673201943881
  0
ARC
  5
163F2
  8
0
 10
3727.7809958475240819
 20
134.0417053816892974
 30
0.0
 40
0.0261212581024244
 50
6.8045528992904778
 51
97.0069192256154196
  0
ARC
  5
163F3
  8
0
 10
3727.7502885808989959
 20
116.6728491707804949
 30
0.0
 40
17.3948041511413294
 50
89.909350875097104
 51
90.0906491249029102
  0
ARC
  5
163F4
  8
0
 10
3727.7198150221302058
 20
134.0928330207013914
 30
0.0
 40
0.0253738666937951
 50
199.4920771610422037
 51
276.6827572613260031
  0
ARC
  5
163F5
  8
0
 10
3727.2727917241581963
 20
133.8490161118899096
 30
0.0
 40
0.4841554001516926
 50
29.0848787939003905
 51
57.0038138372388872
  0
ARC
  5
163F6
  8
0
 10
3726.9196547636320247
 20
133.1865577333558974
 30
0.0
 40
1.233767836420451
 50
60.0045073336382586
 51
80.3283099465195676
  0
ARC
  5
163F7
  8
0
 10
3726.5649395585351158
 20
130.8251162060286106
 30
0.0
 40
3.6215439244048442
 50
81.0727661258347183
 51
89.1110566679202236
  0
ARC
  5
163F8
  8
0
 10
3726.6713682458821495
 20
135.7936597522270858
 30
0.0
 40
1.348371884591681
 50
257.3155999999269739
 51
267.864563155354972
  0
ARC
  5
163F9
  8
0
 10
3726.4323721988489524
 20
134.7656961499862973
 30
0.0
 40
0.2931119928946719
 50
219.4326363926942918
 51
258.770541773243508
  0
ARC
  5
163FA
  8
0
 10
3726.1809133425190339
 20
134.5628888961749965
 30
0.0
 40
0.030082701839171
 50
33.5625744474380028
 51
147.9853492865406963
  0
ARC
  5
163FB
  8
0
 10
3726.1280667233791064
 20
134.597923931423594
 30
0.0
 40
0.0333428421229624
 50
273.1526283681387781
 51
325.0787526996006136
  0
LINE
  5
163FC
  8
0
 10
3726.1299004457978299
 20
134.5646315511704074
 30
0.0
 11
3725.9783345853979881
 21
134.5646315511704074
 31
0.0
  0
ARC
  5
163FD
  8
0
 10
3725.9796329444211551
 20
134.5963283630644014
 30
0.0
 40
0.0317233922070987
 50
197.5009523285089017
 51
267.6543770931190807
  0
ARC
  5
163FE
  8
0
 10
3697.6909367137682239
 20
126.9410007511684029
 30
0.0
 40
29.2745208599603615
 50
15.1398237433274403
 51
15.2027179667661194
  0
ARC
  5
163FF
  8
0
 10
3725.9152389596729336
 20
134.6138875559074108
 30
0.0
 40
0.0260254029871671
 50
8.6538326365350695
 51
92.1816823460933392
  0
ARC
  5
16400
  8
0
 10
3725.9206151517842045
 20
134.8216667549849035
 30
0.0
 40
0.1818841338043679
 50
222.1764151215303116
 51
267.993925601042406
  0
ARC
  5
16401
  8
0
 10
3726.0481455618428299
 20
134.9154954599833047
 30
0.0
 40
0.3397738012732762
 50
188.6095024120947983
 51
219.461948461027788
  0
LINE
  5
16402
  8
0
 10
3725.7122004787988772
 20
134.8646315512704064
 30
0.0
 11
3725.7122004787988772
 21
135.3646315512704064
 31
0.0
  0
LINE
  5
16403
  8
0
 10
3725.7122004787988772
 20
134.8746315512703973
 30
0.0
 11
3725.6942004787988481
 21
134.8746315512703973
 31
0.0
  0
LINE
  5
16404
  8
0
 10
3725.6942004787988481
 20
134.8746315512703973
 30
0.0
 11
3725.6942004787988481
 21
135.354631551270387
 31
0.0
  0
ARC
  5
16405
  8
0
 10
3725.6842004787990845
 20
134.8746315512703973
 30
0.0
 40
0.009999999999998
 50
270.0
 51
0.0000000000211698
  0
LINE
  5
16406
  8
0
 10
3725.6842004787990845
 20
134.8646315512704064
 30
0.0
 11
3725.6564466918971448
 21
134.8646315512704064
 31
0.0
  0
ARC
  5
16407
  8
0
 10
3725.6564466918971448
 20
134.8046314874293898
 30
0.0
 40
0.0600000638409428
 50
90.0
 51
166.9980873471905909
  0
ARC
  5
16408
  8
0
 10
3725.5649953997858574
 20
134.8257478973916932
 30
0.0
 40
0.0338574963155072
 50
291.245037486740614
 51
346.9980873471906762
  0
ARC
  5
16409
  8
0
 10
3725.5525208389990439
 20
134.8578344040865886
 30
0.0
 40
0.0682836285220498
 50
267.2128359161848721
 51
291.245037486740614
  0
LINE
  5
1640A
  8
0
 10
3725.5492004787979567
 20
134.7896315512703893
 30
0.0
 11
3725.3319560171989906
 21
134.7896315512703893
 31
0.0
  0
ARC
  5
1640B
  8
0
 10
3725.3298436424797728
 20
134.7649016263486885
 30
0.0
 40
0.0248199781140265
 50
85.1177738997004951
 51
140.5754089465565073
  0
ARC
  5
1640C
  8
0
 10
3724.9728277510362204
 20
135.1148156471284949
 30
0.0
 40
0.4751795452839066
 50
299.3029309683694805
 51
315.3147533707426078
  0
ARC
  5
1640D
  8
0
 10
3724.5644921440530197
 20
134.3728578689396898
 30
0.0
 40
0.3716556184196865
 50
62.3571980949891866
 51
74.4525791482368362
  0
ARC
  5
1640E
  8
0
 10
3724.6657044830390078
 20
134.7556777210735106
 30
0.0
 40
0.0248148390443571
 50
179.3339412037628904
 51
266.3139823786586931
  0
ARC
  5
1640F
  8
0
 10
3724.5650362157389281
 20
134.7561405153844873
 30
0.0
 40
0.0758553052825424
 50
359.8683229868535136
 51
72.6082482731841452
  0
ARC
  5
16410
  8
0
 10
3724.5706249990180368
 20
134.7748881327590027
 30
0.0
 40
0.0562949090227145
 50
72.3329950113871121
 51
154.8564116257010141
  0
ARC
  5
16411
  8
0
 10
3724.4936946508869369
 20
134.8072962593743966
 30
0.0
 40
0.0273218873737392
 50
295.1223231659092789
 51
341.8981987119639143
  0
ARC
  5
16412
  8
0
 10
3724.4521855398520529
 20
134.8851866498050072
 30
0.0
 40
0.1155550995003031
 50
245.8656840865355093
 51
297.3610508174534743
  0
ARC
  5
16413
  8
0
 10
3724.4136757018950448
 20
134.8048281310205994
 30
0.0
 40
0.026573560041531
 50
175.0693390893044921
 51
250.8026501375516091
  0
ARC
  5
16414
  8
0
 10
3724.3620901385911566
 20
134.8109848870433893
 30
0.0
 40
0.0254072317600829
 50
351.2323805634899827
 51
59.7745372292266879
  0
ARC
  5
16415
  8
0
 10
3724.5075948933608743
 20
135.0133677497192934
 30
0.0
 40
0.2239822781630314
 50
195.6113645002043882
 51
233.6637464093753067
  0
ARC
  5
16416
  8
0
 10
3724.8084841099657751
 20
135.1146315487704044
 30
0.0
 40
0.5412758853697202
 50
162.6359051481888969
 51
197.3640948518111031
  0
LINE
  5
16417
  8
0
 10
3728.1512004787978185
 20
136.1786315462703101
 30
0.0
 11
3728.0637498927990237
 21
136.1786315462703953
 31
0.0
  0
ARC
  5
16418
  8
0
 10
3728.0602066312608258
 20
136.2035057024878881
 30
0.0
 40
0.025125253229873
 50
192.5842326486124989
 51
278.1071000311503099
  0
ARC
  5
16419
  8
0
 10
3727.9234217117359549
 20
136.1556302028077994
 30
0.0
 40
0.1200038026873888
 50
20.6913326798056403
 51
166.0978787501948943
  0
ARC
  5
1641A
  8
0
 10
3727.7809958475240819
 20
136.1875577158515114
 30
0.0
 40
0.0261212581024244
 50
262.9930807743846231
 51
353.1954471007078951
  0
ARC
  5
1641B
  8
0
 10
3727.7502885808989959
 20
153.5564139267603139
 30
0.0
 40
17.3948041511413294
 50
269.9093508750971182
 51
270.0906491249028818
  0
ARC
  5
1641C
  8
0
 10
3727.7198150221302058
 20
136.1364300768393036
 30
0.0
 40
0.0253738666937951
 50
83.3172427386739969
 51
160.5079228389577111
  0
ARC
  5
1641D
  8
0
 10
3727.2727917241581963
 20
136.3802469856508139
 30
0.0
 40
0.4841554001516926
 50
302.9961861627610915
 51
330.9151212060996272
  0
ARC
  5
1641E
  8
0
 10
3726.9499867610470574
 20
136.9586097292765885
 30
0.0
 40
1.14588019769577
 50
278.8830100530176992
 51
300.7841726668272031
  0
ARC
  5
1641F
  8
0
 10
3726.5649395585351158
 20
139.4041468915121982
 30
0.0
 40
3.6215439244048442
 50
270.8889433320798048
 51
278.9272338741653243
  0
ARC
  5
16420
  8
0
 10
3726.6713682458821495
 20
134.4356033453136092
 30
0.0
 40
1.348371884591681
 50
92.1354368446449996
 51
102.6844000000728983
  0
ARC
  5
16421
  8
0
 10
3726.4323721988489524
 20
135.4635669475545114
 30
0.0
 40
0.2931119928946719
 50
101.2294582267565062
 51
140.5673636073057082
  0
ARC
  5
16422
  8
0
 10
3726.1809133425190339
 20
135.6663742013656986
 30
0.0
 40
0.030082701839171
 50
212.0146507134593037
 51
326.4374255525619901
  0
ARC
  5
16423
  8
0
 10
3726.1280667233791064
 20
135.6313391661171011
 30
0.0
 40
0.0333428421229624
 50
34.9212473003993935
 51
86.8473716318611508
  0
LINE
  5
16424
  8
0
 10
3726.1299004457978299
 20
135.6646315463704013
 30
0.0
 11
3725.9783345853979881
 21
135.6646315463704013
 31
0.0
  0
ARC
  5
16425
  8
0
 10
3725.9796329444211551
 20
135.6329347344762937
 30
0.0
 40
0.0317233922070987
 50
92.3456229068809051
 51
162.4990476714910983
  0
ARC
  5
16426
  8
0
 10
3697.6909367137682239
 20
143.2882623463723917
 30
0.0
 40
29.2745208599603615
 50
344.7972820332337847
 51
344.8601762566726165
  0
ARC
  5
16427
  8
0
 10
3725.9152389596729336
 20
135.6153755416333127
 30
0.0
 40
0.0260254029871671
 50
267.8183176539067176
 51
351.3461673634648719
  0
ARC
  5
16428
  8
0
 10
3725.9206151517842045
 20
135.4075963425559053
 30
0.0
 40
0.1818841338043679
 50
92.006074398957594
 51
137.8235848784696884
  0
ARC
  5
16429
  8
0
 10
3726.0481455618428299
 20
135.3137676375573903
 30
0.0
 40
0.3397738012732762
 50
140.538051538972212
 51
171.390497587905088
  0
LINE
  5
1642A
  8
0
 10
3725.7122004787988772
 20
135.3546315462704115
 30
0.0
 11
3725.6942004787988481
 21
135.3546315462704115
 31
0.0
  0
ARC
  5
1642B
  8
0
 10
3725.6842004787990845
 20
135.3546315462704115
 30
0.0
 40
0.009999999999998
 50
359.9999999999789111
 51
90.0
  0
LINE
  5
1642C
  8
0
 10
3725.6842004787990845
 20
135.3646315462704024
 30
0.0
 11
3725.6564466918971448
 21
135.3646315462704024
 31
0.0
  0
ARC
  5
1642D
  8
0
 10
3725.6564466918971448
 20
135.4246316101113052
 30
0.0
 40
0.0600000638409428
 50
193.0019126528092954
 51
270.0
  0
ARC
  5
1642E
  8
0
 10
3725.5649953997858574
 20
135.4035152001490019
 30
0.0
 40
0.0338574963155072
 50
13.0019126528093505
 51
68.7549625132594997
  0
ARC
  5
1642F
  8
0
 10
3725.5525208389990439
 20
135.3714286934541065
 30
0.0
 40
0.0682836285220498
 50
68.7549625132594997
 51
92.7871640838150284
  0
LINE
  5
16430
  8
0
 10
3725.5492004787979567
 20
135.439631546270391
 30
0.0
 11
3725.3319560171989906
 21
135.439631546270391
 31
0.0
  0
ARC
  5
16431
  8
0
 10
3725.3298436424797728
 20
135.4643614711920065
 30
0.0
 40
0.0248199781140265
 50
219.4245910534434074
 51
274.8822261002994765
  0
ARC
  5
16432
  8
0
 10
3724.9728277510362204
 20
135.1144474504123139
 30
0.0
 40
0.4751795452839066
 50
44.6852466292573567
 51
118.6038926552953967
  0
ARC
  5
16433
  8
0
 10
3724.5627765387907857
 20
135.8614051949438135
 30
0.0
 40
0.3769326040692996
 50
285.5949467505711254
 51
298.9683281657408997
  0
ARC
  5
16434
  8
0
 10
3724.6657044830390078
 20
135.4735853764672129
 30
0.0
 40
0.0248148390443571
 50
93.6860176213412217
 51
180.6660587962354043
  0
ARC
  5
16435
  8
0
 10
3724.5650362157389281
 20
135.473122582156293
 30
0.0
 40
0.0758553052825424
 50
287.3917517268158122
 51
0.1316770131465328
  0
ARC
  5
16436
  8
0
 10
3724.5706250266280222
 20
135.454375498770986
 30
0.0
 40
0.056295409448367
 50
205.1461152128262881
 51
287.6668132766349117
  0
ARC
  5
16437
  8
0
 10
3724.4936946508869369
 20
135.4219668381664121
 30
0.0
 40
0.0273218873737193
 50
18.097551891620089
 51
64.8776768340941175
  0
ARC
  5
16438
  8
0
 10
3724.4521855398520529
 20
135.3440764477356879
 30
0.0
 40
0.1155550995003031
 50
62.6389491825465115
 51
114.1343159134644054
  0
ARC
  5
16439
  8
0
 10
3724.4136757018950448
 20
135.4244349665202094
 30
0.0
 40
0.026573560041531
 50
109.1973498624483057
 51
184.9306609106955079
  0
ARC
  5
1643A
  8
0
 10
3724.3620901385911566
 20
135.4182782104973057
 30
0.0
 40
0.0254072317600821
 50
300.2254627707740724
 51
8.7676194365115698
  0
ARC
  5
1643B
  8
0
 10
3724.518938850145787
 20
135.2080586970907916
 30
0.0
 40
0.2370592906058086
 50
127.4226767391312052
 51
163.3022123512756991
  0
ARC
  5
1643C
  8
0
 10
3728.7869142942249709
 20
137.7183747364813087
 30
0.0
 40
0.4777686391005449
 50
131.8863209588687084
 51
170.5808661311648962
  0
ARC
  5
1643D
  8
0
 10
3728.2627303318031409
 20
137.8025124391552936
 30
0.0
 40
0.0531904520148524
 50
263.845243163809414
 51
353.5791950546674229
  0
LINE
  5
1643E
  8
0
 10
3728.2570275547991514
 20
137.7496285803703984
 30
0.0
 11
3728.2297049873991455
 21
137.7496227485704026
 31
0.0
  0
ARC
  5
1643F
  8
0
 10
3728.2294355015510519
 20
137.6898988659081908
 30
0.0
 40
0.0597244906455047
 50
89.7414719834228123
 51
178.834417902467294
  0
ARC
  5
16440
  8
0
 10
6446.261505975559885
 20
103.6471512825122971
 30
0.0
 40
2718.3049737025180548
 50
179.2824107735393113
 51
179.3142929017182041
  0
ARC
  5
16441
  8
0
 10
3728.6725447579151478
 20
137.7586319149228018
 30
0.0
 40
0.3759812973070064
 50
90.2048550938159792
 51
122.9710983669492066
  0
LINE
  5
16442
  8
0
 10
3728.0637498927990237
 20
134.0506315512704134
 30
0.0
 11
3728.0637498927990237
 21
136.1786315462703953
 31
0.0
  0
LINE
  5
16443
  8
0
 10
3727.7778093359988816
 20
134.0676315512704093
 30
0.0
 11
3727.7778093359988816
 21
136.1616315462703994
 31
0.0
  0
ARC
  5
16444
  8
0
 10
3726.1126828722399296
 20
134.5976090692016953
 30
0.0
 40
0.0330241862361165
 50
273.046374366556222
 51
321.2360216111350155
  0
ARC
  5
16445
  8
0
 10
3726.1206464365791362
 20
134.5912144381304074
 30
0.0
 40
0.0228109759907352
 50
321.2360216111350155
 51
344.7713198147729941
  0
ARC
  5
16446
  8
0
 10
3725.5806065939377731
 20
134.7046192142697123
 30
0.0
 40
0.5745916273625343
 50
348.0069046815806928
 51
0.0924443781946498
  0
ARC
  5
16447
  8
0
 10
3723.6397480821128738
 20
134.727478312938814
 30
0.0
 40
2.515545001304111
 50
359.5004549493464197
 51
1.5332662543821269
  0
ARC
  5
16448
  8
0
 10
3725.5989871290048541
 20
134.780928027660309
 30
0.0
 40
0.5555781832861005
 50
1.4294644186899821
 51
11.8844678422221097
  0
ARC
  5
16449
  8
0
 10
3724.2317449645288434
 20
135.1146315920314862
 30
0.0
 40
1.9234526123067861
 50
353.4536063680897087
 51
6.546359104385143
  0
ARC
  5
1644A
  8
0
 10
3725.5697949012960635
 20
135.4546760436134036
 30
0.0
 40
0.5854509053034758
 50
348.0965213559397853
 51
0.7391984982715171
  0
ARC
  5
1644B
  8
0
 10
3724.2239697897098267
 20
135.4889251525920031
 30
0.0
 40
1.9314118013710639
 50
359.2080271647374161
 51
2.472106297123549
  0
ARC
  5
1644C
  8
0
 10
3725.1757957248178172
 20
135.4601683365173983
 30
0.0
 40
0.9841892816772441
 50
6.5381470624279157
 51
10.7676101612703796
  0
ARC
  5
1644D
  8
0
 10
3726.113174887031164
 20
135.6332694903763922
 30
0.0
 40
0.0313874831969739
 50
20.0696184457595592
 51
87.6937998265798484
  0
ARC
  5
1644E
  8
0
 10
3725.9916942059580833
 20
134.5976090692016953
 30
0.0
 40
0.0330241862361165
 50
218.7639783888648992
 51
266.953625633443778
  0
ARC
  5
1644F
  8
0
 10
3725.9837306416188767
 20
134.5912144381304074
 30
0.0
 40
0.0228109759907352
 50
195.2286801852270059
 51
218.7639783888648992
  0
ARC
  5
16450
  8
0
 10
3726.523770484257966
 20
134.7046192142697123
 30
0.0
 40
0.5745916273625343
 50
179.9075556218037093
 51
191.9930953184193925
  0
ARC
  5
16451
  8
0
 10
3728.4646289960851391
 20
134.727478312938814
 30
0.0
 40
2.515545001304111
 50
178.4667337456178018
 51
180.4995450506534951
  0
ARC
  5
16452
  8
0
 10
3726.5053899491917946
 20
134.780928027660309
 30
0.0
 40
0.5555781832861005
 50
168.1155321577778921
 51
178.570535581309997
  0
ARC
  5
16453
  8
0
 10
3727.8726321136678052
 20
135.1146315920314862
 30
0.0
 40
1.9234526123067861
 50
173.4536408956147966
 51
186.5463936319102913
  0
ARC
  5
16454
  8
0
 10
3726.5345821769019494
 20
135.4546760436134036
 30
0.0
 40
0.5854509053034758
 50
179.2608015017283947
 51
191.903478644060101
  0
ARC
  5
16455
  8
0
 10
3727.8804072884881862
 20
135.4889251525920031
 30
0.0
 40
1.9314118013710639
 50
177.5278937028764119
 51
180.7919728352626123
  0
ARC
  5
16456
  8
0
 10
3726.9285813533788314
 20
135.4601683365173983
 30
0.0
 40
0.9841892816772441
 50
169.2323898387296026
 51
173.4618529375721039
  0
ARC
  5
16457
  8
0
 10
3725.9912021911659394
 20
135.6332694903763922
 30
0.0
 40
0.0313874831969739
 50
92.3062001734201374
 51
159.9303815542403981
  0
ARC
  5
16458
  8
0
 10
3726.1123467443981099
 20
135.3161780508237939
 30
0.0
 40
0.0351200694056176
 50
30.3410869277561304
 51
86.5863887083299346
  0
LINE
  5
16459
  8
0
 10
3726.1144379167990337
 20
135.3512358070703954
 30
0.0
 11
3725.9899391608751102
 21
135.3512358070703954
 31
0.0
  0
ARC
  5
1645A
  8
0
 10
3725.990012012562147
 20
135.3194669775863872
 30
0.0
 40
0.0317689130149375
 50
90.1313893816655991
 51
152.9411359289271104
  0
ARC
  5
1645B
  8
0
 10
3726.1108126839671968
 20
134.9155858657036049
 30
0.0
 40
0.0377331223006844
 50
275.5132310586939752
 51
327.5563762571385951
  0
LINE
  5
1645C
  8
0
 10
3726.1144379167990337
 20
134.8780272953704014
 30
0.0
 11
3725.9899391613989792
 21
134.8780272957704085
 31
0.0
  0
ARC
  5
1645D
  8
0
 10
3725.9901112213619854
 20
134.9099584762080042
 30
0.0
 40
0.0319316440035874
 50
207.2391270259062992
 51
269.6912668382699962
  0
LINE
  5
1645E
  8
0
 10
3725.5979848763990958
 20
135.411132580904507
 30
0.0
 11
3725.5979848763990958
 21
134.8181305166361881
 31
0.0
  0
LINE
  5
1645F
  8
0
 10
3725.3319560171989906
 20
134.7896315512703893
 30
0.0
 11
3725.3319560171989906
 21
135.439631546270391
 31
0.0
  0
LINE
  5
16460
  8
0
 10
3724.6408913206978468
 20
135.4729482518424106
 30
0.0
 11
3724.6408913206978468
 21
134.755966185070406
 31
0.0
  0
LINE
  5
16461
  8
0
 10
3724.3872004787990591
 20
134.8148576432164987
 30
0.0
 11
3724.3872004787990591
 21
135.4144054543243101
 31
0.0
  0
LINE
  5
16462
  8
0
 10
3724.5196642677829004
 20
134.7988071765066991
 30
0.0
 11
3724.5196648973119409
 21
135.4304539949490902
 31
0.0
  0
LINE
  5
16463
  8
0
 10
3727.7227678257991101
 20
136.1616315462703994
 30
0.0
 11
3727.7227678257991101
 21
134.0676315512704093
 31
0.0
  0
LINE
  5
16464
  8
0
 10
3728.3155871401991135
 20
137.7965641627845912
 30
0.0
 11
3728.3155871401991135
 21
132.4326959688561089
 31
0.0
  0
ARC
  5
16465
  8
0
 10
3725.4368160601370619
 20
134.6420232430837984
 30
0.0
 40
0.2714239808983177
 50
184.3228163417321923
 51
250.8577823943888916
  0
ARC
  5
16466
  8
0
 10
3725.1426078684949061
 20
134.3856576820708995
 30
0.0
 40
0.2052044521999323
 50
304.2792739745511881
 51
359.9858374995002919
  0
ARC
  5
16467
  8
0
 10
3725.2629913494488392
 20
134.2074301056204035
 30
0.0
 40
0.0099104361459681
 50
119.0137562084281058
 51
240.9862437915718942
  0
ARC
  5
16468
  8
0
 10
3725.2327442370278732
 20
134.1556355101606073
 30
0.0
 40
0.0500722112928511
 50
293.4773730728654755
 51
59.4644176901131587
  0
ARC
  5
16469
  8
0
 10
3725.2608881497080802
 20
134.0843908673257943
 30
0.0
 40
0.0266110646412321
 50
107.9378210660152035
 51
189.3776048989739991
  0
LINE
  5
1646A
  8
0
 10
3725.2346327173258942
 20
134.0800548516704112
 30
0.0
 11
3725.3412072768260259
 21
132.5723109450703987
 31
0.0
  0
ARC
  5
1646B
  8
0
 10
3725.3659518309109444
 20
132.5705256003606962
 30
0.0
 40
0.024808877698241
 50
175.8732024464403878
 51
256.8307381105847185
  0
ARC
  5
1646C
  8
0
 10
3725.3429348759209461
 20
132.499598868082586
 30
0.0
 40
0.0498898426083062
 50
329.9376696309465729
 51
69.6311434997889194
  0
ARC
  5
1646D
  8
0
 10
3725.4048953747487758
 20
132.4578341176215019
 30
0.0
 40
0.0251810217077557
 50
138.2339532052897937
 51
249.5270512746216127
  0
ARC
  5
1646E
  8
0
 10
3725.342810853851006
 20
132.3496155847815885
 30
0.0
 40
0.1000017349513421
 50
302.1737602397838032
 51
57.8077685789167504
  0
ARC
  5
1646F
  8
0
 10
3725.4047894128211738
 20
132.2414119234503005
 30
0.0
 40
0.0251235623116769
 50
110.3304143088091962
 51
221.9816506232452866
  0
ARC
  5
16470
  8
0
 10
3725.3428123143689845
 20
132.1996069591756111
 30
0.0
 40
0.0500000000558378
 50
287.0123759530411007
 51
29.9999999561620001
  0
ARC
  5
16471
  8
0
 10
3725.361548694540943
 20
132.1278753101150869
 30
0.0
 40
0.0242696747598339
 50
99.7437953493166702
 51
169.0687916014589973
  0
ARC
  5
16472
  8
0
 10
3725.1053228053337989
 20
132.2023302716656872
 30
0.0
 40
0.2426676054819544
 50
300.4919532173412904
 51
343.2705139617855252
  0
ARC
  5
16473
  8
0
 10
3725.239725868234018
 20
131.9687151283270907
 30
0.0
 40
0.0269751218220048
 50
114.6936755776650045
 51
183.8718286848861965
  0
LINE
  5
16474
  8
0
 10
3725.2128123144248093
 20
131.9668936402703991
 30
0.0
 11
3725.2127892713401707
 21
131.944288579670399
 31
0.0
  0
ARC
  5
16475
  8
0
 10
3725.1877706679238145
 20
131.9400568327228029
 30
0.0
 40
0.0253739669563321
 50
272.3578958387948887
 51
9.6003716393600929
  0
ARC
  5
16476
  8
0
 10
3725.2031363334299385
 20
131.8121068782268992
 30
0.0
 40
0.1035922457530281
 50
97.9466588285786344
 51
164.7663617883505083
  0
ARC
  5
16477
  8
0
 10
3725.0734937314218769
 20
131.850271805420391
 30
0.0
 40
0.031643635628618
 50
272.1095871811829738
 51
339.763368322742906
  0
LINE
  5
16478
  8
0
 10
3725.0746585628780849
 20
131.818649616320414
 30
0.0
 11
3724.8677401068262043
 21
131.818649616320414
 31
0.0
  0
ARC
  5
16479
  8
0
 10
3724.5088012802139019
 20
134.6420220790814142
 30
0.0
 40
0.2714239808983177
 50
289.1422176056111084
 51
355.6771836582677793
  0
ARC
  5
1647A
  8
0
 10
3724.8030094718569671
 20
134.3856565180684868
 30
0.0
 40
0.2052044521999323
 50
180.0141625004997081
 51
235.7207260254486982
  0
ARC
  5
1647B
  8
0
 10
3724.6826259909030341
 20
134.2074289416179909
 30
0.0
 40
0.0099104361459668
 50
299.0276279081464281
 51
60.9862437915774578
  0
ARC
  5
1647C
  8
0
 10
3724.7128730475778866
 20
134.1556343070901107
 30
0.0
 40
0.0500721532481934
 50
120.5327600844009055
 51
246.519324551355794
  0
ARC
  5
1647D
  8
0
 10
3724.6847285809631103
 20
134.0843895852781031
 30
0.0
 40
0.0266116469403454
 50
350.6228597457538854
 51
72.0672692480347337
  0
LINE
  5
1647E
  8
0
 10
3724.7109846230259791
 20
134.0800536876679985
 30
0.0
 11
3724.6044100635258474
 21
132.572309781067986
 31
0.0
  0
ARC
  5
1647F
  8
0
 10
3724.5796655094400194
 20
132.570524436358312
 30
0.0
 40
0.024808877698242
 50
283.1810561382681044
 51
4.1267975535530246
  0
ARC
  5
16480
  8
0
 10
3724.6026814762390131
 20
132.4995976152092112
 30
0.0
 40
0.0498889428308066
 50
110.3619381337254026
 51
210.0628105540970978
  0
ARC
  5
16481
  8
0
 10
3724.5407219656030975
 20
132.4578329536190893
 30
0.0
 40
0.0251810217077544
 50
290.4805196658340947
 51
41.7660467947114213
  0
ARC
  5
16482
  8
0
 10
3724.6028064998217815
 20
132.3496136152207896
 30
0.0
 40
0.1000017482037574
 50
122.1901252956089934
 51
237.8241085432503041
  0
ARC
  5
16483
  8
0
 10
3724.54082792752979
 20
132.2414107594478878
 30
0.0
 40
0.0251235623116764
 50
318.0183493767361256
 51
69.6772275994845103
  0
ARC
  5
16484
  8
0
 10
3724.6028050259828888
 20
132.1996057951731984
 30
0.0
 40
0.0500000000558378
 50
150.0000000438380141
 51
252.9876240469588993
  0
ARC
  5
16485
  8
0
 10
3724.5840686458100208
 20
132.1278741461127026
 30
0.0
 40
0.0242696747598339
 50
10.9312083985409494
 51
80.256204650683344
  0
ARC
  5
16486
  8
0
 10
3724.8402945350171649
 20
132.2023291076633029
 30
0.0
 40
0.2426676054819584
 50
196.7294860382129116
 51
239.5075051146174872
  0
ARC
  5
16487
  8
0
 10
3724.7058908040157803
 20
131.9687138048803945
 30
0.0
 40
0.0269757776338044
 50
356.1286050169177884
 51
65.31002441819561
  0
LINE
  5
16488
  8
0
 10
3724.7328050259261545
 20
131.9668924762679865
 30
0.0
 11
3724.7328280690107931
 21
131.9442874156679864
 31
0.0
  0
ARC
  5
16489
  8
0
 10
3724.7578466724271493
 20
131.9400556687203903
 30
0.0
 40
0.0253739669563338
 50
170.3996283606398947
 51
267.5790600435826718
  0
ARC
  5
1648A
  8
0
 10
3724.7424881885849572
 20
131.8121101646927968
 30
0.0
 40
0.1035841470778403
 50
15.2323067844638
 51
82.0723058044490443
  0
ARC
  5
1648B
  8
0
 10
3724.8685935610169508
 20
131.8455197801812062
 30
0.0
 40
0.0268837142144889
 50
193.321949709987507
 51
268.1807744236801909
  0
LINE
  5
1648C
  8
0
 10
3724.5978083793002043
 20
134.3856069591703886
 30
0.0
 11
3725.3478123144259371
 21
134.3856069591703886
 31
0.0
  0
LINE
  5
1648D
  8
0
 10
3724.6874348447540797
 20
134.1987633966703868
 30
0.0
 11
3725.2581845937261278
 21
134.1987633966703868
 31
0.0
  0
LINE
  5
1648E
  8
0
 10
3724.692922311709026
 20
134.1097084029703979
 30
0.0
 11
3725.2526923489399451
 21
134.1097084029703979
 31
0.0
  0
LINE
  5
1648F
  8
0
 10
3724.5853226520339376
 20
132.5463691646704092
 30
0.0
 11
3725.3602996607628484
 21
132.5463691646704092
 31
0.0
  0
LINE
  5
16490
  8
0
 10
3724.5495325254942145
 20
132.4342435939703932
 30
0.0
 11
3725.3960879319811283
 21
132.4342435939703932
 31
0.0
  0
LINE
  5
16491
  8
0
 10
3724.5495535515401571
 20
132.2649704043703878
 30
0.0
 11
3725.3960606465871024
 21
132.2649704043703878
 31
0.0
  0
LINE
  5
16492
  8
0
 10
3724.5881723091251843
 20
132.1517948800704119
 30
0.0
 11
3725.3574412274251699
 21
132.1517948800704119
 31
0.0
  0
LINE
  5
16493
  8
0
 10
3724.7567748557248706
 20
131.9147043490692113
 30
0.0
 11
3725.188814589229878
 21
131.9147043490692113
 31
0.0
  0
LINE
  5
16494
  8
0
 10
3724.7171588052588049
 20
131.9932234912704132
 30
0.0
 11
3725.2284565582258438
 21
131.9932234911703972
 31
0.0
  0
ARC
  5
16495
  8
0
 10
3725.2455368048122182
 20
134.6312720527623128
 30
0.0
 40
0.0799713920309445
 50
120.1304907200212
 51
186.9730892602368044
  0
ARC
  5
16496
  8
0
 10
3724.6988507060978009
 20
134.6304899833318984
 30
0.0
 40
0.0810952166991558
 50
353.6802519066495165
 51
61.9983105622323265
  0
LINE
  5
16497
  8
0
 10
3728.6712004787991646
 20
138.1325954807163043
 30
0.0
 11
3728.6712004787991646
 21
132.0966284030243969
 31
0.0
  0
ARC
  5
16498
  8
0
 10
3728.6732706718571535
 20
132.7092457584705016
 30
0.0
 40
0.6106055364948101
 50
266.6020939000056273
 51
269.8057443877901846
  0
ARC
  5
16499
  8
0
 10
3728.6097585315619654
 20
131.5590338985346079
 30
0.0
 40
0.5413696387230557
 50
87.1071917599970078
 51
88.3670723831492353
  0
ARC
  5
1649A
  8
0
 10
3728.6241470276841028
 20
132.0807613522561041
 30
0.0
 40
0.0194500771253662
 50
86.9395511557429188
 51
98.7134530952589841
  0
LINE
  5
1649B
  8
0
 10
3728.6212004787980732
 20
132.0999869432704088
 30
0.0
 11
3728.6212004787980732
 21
132.0973549288704021
 31
0.0
  0
ENDSEC
  0
EOF
