  0
SECTION
  2
HEADER
  9
$ACADVER
  1
AC1009
  9
$INSBASE
 10
3726.73491497101395
 20
136.8753472016090029
 30
0.0
  9
$EXTMIN
 10
3723.4934580385470326
 20
132.4609764410984099
 30
-0.0000000349181948
  9
$EXTMAX
 10
3730.0265960181568516
 20
136.8882590961011942
 30
0.0000000814935746
  9
$LIMMIN
 10
0.0
 20
0.0
  9
$LIMMAX
 10
11.6929133858000007
 20
8.2677165353999982
  9
$ORTHOMODE
 70
     0
  9
$REGENMODE
 70
     1
  9
$FILLMODE
 70
     1
  9
$QTEXTMODE
 70
     0
  9
$MIRRTEXT
 70
     0
  9
$DRAGMODE
 70
     2
  9
$LTSCALE
 40
0.6431102362
  9
$OSMODE
 70
  4095
  9
$ATTMODE
 70
     1
  9
$TEXTSIZE
 40
0.2
  9
$TRACEWID
 40
0.05
  9
$TEXTSTYLE
  7
STANDARD
  9
$CLAYER
  8
0
  9
$CELTYPE
  6
BYLAYER
  9
$CECOLOR
 62
   256
  9
$DIMSCALE
 40
1.0
  9
$DIMASZ
 40
0.1875
  9
$DIMEXO
 40
0.0625
  9
$DIMDLI
 40
0.4443307087
  9
$DIMRND
 40
0.0
  9
$DIMDLE
 40
0.0
  9
$DIMEXE
 40
0.125
  9
$DIMTP
 40
0.01
  9
$DIMTM
 40
0.01
  9
$DIMTXT
 40
2.0
  9
$DIMCEN
 40
0.1052362205
  9
$DIMTSZ
 40
0.0
  9
$DIMTOL
 70
     1
  9
$DIMLIM
 70
     0
  9
$DIMTIH
 70
     1
  9
$DIMTOH
 70
     1
  9
$DIMSE1
 70
     0
  9
$DIMSE2
 70
     0
  9
$DIMTAD
 70
     0
  9
$DIMZIN
 70
     0
  9
$DIMBLK
  1

  9
$DIMASO
 70
     1
  9
$DIMSHO
 70
     1
  9
$DIMPOST
  1
\X
  9
$DIMAPOST
  1

  9
$DIMALT
 70
     1
  9
$DIMALTD
 70
     2
  9
$DIMALTF
 40
25.3999999999999986
  9
$DIMLFAC
 40
1.0
  9
$DIMTOFL
 70
     0
  9
$DIMTVP
 40
0.0
  9
$DIMTIX
 70
     0
  9
$DIMSOXD
 70
     0
  9
$DIMSAH
 70
     0
  9
$DIMBLK1
  1

  9
$DIMBLK2
  1

  9
$DIMSTYLE
  2
STANDARD
  9
$DIMCLRD
 70
     0
  9
$DIMCLRE
 70
     0
  9
$DIMCLRT
 70
     0
  9
$DIMTFAC
 40
1.0
  9
$DIMGAP
 40
0.09
  9
$LUNITS
 70
     2
  9
$LUPREC
 70
     4
  9
$SKETCHINC
 40
0.1
  9
$FILLETRAD
 40
0.0
  9
$AUNITS
 70
     0
  9
$AUPREC
 70
     0
  9
$MENU
  1
.
  9
$ELEVATION
 40
0.0
  9
$PELEVATION
 40
0.0
  9
$THICKNESS
 40
0.0
  9
$LIMCHECK
 70
     0
  9
$BLIPMODE
 70
     0
  9
$CHAMFERA
 40
0.0
  9
$CHAMFERB
 40
0.0
  9
$SKPOLY
 70
     0
  9
$TDCREATE
 40
2458060.468368056230247
  9
$TDUPDATE
 40
2459647.8688310189172626
  9
$TDINDWG
 40
0.3427153935
  9
$TDUSRTIMER
 40
0.3427153935
  9
$USRTIMER
 70
     1
  9
$ANGBASE
 50
0.0
  9
$ANGDIR
 70
     0
  9
$PDMODE
 70
     0
  9
$PDSIZE
 40
0.3125
  9
$PLINEWID
 40
0.0
  9
$COORDS
 70
     1
  9
$SPLFRAME
 70
     0
  9
$SPLINETYPE
 70
     6
  9
$SPLINESEGS
 70
     8
  9
$ATTDIA
 70
     1
  9
$ATTREQ
 70
     1
  9
$HANDLING
 70
     1
  9
$HANDSEED
  5
16408
  9
$SURFTAB1
 70
     6
  9
$SURFTAB2
 70
     6
  9
$SURFTYPE
 70
     6
  9
$SURFU
 70
     6
  9
$SURFV
 70
     6
  9
$UCSNAME
  2

  9
$UCSORG
 10
0.0
 20
0.0
 30
0.0
  9
$UCSXDIR
 10
1.0
 20
0.0
 30
0.0
  9
$UCSYDIR
 10
0.0
 20
1.0
 30
0.0
  9
$PUCSNAME
  2

  9
$PUCSORG
 10
0.0
 20
0.0
 30
0.0
  9
$PUCSXDIR
 10
1.0
 20
0.0
 30
0.0
  9
$PUCSYDIR
 10
0.0
 20
1.0
 30
0.0
  9
$USERI1
 70
     0
  9
$USERI2
 70
     0
  9
$USERI3
 70
     0
  9
$USERI4
 70
     0
  9
$USERI5
 70
     0
  9
$USERR1
 40
0.0
  9
$USERR2
 40
0.0
  9
$USERR3
 40
0.0
  9
$USERR4
 40
0.0
  9
$USERR5
 40
0.0
  9
$WORLDVIEW
 70
     1
  9
$SHADEDGE
 70
     3
  9
$SHADEDIF
 70
    70
  9
$TILEMODE
 70
     1
  9
$MAXACTVP
 70
    64
  9
$PLIMCHECK
 70
     0
  9
$PEXTMIN
 10
1.0000000000000000E+20
 20
1.0000000000000000E+20
 30
1.0000000000000000E+20
  9
$PEXTMAX
 10
-1.0000000000000000E+20
 20
-1.0000000000000000E+20
 30
-1.0000000000000000E+20
  9
$PLIMMIN
 10
0.0
 20
0.0
  9
$PLIMMAX
 10
12.0
 20
9.0
  9
$UNITMODE
 70
     0
  9
$VISRETAIN
 70
     1
  9
$PLINEGEN
 70
     0
  9
$PSLTSCALE
 70
     1
  0
ENDSEC
  0
SECTION
  2
TABLES
  0
TABLE
  2
VPORT
 70
     1
  0
VPORT
  2
*ACTIVE
 70
     0
 10
0.0
 20
0.0
 11
1.0
 21
1.0
 12
-76.7840403544605579
 22
8.6793555718499391
 13
0.0
 23
0.0
 14
1.0
 24
1.0
 15
0.0
 25
0.0
 16
0.0
 26
0.0
 36
17.1152628219792007
 17
3803.5440673828129547
 27
125.9952621967499056
 37
0.0
 40
4.4623734025985788
 41
2.0410052910052912
 42
50.0
 43
0.0
 44
0.0
 50
0.0
 51
0.0
 71
     0
 72
   100
 73
     1
 74
     1
 75
     0
 76
     0
 77
     0
 78
     1
  0
ENDTAB
  0
TABLE
  2
LTYPE
 70
     2
  0
LTYPE
  2
CONTINUOUS
 70
     0
  3
Solid line
 72
    65
 73
     0
 40
0.0
  0
LTYPE
  2
PHANTOM2
 70
     0
  3
___ _ _ ___ _ _ ___ _ _ ___ _ _
 72
    65
 73
     6
 40
1.25
 49
0.625
 49
-0.125
 49
0.125
 49
-0.125
 49
0.125
 49
-0.125
  0
ENDTAB
  0
TABLE
  2
LAYER
 70
     2
  0
LAYER
  2
0
 70
     0
 62
   255
  6
CONTINUOUS
  0
LAYER
  2
DEFPOINTS
 70
     0
 62
     7
  6
CONTINUOUS
  0
ENDTAB
  0
TABLE
  2
STYLE
 70
     1
  0
STYLE
  2
STANDARD
 70
     0
 40
0.0
 41
0.8
 50
0.0
 71
     0
 42
0.2
  3
txt
  4

  0
ENDTAB
  0
TABLE
  2
VIEW
 70
     0
  0
ENDTAB
  0
TABLE
  2
UCS
 70
     0
  0
ENDTAB
  0
TABLE
  2
APPID
 70
     9
  0
APPID
  2
ACAD
 70
     0
  0
APPID
  2
ACAD_MLEADERVER
 70
     0
  0
APPID
  2
ACAD_EXEMPT_FROM_CAD_STANDARDS
 70
     0
  0
APPID
  2
ACAD_NAV_VCDISPLAY
 70
     0
  0
APPID
  2
ACAECLAYERSTANDARD
 70
     0
  0
APPID
  2
ACCMTRANSPARENCY
 70
     0
  0
APPID
  2
ACAD_DSTYLE_DIMJAG
 70
     0
  0
APPID
  2
ACAD_DSTYLE_DIMTALN
 70
     0
  0
APPID
  2
ACDBATTR
 70
     0
  0
ENDTAB
  0
TABLE
  2
DIMSTYLE
 70
     1
  0
DIMSTYLE
  2
STANDARD
 70
     0
  3

  4

  5

  6

  7

 40
1.0
 41
0.1875
 42
0.0625
 43
0.38
 44
0.125
 45
0.0
 46
0.0
 47
0.01
 48
0.01
140
0.15625
141
0.09
142
0.0
143
25.3999999999999986
144
1.0
145
0.0
146
1.0
147
0.09
 71
     1
 72
     0
 73
     1
 74
     1
 75
     0
 76
     0
 77
     0
 78
     4
170
     0
171
     2
172
     0
173
     0
174
     0
175
     0
176
     0
177
     0
178
     0
  0
ENDTAB
  0
ENDSEC
  0
SECTION
  2
BLOCKS
  0
BLOCK
  8
0
  2
$MODEL_SPACE
 70
     0
 10
0.0
 20
0.0
 30
0.0
  3
$MODEL_SPACE
  1

  0
ENDBLK
  5
21
  8
0
  0
BLOCK
 67
     1
  8
0
  2
$PAPER_SPACE
 70
     0
 10
0.0
 20
0.0
 30
0.0
  3
$PAPER_SPACE
  1

  0
ENDBLK
  5
1D
 67
     1
  8
0
  0
ENDSEC
  0
SECTION
  2
ENTITIES
  0
ATTDEF
  5
15A25
  8
DEFPOINTS
 10
3726.7313241280007787
 20
136.879230096280196
 30
0.0
 40
0.001
  1
K-T72769-4
  3

  2
MODELNUMBER
 70
     0
1001
ACDBATTR
1070
     0
1070
     1
  0
ATTDEF
  5
15A26
  8
DEFPOINTS
 10
3726.7313241280007787
 20
136.8775634296135877
 30
0.0
 40
0.001
  1
ARTIFACTS
  3

  2
TRADENAME
 70
     0
1001
ACDBATTR
1070
     0
1070
     1
  0
ATTDEF
  5
15A27
  8
DEFPOINTS
 10
3726.7313241280007787
 20
136.8758967629468941
 30
0.0
 40
0.001
  1
VALVE TRIM
  3

  2
PRODUCT
 70
     0
1001
ACDBATTR
1070
     0
1070
     1
  0
LINE
  5
16305
  8
0
 10
3723.7149161038228158
 20
136.8753472016090029
 30
0.0
 11
3729.7549138382069032
 21
136.8753472016090029
 31
0.0
  0
ARC
  5
16306
  8
0
 10
3729.3359514056869557
 20
136.8895275648671088
 30
0.0
 40
0.4192023408388642
 50
328.7531772529587784
 51
358.0614850745042759
  0
ARC
  5
16307
  8
0
 10
3729.3386596416748944
 20
136.9910610170352072
 30
0.0
 40
0.4777686391006003
 50
279.4191338688444262
 51
318.1136790411280231
  0
ARC
  5
16308
  8
0
 10
3729.422797344349874
 20
136.4668770546134908
 30
0.0
 40
0.0531904520148414
 50
96.4208049453337566
 51
186.1547568362059053
  0
LINE
  5
16309
  8
0
 10
3729.3699134855651209
 20
136.4611742776089898
 30
0.0
 11
3729.3699076537650399
 21
136.4338517102090123
 31
0.0
  0
ARC
  5
1630A
  8
0
 10
3729.3085466337488469
 20
136.4351791674469894
 30
0.0
 40
0.0613753771479461
 50
272.6634284183452905
 51
358.7606816957684259
  0
ARC
  5
1630B
  8
0
 10
3695.2731139607299156
 20
2854.0072435327938365
 30
0.0
 40
2717.8465293807921626
 50
270.6857030023393804
 51
270.7175905708940036
  0
LINE
  5
1630C
  8
0
 10
3727.7989134855652082
 20
136.3553472016089927
 30
0.0
 11
3725.6709134855650518
 21
136.3553472016089927
 31
0.0
  0
LINE
  5
1630D
  8
0
 10
3727.798913485563844
 20
136.3553472016089927
 30
0.0
 11
3727.7989134855652082
 21
136.2678966156090041
 31
0.0
  0
ARC
  5
1630E
  8
0
 10
3727.8237876417820189
 20
136.2643533540704084
 30
0.0
 40
0.025125253229873
 50
171.8928999688596093
 51
257.4157673513824989
  0
ARC
  5
1630F
  8
0
 10
3727.775912142101788
 20
136.1275684345465038
 30
0.0
 40
0.1200038026873888
 50
283.9021212498082036
 51
69.308667320205231
  0
ARC
  5
16310
  8
0
 10
3727.8078396551459264
 20
135.985142570335114
 30
0.0
 40
0.0261212581024244
 50
96.8045528992946913
 51
187.0069192256233066
  0
ARC
  5
16311
  8
0
 10
3745.1766958660550699
 20
135.9544353037090048
 30
0.0
 40
17.3948041511413294
 50
179.9093508751020067
 51
180.0906491248979933
  0
ARC
  5
16312
  8
0
 10
3727.7567120161338607
 20
135.9239617449397883
 30
0.0
 40
0.0253738666937951
 50
289.4920771610545103
 51
6.6827572613350359
  0
ARC
  5
16313
  8
0
 10
3728.0005289249447742
 20
135.4769384469688873
 30
0.0
 40
0.4841554001516926
 50
119.0848787938841014
 51
147.0038138372316041
  0
ARC
  5
16314
  8
0
 10
3728.6629873034789853
 20
135.123801486442602
 30
0.0
 40
1.233767836420451
 50
150.0045073336360133
 51
170.3283099465211023
  0
ARC
  5
16315
  8
0
 10
3731.0244288308058458
 20
134.7690862813450963
 30
0.0
 40
3.6215439244048442
 50
171.0727661258466981
 51
179.1110566679136014
  0
ARC
  5
16316
  8
0
 10
3726.055885284607939
 20
134.8755149686926984
 30
0.0
 40
1.348371884591681
 50
347.3155999999261212
 51
357.8645631553515045
  0
ARC
  5
16317
  8
0
 10
3727.0838488868489549
 20
134.6365189216593876
 30
0.0
 40
0.2931119928946719
 50
309.4326363926941781
 51
348.7705417732520914
  0
ARC
  5
16318
  8
0
 10
3727.286656140659943
 20
134.3850600653294123
 30
0.0
 40
0.030082701839171
 50
123.5625744474428984
 51
237.985349286538991
  0
ARC
  5
16319
  8
0
 10
3727.2516211054107771
 20
134.3322134461897122
 30
0.0
 40
0.0333428421229624
 50
3.152628368136698
 51
55.0787526996127497
  0
LINE
  5
1631A
  8
0
 10
3727.284913485665129
 20
134.3340471686090041
 30
0.0
 11
3727.284913485665129
 21
134.1824813082089918
 31
0.0
  0
ARC
  5
1631B
  8
0
 10
3727.2532166737710213
 20
134.1837796672309082
 30
0.0
 40
0.0317233922070987
 50
287.5009523285156092
 51
357.6543770931306767
  0
ARC
  5
1631C
  8
0
 10
3734.9085442856671762
 20
105.8950834365777069
 30
0.0
 40
29.2745208599603615
 50
105.1398237433243992
 51
105.2027179667564951
  0
ARC
  5
1631D
  8
0
 10
3727.235657480926875
 20
134.1193856824831983
 30
0.0
 40
0.0260254029871671
 50
98.6538326365463547
 51
182.1816823460964088
  0
ARC
  5
1631E
  8
0
 10
3727.0278782818500076
 20
134.1247618745942987
 30
0.0
 40
0.1818841338043679
 50
312.1764151215273273
 51
357.9939256010475788
  0
ARC
  5
1631F
  8
0
 10
3726.9340495768519759
 20
134.2522922846540894
 30
0.0
 40
0.3397738012732762
 50
278.6095024120982089
 51
309.4619484610303743
  0
LINE
  5
16320
  8
0
 10
3726.9849134855649027
 20
133.9163472016089997
 30
0.0
 11
3726.4849134855649027
 21
133.9163472016089997
 31
0.0
  0
LINE
  5
16321
  8
0
 10
3726.9749134855651391
 20
133.9163472016089997
 30
0.0
 11
3726.9749134855651391
 21
133.8983472016089991
 31
0.0
  0
LINE
  5
16322
  8
0
 10
3726.9749134855651391
 20
133.8983472016089991
 30
0.0
 11
3726.4949134855651209
 21
133.8983472016089991
 31
0.0
  0
ARC
  5
16323
  8
0
 10
3726.9749134855651391
 20
133.8883472016090082
 30
0.0
 40
0.009999999999998
 50
359.9999999999902229
 51
90.0000000000260485
  0
LINE
  5
16324
  8
0
 10
3726.9849134855649027
 20
133.8883472016090082
 30
0.0
 11
3726.9849134855649027
 21
133.8605934147076084
 31
0.0
  0
ARC
  5
16325
  8
0
 10
3727.0449135494059192
 20
133.8605934147076084
 30
0.0
 40
0.0600000638409428
 50
179.9999999999886029
 51
256.9980873472006238
  0
ARC
  5
16326
  8
0
 10
3727.0237971394431042
 20
133.7691421225962927
 30
0.0
 40
0.0338574963155072
 50
21.2450374867430405
 51
76.9980873472010217
  0
ARC
  5
16327
  8
0
 10
3726.9917106327488909
 20
133.7566675618097065
 30
0.0
 40
0.0682836285220498
 50
357.2128359161815752
 51
21.2450374867430405
  0
LINE
  5
16328
  8
0
 10
3727.0599134855651755
 20
133.7533472016089888
 30
0.0
 11
3727.0599134855651755
 21
133.5361027400089995
 31
0.0
  0
ARC
  5
16329
  8
0
 10
3727.0846434104860236
 20
133.533990365290407
 30
0.0
 40
0.0248199781140265
 50
175.1177738996923097
 51
230.5754089465440018
  0
ARC
  5
1632A
  8
0
 10
3726.7347293897068994
 20
133.1769744738458883
 30
0.0
 40
0.4751795452839066
 50
331.3961073447085255
 51
45.3147533707413999
  0
ARC
  5
1632B
  8
0
 10
3727.4816871342382001
 20
132.7669232616011925
 30
0.0
 40
0.3769326040692996
 50
151.0316718342529043
 51
164.4050532494279935
  0
ARC
  5
1632C
  8
0
 10
3727.0938673157620542
 20
132.8698512058491872
 30
0.0
 40
0.0248148390443571
 50
269.3339412037710758
 51
356.3139823786552256
  0
ARC
  5
1632D
  8
0
 10
3727.0934045214498838
 20
132.7691829385493065
 30
0.0
 40
0.0758553052825424
 50
89.8683229868421165
 51
162.6082482731823973
  0
ARC
  5
1632E
  8
0
 10
3727.0746613556011653
 20
132.7747719519915108
 30
0.0
 40
0.056299080769666
 50
162.3345930870164864
 51
244.8354134216972113
  0
ARC
  5
1632F
  8
0
 10
3727.0422487774608271
 20
132.6978413736970879
 30
0.0
 40
0.0273218873737287
 50
25.1223231659078685
 51
71.9334893167361713
  0
ARC
  5
16330
  8
0
 10
3726.9643583870301882
 20
132.6563322626622039
 30
0.0
 40
0.1155550995003031
 50
335.8656840865397157
 51
27.3610508174695504
  0
ARC
  5
16331
  8
0
 10
3727.044716905813857
 20
132.6178224247047126
 30
0.0
 40
0.026573560041531
 50
265.0693390893039805
 51
340.8026501375476869
  0
ARC
  5
16332
  8
0
 10
3727.0385601497919197
 20
132.5662368614015918
 30
0.0
 40
0.0254072317600829
 50
81.2323805634868137
 51
149.7745372292299919
  0
ARC
  5
16333
  8
0
 10
3726.8361772871157882
 20
132.7117416161719063
 30
0.0
 40
0.2239822781630314
 50
285.6113645002117778
 51
323.6637464093909102
  0
ARC
  5
16334
  8
0
 10
3726.7349134880651036
 20
133.0126308327764946
 30
0.0
 40
0.5412758853697202
 50
252.6359051481807114
 51
287.3640948518192886
  0
LINE
  5
16335
  8
0
 10
3725.6709134905649989
 20
136.3553472016089927
 30
0.0
 11
3725.6709134905649989
 21
136.2678966156090041
 31
0.0
  0
ARC
  5
16336
  8
0
 10
3725.646039334346824
 20
136.2643533540704084
 30
0.0
 40
0.025125253229873
 50
282.5842326486173874
 51
8.1071000311403996
  0
ARC
  5
16337
  8
0
 10
3725.6939148340270549
 20
136.1275684345465038
 30
0.0
 40
0.1200038026873888
 50
110.6913326797946979
 51
256.0978787501912848
  0
ARC
  5
16338
  8
0
 10
3725.6619873209838261
 20
135.985142570335114
 30
0.0
 40
0.0261212581024244
 50
352.9930807743750734
 51
83.1954471007053371
  0
ARC
  5
16339
  8
0
 10
3708.2931311100751373
 20
135.9544353037090048
 30
0.0
 40
17.3948041511413294
 50
359.9093508751020067
 51
0.0906491248980053
  0
ARC
  5
1633A
  8
0
 10
3725.7131149599958917
 20
135.9239617449397883
 30
0.0
 40
0.0253738666937951
 50
173.3172427386633956
 51
250.5079228389454897
  0
ARC
  5
1633B
  8
0
 10
3725.4692980511840688
 20
135.4769384469688873
 30
0.0
 40
0.4841554001516926
 50
32.9961861627683533
 51
60.9151212061158986
  0
ARC
  5
1633C
  8
0
 10
3724.8068396726512219
 20
135.123801486442602
 30
0.0
 40
1.233767836420451
 50
9.6716900534804697
 51
29.9954926663640293
  0
ARC
  5
1633D
  8
0
 10
3722.4453981453229972
 20
134.7690862813450963
 30
0.0
 40
3.6215439244048442
 50
0.8889433320864513
 51
8.9272338741532611
  0
ARC
  5
1633E
  8
0
 10
3727.413941691520904
 20
134.8755149686926984
 30
0.0
 40
1.348371884591681
 50
182.1354368446484955
 51
192.6844000000722872
  0
ARC
  5
1633F
  8
0
 10
3726.3859780892798881
 20
134.6365189216593876
 30
0.0
 40
0.2931119928946719
 50
191.2294582267477949
 51
230.5673636073047135
  0
ARC
  5
16340
  8
0
 10
3726.1831708354688999
 20
134.3850600653294123
 30
0.0
 40
0.030082701839171
 50
302.0146507134609806
 51
56.4374255525570518
  0
ARC
  5
16341
  8
0
 10
3726.2182058707180659
 20
134.3322134461897122
 30
0.0
 40
0.0333428421229624
 50
124.9212473003871935
 51
176.8473716318632967
  0
LINE
  5
16342
  8
0
 10
3726.1849134904641687
 20
134.3340471686090041
 30
0.0
 11
3726.1849134904641687
 21
134.1824813082089918
 31
0.0
  0
ARC
  5
16343
  8
0
 10
3726.2166103023591859
 20
134.1837796672309082
 30
0.0
 40
0.0317233922070987
 50
182.3456229068692949
 51
252.4990476714843908
  0
ARC
  5
16344
  8
0
 10
3718.5612826904621215
 20
105.8950834365777069
 30
0.0
 40
29.2745208599603615
 50
74.797282033243448
 51
74.8601762566755866
  0
ARC
  5
16345
  8
0
 10
3726.2341694952019679
 20
134.1193856824831983
 30
0.0
 40
0.0260254029871671
 50
357.8183176539035912
 51
81.3461673634536595
  0
ARC
  5
16346
  8
0
 10
3726.4419486942788353
 20
134.1247618745942987
 30
0.0
 40
0.1818841338043679
 50
182.0060743989523928
 51
227.8235848784715927
  0
ARC
  5
16347
  8
0
 10
3726.5357773992768671
 20
134.2522922846540894
 30
0.0
 40
0.3397738012732762
 50
230.5380515389695972
 51
261.3904975879017911
  0
LINE
  5
16348
  8
0
 10
3726.4949134905650681
 20
133.9163472016089997
 30
0.0
 11
3726.4949134905650681
 21
133.8983472016089991
 31
0.0
  0
ARC
  5
16349
  8
0
 10
3726.4949134905650681
 20
133.8883472016090082
 30
0.0
 40
0.009999999999998
 50
89.9999999999739515
 51
180.0000000000098055
  0
LINE
  5
1634A
  8
0
 10
3726.4849134905648498
 20
133.8883472016090082
 30
0.0
 11
3726.4849134905648498
 21
133.8605934147076084
 31
0.0
  0
ARC
  5
1634B
  8
0
 10
3726.4249134267238333
 20
133.8605934147076084
 30
0.0
 40
0.0600000638409428
 50
283.0019126527993762
 51
0.0000000000113991
  0
ARC
  5
1634C
  8
0
 10
3726.4460298366861934
 20
133.7691421225962927
 30
0.0
 40
0.0338574963155072
 50
103.0019126527990068
 51
158.7549625132569133
  0
ARC
  5
1634D
  8
0
 10
3726.4781163433808615
 20
133.7566675618097065
 30
0.0
 40
0.0682836285220498
 50
158.7549625132569133
 51
182.7871640838166911
  0
LINE
  5
1634E
  8
0
 10
3726.4099134905650317
 20
133.7533472016089888
 30
0.0
 11
3726.4099134905650317
 21
133.5361027400089995
 31
0.0
  0
ARC
  5
1634F
  8
0
 10
3726.3851835656428193
 20
133.533990365290407
 30
0.0
 40
0.0248199781140265
 50
309.4245910534560267
 51
4.8822261003076148
  0
ARC
  5
16350
  8
0
 10
3726.7350975864228531
 20
133.1769744738458883
 30
0.0
 40
0.4751795452839066
 50
134.6852466292585859
 51
208.6038926552915029
  0
ARC
  5
16351
  8
0
 10
3725.9881398418910976
 20
132.7669232616011925
 30
0.0
 40
0.3769326040692996
 50
15.5949467505719994
 51
28.9683281657485203
  0
ARC
  5
16352
  8
0
 10
3726.375959660368153
 20
132.8698512058491872
 30
0.0
 40
0.0248148390443571
 50
183.6860176213446891
 51
270.6660587962289242
  0
ARC
  5
16353
  8
0
 10
3726.3764224546780497
 20
132.7691829385493065
 30
0.0
 40
0.0758553052825424
 50
17.3917517268175885
 51
90.1316770131579261
  0
ARC
  5
16354
  8
0
 10
3726.3951656205272229
 20
132.7747719519915108
 30
0.0
 40
0.056299080769666
 50
295.1645865783028171
 51
17.6654069129834888
  0
ARC
  5
16355
  8
0
 10
3726.4275781986689253
 20
132.6978413736970879
 30
0.0
 40
0.0273218873737287
 50
108.0665106832638003
 51
154.8776768340921137
  0
ARC
  5
16356
  8
0
 10
3726.5054685890991095
 20
132.6563322626622039
 30
0.0
 40
0.1155550995003031
 50
152.6389491825304106
 51
204.1343159134588063
  0
ARC
  5
16357
  8
0
 10
3726.4251100703149859
 20
132.6178224247047126
 30
0.0
 40
0.026573560041531
 50
199.1973498624523131
 51
274.9306609106960195
  0
ARC
  5
16358
  8
0
 10
3726.4312668263378328
 20
132.5662368614015918
 30
0.0
 40
0.0254072317600821
 50
30.2254627707700116
 51
98.7676194365134563
  0
ARC
  5
16359
  8
0
 10
3726.6414863397440058
 20
132.7230855729561938
 30
0.0
 40
0.2370592906058086
 50
217.4226767391301962
 51
253.3022123512787971
  0
ARC
  5
1635A
  8
0
 10
3724.1311703003539151
 20
136.9910610170352072
 30
0.0
 40
0.4777686391005999
 50
221.8863209588720053
 51
260.5808661311555738
  0
ARC
  5
1635B
  8
0
 10
3724.0470325976798449
 20
136.4668770546134908
 30
0.0
 40
0.0531904520148406
 50
353.8452431637924747
 51
83.5791950546662434
  0
LINE
  5
1635C
  8
0
 10
3724.0999164564650528
 20
136.4611742776089898
 30
0.0
 11
3724.0999222882651338
 21
136.4338517102090123
 31
0.0
  0
ARC
  5
1635D
  8
0
 10
3724.157913779853061
 20
136.4318923661813017
 30
0.0
 40
0.0580245820801137
 50
178.0648979332200952
 51
270.5109919526865951
  0
ARC
  5
1635E
  8
0
 10
3758.2023937543222019
 20
2854.4656526983690128
 30
0.0
 40
2718.3049737025180548
 50
269.2824107735506232
 51
269.3142929017133724
  0
ARC
  5
1635F
  8
0
 10
3724.126587066924003
 20
136.8873548992667111
 30
0.0
 40
0.4118460472842724
 50
181.6707405874271046
 51
211.5145970851052937
  0
LINE
  5
16360
  8
0
 10
3727.7989134855652082
 20
136.2678966156090041
 30
0.0
 11
3725.6709134905649989
 21
136.2678966156090041
 31
0.0
  0
LINE
  5
16361
  8
0
 10
3727.7819134855649281
 20
135.9819560588090042
 30
0.0
 11
3725.6879134905648243
 21
135.9819560588090042
 31
0.0
  0
ARC
  5
16362
  8
0
 10
3727.2519359676339263
 20
134.316829595050109
 30
0.0
 40
0.0330241862361165
 50
3.0463743665457659
 51
51.2360216111238529
  0
ARC
  5
16363
  8
0
 10
3727.2583305987050153
 20
134.3247931593888893
 30
0.0
 40
0.0228109759907352
 50
51.2360216111451905
 51
74.7713198147793037
  0
ARC
  5
16364
  8
0
 10
3727.1449258225648009
 20
133.7847533167488905
 30
0.0
 40
0.5745916273625343
 50
78.0069046815783338
 51
90.092444378207702
  0
ARC
  5
16365
  8
0
 10
3727.1220667238972055
 20
131.8438948049229964
 30
0.0
 40
2.515545001304111
 50
89.5004549493577741
 51
91.5332662543932258
  0
ARC
  5
16366
  8
0
 10
3727.0686170091739768
 20
133.8031338518152893
 30
0.0
 40
0.5555781832861005
 50
91.4294644187016701
 51
101.8844678422260017
  0
ARC
  5
16367
  8
0
 10
3726.7349134448040786
 20
132.4358916873399039
 30
0.0
 40
1.9234526123067861
 50
83.4536063680834133
 51
96.546359104389694
  0
ARC
  5
16368
  8
0
 10
3726.3948689932221896
 20
133.7739416241057882
 30
0.0
 40
0.5854509053034758
 50
78.0965213559414053
 51
90.739198498274817
  0
ARC
  5
16369
  8
0
 10
3726.3606198842430786
 20
132.4281165125202051
 30
0.0
 40
1.9314118013710639
 50
89.2080271647487706
 51
92.4721062971350847
  0
ARC
  5
1636A
  8
0
 10
3726.3893767003178255
 20
133.3799424476289914
 30
0.0
 40
0.9841892816772441
 50
96.538147062420208
 51
100.7676101612611035
  0
ARC
  5
1636B
  8
0
 10
3726.216275546459201
 20
134.3173216098414002
 30
0.0
 40
0.0313874831969739
 50
110.0696184457700042
 51
177.6935820907623054
  0
ARC
  5
1636C
  8
0
 10
3727.2519359676339263
 20
134.1958409287678933
 30
0.0
 40
0.0330241862361165
 50
308.7639783888751026
 51
356.9536256334525888
  0
ARC
  5
1636D
  8
0
 10
3727.2583305987050153
 20
134.187877364429113
 30
0.0
 40
0.0228109759907352
 50
285.2286801852201847
 51
308.7639783888548095
  0
ARC
  5
1636E
  8
0
 10
3727.1449258225648009
 20
134.7279172070691118
 30
0.0
 40
0.5745916273625343
 50
269.9075556217923122
 51
281.9930953184216946
  0
ARC
  5
1636F
  8
0
 10
3727.1220667238972055
 20
136.6687757188950911
 30
0.0
 40
2.515545001304111
 50
268.4667337456068026
 51
270.4995450506423254
  0
ARC
  5
16370
  8
0
 10
3727.0686170091739768
 20
134.7095366720027982
 30
0.0
 40
0.5555781832861005
 50
258.1155321577738846
 51
268.5705355812983157
  0
ARC
  5
16371
  8
0
 10
3726.7349134448040786
 20
136.0767788364780984
 30
0.0
 40
1.9234526123067861
 50
263.453640895610306
 51
276.546393631916601
  0
ARC
  5
16372
  8
0
 10
3726.3948689932221896
 20
134.7387288997122994
 30
0.0
 40
0.5854509053034758
 50
269.2608015017252114
 51
281.9034786440586231
  0
ARC
  5
16373
  8
0
 10
3726.3606198842430786
 20
136.0845540112979108
 30
0.0
 40
1.9314118013710639
 50
267.5278937028649011
 51
270.7919728352512152
  0
ARC
  5
16374
  8
0
 10
3726.3893767003178255
 20
135.1327280761890961
 30
0.0
 40
0.9841892816772441
 50
259.2323898387389249
 51
263.4618529375798062
  0
ARC
  5
16375
  8
0
 10
3726.216275546459201
 20
134.1953489139766873
 30
0.0
 40
0.0313874831969739
 50
182.3064179092376094
 51
249.9303815542299958
  0
ARC
  5
16376
  8
0
 10
3726.5333669860110604
 20
134.3164934672082893
 30
0.0
 40
0.0351200694056176
 50
120.341086927758198
 51
176.5863887083347095
  0
LINE
  5
16377
  8
0
 10
3726.4983092297648
 20
134.3185846396090994
 30
0.0
 11
3726.4983092297648
 21
134.1940858836861139
 31
0.0
  0
ARC
  5
16378
  8
0
 10
3726.5300780592478986
 20
134.1941587353728096
 30
0.0
 40
0.0317689130149375
 50
180.131389381654202
 51
242.9411359289242114
  0
ARC
  5
16379
  8
0
 10
3726.9339591711318462
 20
134.3149594067776036
 30
0.0
 40
0.0377331223006844
 50
5.5132310587001738
 51
57.5563762571439028
  0
LINE
  5
1637A
  8
0
 10
3726.9715177414650498
 20
134.3185846396090994
 30
0.0
 11
3726.9715177410648721
 21
134.1940858842089881
 31
0.0
  0
ARC
  5
1637B
  8
0
 10
3726.939586560627049
 20
134.194257944172108
 30
0.0
 40
0.0319316440035874
 50
297.2391270259063276
 51
359.6912668382813081
  0
LINE
  5
1637C
  8
0
 10
3726.4384124559310294
 20
133.802131599208991
 30
0.0
 11
3727.0314145201991778
 21
133.802131599208991
 31
0.0
  0
LINE
  5
1637D
  8
0
 10
3727.0599134855651755
 20
133.5361027400089995
 30
0.0
 11
3726.4099134905650317
 21
133.5361027400089995
 31
0.0
  0
LINE
  5
1637E
  8
0
 10
3726.3765967849931258
 20
132.8450380435089926
 30
0.0
 11
3727.0932301911370814
 21
132.8450380435089926
 31
0.0
  0
LINE
  5
1637F
  8
0
 10
3727.0346873936191514
 20
132.5913472016090111
 30
0.0
 11
3726.4351395825110558
 21
132.5913472016090111
 31
0.0
  0
LINE
  5
16380
  8
0
 10
3727.0507378603288089
 20
132.7238109905931935
 30
0.0
 11
3726.4190910418851672
 21
132.7238116201226887
 31
0.0
  0
LINE
  5
16381
  8
0
 10
3725.6879134905648243
 20
135.9269145486090054
 30
0.0
 11
3727.7819134855649281
 21
135.9269145486090054
 31
0.0
  0
LINE
  5
16382
  8
0
 10
3724.0529808740511726
 20
136.5197338630090087
 30
0.0
 11
3729.4168490679790011
 21
136.5197338630090087
 31
0.0
  0
ENDSEC
  0
EOF
