  0
SECTION
  2
HEADER
  9
$ACADVER
  1
AC1009
  9
$INSBASE
 10
3721.8576942355421124
 20
134.3138697953692997
 30
0.0
  9
$EXTMIN
 10
3718.559084451524086
 20
131.01458745609321
 30
-0.0015258207003583
  9
$EXTMAX
 10
3725.0805797317948418
 20
137.3371807604071932
 30
0.0000000349246037
  9
$LIMMIN
 10
0.0
 20
0.0
  9
$LIMMAX
 10
11.6929133858000007
 20
8.2677165353999982
  9
$ORTHOMODE
 70
     0
  9
$REGENMODE
 70
     1
  9
$FILLMODE
 70
     1
  9
$QTEXTMODE
 70
     0
  9
$MIRRTEXT
 70
     0
  9
$DRAGMODE
 70
     2
  9
$LTSCALE
 40
0.6431102362
  9
$OSMODE
 70
  4095
  9
$ATTMODE
 70
     1
  9
$TEXTSIZE
 40
0.2
  9
$TRACEWID
 40
0.05
  9
$TEXTSTYLE
  7
STANDARD
  9
$CLAYER
  8
0
  9
$CELTYPE
  6
BYLAYER
  9
$CECOLOR
 62
   256
  9
$DIMSCALE
 40
1.0
  9
$DIMASZ
 40
0.1875
  9
$DIMEXO
 40
0.0625
  9
$DIMDLI
 40
0.4443307087
  9
$DIMRND
 40
0.0
  9
$DIMDLE
 40
0.0
  9
$DIMEXE
 40
0.125
  9
$DIMTP
 40
0.01
  9
$DIMTM
 40
0.01
  9
$DIMTXT
 40
2.0
  9
$DIMCEN
 40
0.1052362205
  9
$DIMTSZ
 40
0.0
  9
$DIMTOL
 70
     1
  9
$DIMLIM
 70
     0
  9
$DIMTIH
 70
     1
  9
$DIMTOH
 70
     1
  9
$DIMSE1
 70
     0
  9
$DIMSE2
 70
     0
  9
$DIMTAD
 70
     0
  9
$DIMZIN
 70
     0
  9
$DIMBLK
  1

  9
$DIMASO
 70
     1
  9
$DIMSHO
 70
     1
  9
$DIMPOST
  1
\X
  9
$DIMAPOST
  1

  9
$DIMALT
 70
     1
  9
$DIMALTD
 70
     2
  9
$DIMALTF
 40
25.3999999999999986
  9
$DIMLFAC
 40
1.0
  9
$DIMTOFL
 70
     0
  9
$DIMTVP
 40
0.0
  9
$DIMTIX
 70
     0
  9
$DIMSOXD
 70
     0
  9
$DIMSAH
 70
     0
  9
$DIMBLK1
  1

  9
$DIMBLK2
  1

  9
$DIMSTYLE
  2
STANDARD
  9
$DIMCLRD
 70
     0
  9
$DIMCLRE
 70
     0
  9
$DIMCLRT
 70
     0
  9
$DIMTFAC
 40
1.0
  9
$DIMGAP
 40
0.09
  9
$LUNITS
 70
     2
  9
$LUPREC
 70
     4
  9
$SKETCHINC
 40
0.1
  9
$FILLETRAD
 40
0.0
  9
$AUNITS
 70
     0
  9
$AUPREC
 70
     0
  9
$MENU
  1
.
  9
$ELEVATION
 40
0.0
  9
$PELEVATION
 40
0.0
  9
$THICKNESS
 40
0.0
  9
$LIMCHECK
 70
     0
  9
$BLIPMODE
 70
     0
  9
$CHAMFERA
 40
0.0
  9
$CHAMFERB
 40
0.0
  9
$SKPOLY
 70
     0
  9
$TDCREATE
 40
2458060.468368056230247
  9
$TDUPDATE
 40
2459647.8687615739181638
  9
$TDINDWG
 40
0.3412686343
  9
$TDUSRTIMER
 40
0.3412686343
  9
$USRTIMER
 70
     1
  9
$ANGBASE
 50
0.0
  9
$ANGDIR
 70
     0
  9
$PDMODE
 70
     0
  9
$PDSIZE
 40
0.3125
  9
$PLINEWID
 40
0.0
  9
$COORDS
 70
     1
  9
$SPLFRAME
 70
     0
  9
$SPLINETYPE
 70
     6
  9
$SPLINESEGS
 70
     8
  9
$ATTDIA
 70
     1
  9
$ATTREQ
 70
     1
  9
$HANDLING
 70
     1
  9
$HANDSEED
  5
16258
  9
$SURFTAB1
 70
     6
  9
$SURFTAB2
 70
     6
  9
$SURFTYPE
 70
     6
  9
$SURFU
 70
     6
  9
$SURFV
 70
     6
  9
$UCSNAME
  2

  9
$UCSORG
 10
0.0
 20
0.0
 30
0.0
  9
$UCSXDIR
 10
1.0
 20
0.0
 30
0.0
  9
$UCSYDIR
 10
0.0
 20
1.0
 30
0.0
  9
$PUCSNAME
  2

  9
$PUCSORG
 10
0.0
 20
0.0
 30
0.0
  9
$PUCSXDIR
 10
1.0
 20
0.0
 30
0.0
  9
$PUCSYDIR
 10
0.0
 20
1.0
 30
0.0
  9
$USERI1
 70
     0
  9
$USERI2
 70
     0
  9
$USERI3
 70
     0
  9
$USERI4
 70
     0
  9
$USERI5
 70
     0
  9
$USERR1
 40
0.0
  9
$USERR2
 40
0.0
  9
$USERR3
 40
0.0
  9
$USERR4
 40
0.0
  9
$USERR5
 40
0.0
  9
$WORLDVIEW
 70
     1
  9
$SHADEDGE
 70
     3
  9
$SHADEDIF
 70
    70
  9
$TILEMODE
 70
     1
  9
$MAXACTVP
 70
    64
  9
$PLIMCHECK
 70
     0
  9
$PEXTMIN
 10
1.0000000000000000E+20
 20
1.0000000000000000E+20
 30
1.0000000000000000E+20
  9
$PEXTMAX
 10
-1.0000000000000000E+20
 20
-1.0000000000000000E+20
 30
-1.0000000000000000E+20
  9
$PLIMMIN
 10
0.0
 20
0.0
  9
$PLIMMAX
 10
12.0
 20
9.0
  9
$UNITMODE
 70
     0
  9
$VISRETAIN
 70
     1
  9
$PLINEGEN
 70
     0
  9
$PSLTSCALE
 70
     1
  0
ENDSEC
  0
SECTION
  2
TABLES
  0
TABLE
  2
VPORT
 70
     1
  0
VPORT
  2
*ACTIVE
 70
     0
 10
0.0
 20
0.0
 11
1.0
 21
1.0
 12
-81.7242352911534908
 22
8.1806219115002961
 13
0.0
 23
0.0
 14
1.0
 24
1.0
 15
0.0
 25
0.0
 16
0.0
 26
0.0
 36
17.1152628219792007
 17
3803.5440673828129547
 27
125.9952621967499056
 37
0.0
 40
6.3727063291830213
 41
2.0410052910052912
 42
50.0
 43
0.0
 44
0.0
 50
0.0
 51
0.0
 71
     0
 72
   100
 73
     1
 74
     1
 75
     0
 76
     0
 77
     0
 78
     1
  0
ENDTAB
  0
TABLE
  2
LTYPE
 70
     2
  0
LTYPE
  2
CONTINUOUS
 70
     0
  3
Solid line
 72
    65
 73
     0
 40
0.0
  0
LTYPE
  2
PHANTOM2
 70
     0
  3
___ _ _ ___ _ _ ___ _ _ ___ _ _
 72
    65
 73
     6
 40
1.25
 49
0.625
 49
-0.125
 49
0.125
 49
-0.125
 49
0.125
 49
-0.125
  0
ENDTAB
  0
TABLE
  2
LAYER
 70
     2
  0
LAYER
  2
0
 70
     0
 62
   255
  6
CONTINUOUS
  0
LAYER
  2
DEFPOINTS
 70
     0
 62
     7
  6
CONTINUOUS
  0
ENDTAB
  0
TABLE
  2
STYLE
 70
     1
  0
STYLE
  2
STANDARD
 70
     0
 40
0.0
 41
0.8
 50
0.0
 71
     0
 42
0.2
  3
txt
  4

  0
ENDTAB
  0
TABLE
  2
VIEW
 70
     0
  0
ENDTAB
  0
TABLE
  2
UCS
 70
     0
  0
ENDTAB
  0
TABLE
  2
APPID
 70
     9
  0
APPID
  2
ACAD
 70
     0
  0
APPID
  2
ACAD_MLEADERVER
 70
     0
  0
APPID
  2
ACAD_EXEMPT_FROM_CAD_STANDARDS
 70
     0
  0
APPID
  2
ACAD_NAV_VCDISPLAY
 70
     0
  0
APPID
  2
ACAECLAYERSTANDARD
 70
     0
  0
APPID
  2
ACCMTRANSPARENCY
 70
     0
  0
APPID
  2
ACAD_DSTYLE_DIMJAG
 70
     0
  0
APPID
  2
ACAD_DSTYLE_DIMTALN
 70
     0
  0
APPID
  2
ACDBATTR
 70
     0
  0
ENDTAB
  0
TABLE
  2
DIMSTYLE
 70
     1
  0
DIMSTYLE
  2
STANDARD
 70
     0
  3

  4

  5

  6

  7

 40
1.0
 41
0.1875
 42
0.0625
 43
0.38
 44
0.125
 45
0.0
 46
0.0
 47
0.01
 48
0.01
140
0.15625
141
0.09
142
0.0
143
25.3999999999999986
144
1.0
145
0.0
146
1.0
147
0.09
 71
     1
 72
     0
 73
     1
 74
     1
 75
     0
 76
     0
 77
     0
 78
     4
170
     0
171
     2
172
     0
173
     0
174
     0
175
     0
176
     0
177
     0
178
     0
  0
ENDTAB
  0
ENDSEC
  0
SECTION
  2
BLOCKS
  0
BLOCK
  8
0
  2
$MODEL_SPACE
 70
     0
 10
0.0
 20
0.0
 30
0.0
  3
$MODEL_SPACE
  1

  0
ENDBLK
  5
21
  8
0
  0
BLOCK
 67
     1
  8
0
  2
$PAPER_SPACE
 70
     0
 10
0.0
 20
0.0
 30
0.0
  3
$PAPER_SPACE
  1

  0
ENDBLK
  5
1D
 67
     1
  8
0
  0
ENDSEC
  0
SECTION
  2
ENTITIES
  0
ATTDEF
  5
15A25
  8
DEFPOINTS
 10
3721.8536101981380853
 20
134.3177522618049125
 30
0.0
 40
0.001
  1
K-T72769-4
  3

  2
MODELNUMBER
 70
     0
1001
ACDBATTR
1070
     0
1070
     1
  0
ATTDEF
  5
15A26
  8
DEFPOINTS
 10
3721.8536101981380853
 20
134.3160855951381905
 30
0.0
 40
0.001
  1
ARTIFACTS
  3

  2
TRADENAME
 70
     0
1001
ACDBATTR
1070
     0
1070
     1
  0
ATTDEF
  5
15A27
  8
DEFPOINTS
 10
3721.8536101981380853
 20
134.3144189284716106
 30
0.0
 40
0.001
  1
VALVE TRIM
  3

  2
PRODUCT
 70
     0
1001
ACDBATTR
1070
     0
1070
     1
  0
ARC
  5
16188
  8
0
 10
3721.8576942355421124
 20
134.3138697953692997
 30
0.0
 40
3.0199988671918772
 50
276.8333355151356727
 51
263.1664612817853026
  0
ARC
  5
16189
  8
0
 10
3721.8576942355421124
 20
134.3138697953692997
 30
0.0
 40
2.6356982341640269
 50
279.1331177540740214
 51
260.8666837014487783
  0
ARC
  5
1618A
  8
0
 10
3721.8576942355421124
 20
134.3138697953692997
 30
0.0
 40
1.1610191168131609
 50
283.3730878494474155
 51
256.626431999866611
  0
ARC
  5
1618B
  8
0
 10
3721.8576942355421124
 20
134.3138697953692997
 30
0.0
 40
1.047320871205041
 50
284.8459214460124826
 51
255.1532771127407955
  0
ARC
  5
1618C
  8
0
 10
3721.8576942355421124
 20
134.3138697953692997
 30
0.0
 40
0.4751107900651514
 50
298.9704338459754922
 51
241.0162289917037981
  0
CIRCLE
  5
1618D
  8
0
 10
3721.8576942355421124
 20
134.3138697953692997
 30
0.0
 40
0.3467696513316506
  0
CIRCLE
  5
1618E
  8
0
 10
3721.8576942355421124
 20
134.3138697953692997
 30
0.0
 40
0.2816928996000001
  0
CIRCLE
  5
1618F
  8
0
 10
3721.8576942355421124
 20
134.3138697953692997
 30
0.0
 40
0.3837161664818985
  0
ARC
  5
16190
  8
0
 10
3722.1304485780051436
 20
133.8305224159365991
 30
0.0
 40
0.0799933363778914
 50
119.4339048779253005
 51
186.9613339391856073
  0
ARC
  5
16191
  8
0
 10
3722.3216967719549757
 20
133.8412860690827131
 30
0.0
 40
0.2714239808983177
 50
184.3228163417321923
 51
250.8577823943888916
  0
ARC
  5
16192
  8
0
 10
3722.027488580311001
 20
133.5849205080698994
 30
0.0
 40
0.2052044521999323
 50
304.2792739745511881
 51
359.9858374995002919
  0
ARC
  5
16193
  8
0
 10
3722.147872061264934
 20
133.4066929316192898
 30
0.0
 40
0.0099104361459681
 50
119.0137562084281058
 51
240.9862437915718942
  0
ARC
  5
16194
  8
0
 10
3722.117624948843968
 20
133.3548983361594935
 30
0.0
 40
0.0500722112928531
 50
293.4773730728667829
 51
59.4644176901123274
  0
ARC
  5
16195
  8
0
 10
3722.1457688615250845
 20
133.2836536933247089
 30
0.0
 40
0.0266110646412312
 50
107.9378210659888992
 51
189.3776048989724075
  0
LINE
  5
16196
  8
0
 10
3722.119513429141989
 20
133.2793176776692974
 30
0.0
 11
3722.2260879886421208
 21
131.7715737710693134
 31
0.0
  0
ARC
  5
16197
  8
0
 10
3722.2508325427279487
 20
131.7697884263596109
 30
0.0
 40
0.024808877698241
 50
175.8732024464403878
 51
256.8307381105847185
  0
ARC
  5
16198
  8
0
 10
3722.2278155877379504
 20
131.6988616940815859
 30
0.0
 40
0.0498898426083062
 50
329.9376696309465729
 51
69.6311434997889194
  0
ARC
  5
16199
  8
0
 10
3722.2897760865648706
 20
131.6570969436203882
 30
0.0
 40
0.0251810217077569
 50
138.2339532052897937
 51
249.5270512746199074
  0
ARC
  5
1619A
  8
0
 10
3722.2276915656680103
 20
131.5488784107805884
 30
0.0
 40
0.1000017349513387
 50
302.1737602397838032
 51
57.8077685789176101
  0
ARC
  5
1619B
  8
0
 10
3722.2896701246381781
 20
131.4406747494491867
 30
0.0
 40
0.025123562311676
 50
110.3304143087841993
 51
221.9816506232650966
  0
ARC
  5
1619C
  8
0
 10
3722.2276930261859889
 20
131.3988697851744973
 30
0.0
 40
0.0500000000558378
 50
287.0123759530411007
 51
29.9999999561620001
  0
ARC
  5
1619D
  8
0
 10
3722.2464294063579473
 20
131.3271381361140016
 30
0.0
 40
0.0242696747598339
 50
99.7437953493166702
 51
169.0687916014589973
  0
ARC
  5
1619E
  8
0
 10
3721.9902035171508032
 20
131.4015930976646018
 30
0.0
 40
0.2426676054819544
 50
300.4919532173412904
 51
343.2705139617855252
  0
ARC
  5
1619F
  8
0
 10
3722.1246065800501128
 20
131.1679779543260054
 30
0.0
 40
0.0269751218220048
 50
114.6936755776650045
 51
183.8718286848861965
  0
LINE
  5
161A0
  8
0
 10
3722.0976930262418136
 20
131.1661564662693138
 30
0.0
 11
3722.0976699831558108
 21
131.1435514056693137
 31
0.0
  0
ARC
  5
161A1
  8
0
 10
3722.0726513797399093
 20
131.1393196587218029
 30
0.0
 40
0.0253739669563335
 50
272.3578958387948887
 51
9.6003716393568794
  0
ARC
  5
161A2
  8
0
 10
3722.0880170452469429
 20
131.0113697042258138
 30
0.0
 40
0.1035922457530314
 50
97.9466588285786344
 51
164.7663617883488882
  0
ARC
  5
161A3
  8
0
 10
3721.9625324863818605
 20
131.0437646903419022
 30
0.0
 40
0.0260515700718099
 50
263.4023820096956001
 51
348.5411001880448225
  0
LINE
  5
161A4
  8
0
 10
3721.9595392690421249
 20
131.0178856456693097
 30
0.0
 11
3721.7526208186418444
 21
131.0179292939693028
 31
0.0
  0
ARC
  5
161A5
  8
0
 10
3721.5849301859798288
 20
133.8305212519341865
 30
0.0
 40
0.0799933363778914
 50
353.0386660608143075
 51
57.8702891060872133
  0
ARC
  5
161A6
  8
0
 10
3721.3936819920309063
 20
133.8412849050803004
 30
0.0
 40
0.2714239808983177
 50
289.1422176056111084
 51
355.6771836582677793
  0
ARC
  5
161A7
  8
0
 10
3721.687890183673062
 20
133.5849193440674867
 30
0.0
 40
0.2052044521999323
 50
180.0141625004997081
 51
235.7207260254486982
  0
ARC
  5
161A8
  8
0
 10
3721.567506702719129
 20
133.4066917676169055
 30
0.0
 40
0.0099104361459695
 50
299.0276279081811026
 51
60.9862437915467694
  0
ARC
  5
161A9
  8
0
 10
3721.5977537593939815
 20
133.3548971330891106
 30
0.0
 40
0.0500721532481918
 50
120.5327600843992997
 51
246.5193245513565046
  0
ARC
  5
161AA
  8
0
 10
3721.5696092927792051
 20
133.2836524112769894
 30
0.0
 40
0.0266116469403495
 50
350.6228597457603087
 51
72.0672692480337247
  0
LINE
  5
161AB
  8
0
 10
3721.5958653348429834
 20
133.2793165136669131
 30
0.0
 11
3721.4892907753419422
 21
131.7715726070669007
 31
0.0
  0
ARC
  5
161AC
  8
0
 10
3721.4645462212561142
 20
131.7697872623571982
 30
0.0
 40
0.024808877698241
 50
283.1692618894153952
 51
4.1267975535595216
  0
ARC
  5
161AD
  8
0
 10
3721.4875631762461126
 20
131.6988605300792017
 30
0.0
 40
0.0498898426083062
 50
110.3688565002110948
 51
210.0623303690533987
  0
ARC
  5
161AE
  8
0
 10
3721.4256026774191923
 20
131.6570957796180892
 30
0.0
 40
0.0251810217077574
 50
290.3999430301104212
 51
41.7660467947089913
  0
ARC
  5
161AF
  8
0
 10
3721.4877077348701278
 20
131.5488736446669122
 30
0.0
 40
0.1000222724600313
 50
122.2190815269674005
 51
237.7809184730325001
  0
ARC
  5
161B0
  8
0
 10
3721.4257086393467944
 20
131.4406735854468877
 30
0.0
 40
0.0251235623116764
 50
318.0183493767361256
 51
69.8090052183926844
  0
ARC
  5
161B1
  8
0
 10
3721.4876857377989836
 20
131.3988686211721131
 30
0.0
 40
0.0500000000558378
 50
150.0000000438380141
 51
252.983065693587605
  0
ARC
  5
161B2
  8
0
 10
3721.4689480486022148
 20
131.3271362683800021
 30
0.0
 40
0.024271093486646
 50
10.9322535376992995
 51
80.2627552121709016
  0
ARC
  5
161B3
  8
0
 10
3721.7251752468341692
 20
131.4015919336621891
 30
0.0
 40
0.242667605481962
 50
196.7294860382145032
 51
239.5075051146174872
  0
ARC
  5
161B4
  8
0
 10
3721.5907715158318751
 20
131.1679766308793944
 30
0.0
 40
0.026975777633805
 50
356.1286050169258033
 51
65.31002441819696
  0
LINE
  5
161B5
  8
0
 10
3721.6176857377417946
 20
131.1661553022669011
 30
0.0
 11
3721.6177087808277975
 21
131.143550241666901
 31
0.0
  0
ARC
  5
161B6
  8
0
 10
3721.6427273842441537
 20
131.1393184947193902
 30
0.0
 40
0.0253739669563336
 50
170.3996283606431064
 51
267.5790600435826718
  0
ARC
  5
161B7
  8
0
 10
3721.6273689004019616
 20
131.0113729906917115
 30
0.0
 40
0.1035841470778448
 50
15.2323067844653792
 51
82.0723058044488454
  0
ARC
  5
161B8
  8
0
 10
3721.7523793869008841
 20
131.0434632861108923
 30
0.0
 40
0.0255351335217291
 50
191.0067671150459034
 51
270.5417330550819202
  0
LINE
  5
161B9
  8
0
 10
3721.4826857377420311
 20
133.5848686211668905
 30
0.0
 11
3722.2326930262420319
 21
133.5848697851693032
 31
0.0
  0
LINE
  5
161BA
  8
0
 10
3721.572315556571084
 20
133.3980262226693014
 30
0.0
 11
3722.1430653055422226
 21
133.3980262226693014
 31
0.0
  0
LINE
  5
161BB
  8
0
 10
3721.5778030235260303
 20
133.3089712289693125
 30
0.0
 11
3722.1375730607569494
 21
133.3089712289693125
 31
0.0
  0
LINE
  5
161BC
  8
0
 10
3721.4702033638500325
 20
131.7456319906692954
 30
0.0
 11
3722.2451803725798527
 21
131.7456319906692954
 31
0.0
  0
LINE
  5
161BD
  8
0
 10
3721.4344132373112188
 20
131.6335064199693079
 30
0.0
 11
3722.2809686437981327
 21
131.6335064199693079
 31
0.0
  0
LINE
  5
161BE
  8
0
 10
3721.4344342633571614
 20
131.4642332303693024
 30
0.0
 11
3722.2809413584031972
 21
131.4642332303693024
 31
0.0
  0
LINE
  5
161BF
  8
0
 10
3721.4730530209421886
 20
131.3510577060692981
 30
0.0
 11
3722.2423219392430838
 21
131.3510577060692981
 31
0.0
  0
LINE
  5
161C0
  8
0
 10
3721.6416555675418749
 20
131.1139671750682112
 30
0.0
 11
3722.0736953010468824
 21
131.1139671750682112
 31
0.0
  0
LINE
  5
161C1
  8
0
 10
3721.6020395170748998
 20
131.1924863172692994
 30
0.0
 11
3722.1133372700419386
 21
131.1924863171693119
 31
0.0
  0
LINE
  5
161C2
  8
0
 10
3722.0942972821430885
 20
133.7726565815692936
 30
0.0
 11
3722.3989062309178735
 21
134.07726553047371
 31
0.0
  0
ARC
  5
161C3
  8
0
 10
3722.3776930302201436
 20
134.0984787311633966
 30
0.0
 40
0.0299999961230032
 50
315.0000000121042945
 51
0.0000030670505064
  0
LINE
  5
161C4
  8
0
 10
3722.4076930263431677
 20
134.0984787327693084
 30
0.0
 11
3722.4076930032820201
 21
134.5292608405692931
 31
0.0
  0
ARC
  5
161C5
  8
0
 10
3722.3776929506661872
 20
134.5292608389634097
 30
0.0
 40
0.030000052616841
 50
0.0000030670505064
 51
44.9998959180984812
  0
LINE
  5
161C6
  8
0
 10
3722.3989062298419412
 20
134.5504740410692932
 30
0.0
 11
3722.0942978356270032
 21
134.8550835419725047
 31
0.0
  0
ARC
  5
161C7
  8
0
 10
3722.0730860229641621
 20
134.8338718063741055
 30
0.0
 40
0.0299979786581755
 50
44.9998959180984812
 51
90.0037136302427996
  0
LINE
  5
161C8
  8
0
 10
3722.0730840786432054
 20
134.863869784969296
 30
0.0
 11
3721.6423019747471699
 21
134.863841863794903
 31
0.0
  0
ARC
  5
161C9
  8
0
 10
3721.642303923891177
 20
134.8337694735795083
 30
0.0
 40
0.0300723902786244
 50
90.0037136302427996
 51
134.8674851611833105
  0
LINE
  5
161CA
  8
0
 10
3721.6210887703427943
 20
134.8550829884692916
 30
0.0
 11
3721.3164806376398701
 21
134.5504748556664936
 31
0.0
  0
ARC
  5
161CB
  8
0
 10
3721.3376930261570124
 20
134.5292608376061878
 30
0.0
 40
0.029999999814681
 50
134.9977993439443082
 51
179.9999998794201872
  0
LINE
  5
161CC
  8
0
 10
3721.3076930263428039
 20
134.5292608376693124
 30
0.0
 11
3721.3076930263428039
 21
134.0984787327693084
 31
0.0
  0
ARC
  5
161CD
  8
0
 10
3721.3376930264757902
 20
134.0984787327959111
 30
0.0
 40
0.0300000001337981
 50
180.0000000508269977
 51
224.9999999902975958
  0
LINE
  5
161CE
  8
0
 10
3721.3164798229418011
 20
134.0772655292693116
 30
0.0
 11
3721.6210887704410197
 21
133.7726565816676896
 31
0.0
  0
ARC
  5
161CF
  8
0
 10
3721.6423019741951066
 20
133.7938697854146142
 30
0.0
 40
0.0300000004452771
 50
224.9999999902975958
 51
269.9999991358563989
  0
LINE
  5
161D0
  8
0
 10
3721.6423019737421782
 20
133.7638697849693017
 30
0.0
 11
3721.6538317115350765
 21
133.7638697847953893
 31
0.0
  0
ARC
  5
161D1
  8
0
 10
3722.0730840786159206
 20
133.7938697851031122
 30
0.0
 40
0.0300000001338012
 50
270.0000000508334779
 51
314.9999999902896093
  0
LINE
  5
161D2
  8
0
 10
3722.0730840786432054
 20
133.7638697849693017
 30
0.0
 11
3722.0615473987868427
 21
133.7638697849590983
 31
0.0
  0
ENDSEC
  0
EOF
