  0
SECTION
  2
HEADER
  9
$ACADVER
  1
AC1009
  9
$INSBASE
 10
57.772736307671202
 20
7.7131538386733309
 30
0.0
  9
$EXTMIN
 10
52.910795275206787
 20
4.4381538386733288
 30
0.0
  9
$EXTMAX
 10
57.787933532691703
 20
10.98815383867333
 30
0.0
  9
$LIMMIN
 10
0.0
 20
0.0
  9
$LIMMAX
 10
11.692913385800001
 20
8.2677165353999982
  9
$ORTHOMODE
 70
     1
  9
$REGENMODE
 70
     1
  9
$FILLMODE
 70
     1
  9
$QTEXTMODE
 70
     0
  9
$MIRRTEXT
 70
     0
  9
$DRAGMODE
 70
     2
  9
$LTSCALE
 40
0.6431102362
  9
$OSMODE
 70
  3071
  9
$ATTMODE
 70
     1
  9
$TEXTSIZE
 40
0.2
  9
$TRACEWID
 40
0.05
  9
$TEXTSTYLE
  7
STANDARD
  9
$CLAYER
  8
0
  9
$CELTYPE
  6
BYLAYER
  9
$CECOLOR
 62
   256
  9
$DIMSCALE
 40
1.0
  9
$DIMASZ
 40
0.1875
  9
$DIMEXO
 40
0.0625
  9
$DIMDLI
 40
0.4443307087
  9
$DIMRND
 40
0.0
  9
$DIMDLE
 40
0.0
  9
$DIMEXE
 40
0.125
  9
$DIMTP
 40
0.01
  9
$DIMTM
 40
0.01
  9
$DIMTXT
 40
0.5
  9
$DIMCEN
 40
0.1052362205
  9
$DIMTSZ
 40
0.0
  9
$DIMTOL
 70
     1
  9
$DIMLIM
 70
     0
  9
$DIMTIH
 70
     1
  9
$DIMTOH
 70
     1
  9
$DIMSE1
 70
     0
  9
$DIMSE2
 70
     0
  9
$DIMTAD
 70
     0
  9
$DIMZIN
 70
     0
  9
$DIMBLK
  1

  9
$DIMASO
 70
     1
  9
$DIMSHO
 70
     1
  9
$DIMPOST
  1
\X
  9
$DIMAPOST
  1

  9
$DIMALT
 70
     1
  9
$DIMALTD
 70
     2
  9
$DIMALTF
 40
25.399999999999999
  9
$DIMLFAC
 40
1.0
  9
$DIMTOFL
 70
     0
  9
$DIMTVP
 40
0.0
  9
$DIMTIX
 70
     0
  9
$DIMSOXD
 70
     0
  9
$DIMSAH
 70
     0
  9
$DIMBLK1
  1

  9
$DIMBLK2
  1

  9
$DIMSTYLE
  2
STANDARD
  9
$DIMCLRD
 70
     0
  9
$DIMCLRE
 70
     0
  9
$DIMCLRT
 70
     0
  9
$DIMTFAC
 40
1.0
  9
$DIMGAP
 40
0.09
  9
$LUNITS
 70
     2
  9
$LUPREC
 70
     4
  9
$SKETCHINC
 40
0.1
  9
$FILLETRAD
 40
0.0
  9
$AUNITS
 70
     0
  9
$AUPREC
 70
     0
  9
$MENU
  1
.
  9
$ELEVATION
 40
0.0
  9
$PELEVATION
 40
0.0
  9
$THICKNESS
 40
0.0
  9
$LIMCHECK
 70
     0
  9
$BLIPMODE
 70
     0
  9
$CHAMFERA
 40
0.0
  9
$CHAMFERB
 40
0.0
  9
$SKPOLY
 70
     0
  9
$TDCREATE
 40
2458194.5325210299
  9
$TDUPDATE
 40
2458194.7182105328
  9
$TDINDWG
 40
0.1169097338
  9
$TDUSRTIMER
 40
0.1169097338
  9
$USRTIMER
 70
     1
  9
$ANGBASE
 50
0.0
  9
$ANGDIR
 70
     0
  9
$PDMODE
 70
     0
  9
$PDSIZE
 40
0.3125
  9
$PLINEWID
 40
0.0
  9
$COORDS
 70
     1
  9
$SPLFRAME
 70
     0
  9
$SPLINETYPE
 70
     6
  9
$SPLINESEGS
 70
     8
  9
$ATTDIA
 70
     1
  9
$ATTREQ
 70
     1
  9
$HANDLING
 70
     1
  9
$HANDSEED
  5
15C1
  9
$SURFTAB1
 70
     6
  9
$SURFTAB2
 70
     6
  9
$SURFTYPE
 70
     6
  9
$SURFU
 70
     6
  9
$SURFV
 70
     6
  9
$UCSNAME
  2

  9
$UCSORG
 10
0.0
 20
0.0
 30
0.0
  9
$UCSXDIR
 10
1.0
 20
0.0
 30
0.0
  9
$UCSYDIR
 10
0.0
 20
1.0
 30
0.0
  9
$PUCSNAME
  2

  9
$PUCSORG
 10
0.0
 20
0.0
 30
0.0
  9
$PUCSXDIR
 10
1.0
 20
0.0
 30
0.0
  9
$PUCSYDIR
 10
0.0
 20
1.0
 30
0.0
  9
$USERI1
 70
     0
  9
$USERI2
 70
     0
  9
$USERI3
 70
     0
  9
$USERI4
 70
     0
  9
$USERI5
 70
     0
  9
$USERR1
 40
0.0
  9
$USERR2
 40
0.0
  9
$USERR3
 40
0.0
  9
$USERR4
 40
0.0
  9
$USERR5
 40
0.0
  9
$WORLDVIEW
 70
     1
  9
$SHADEDGE
 70
     3
  9
$SHADEDIF
 70
    70
  9
$TILEMODE
 70
     1
  9
$MAXACTVP
 70
    64
  9
$PLIMCHECK
 70
     0
  9
$PEXTMIN
 10
1.0000000000000000E+020
 20
1.0000000000000000E+020
 30
1.0000000000000000E+020
  9
$PEXTMAX
 10
-1.0000000000000000E+020
 20
-1.0000000000000000E+020
 30
-1.0000000000000000E+020
  9
$PLIMMIN
 10
0.0
 20
0.0
  9
$PLIMMAX
 10
12.0
 20
9.0
  9
$UNITMODE
 70
     0
  9
$VISRETAIN
 70
     1
  9
$PLINEGEN
 70
     0
  9
$PSLTSCALE
 70
     1
  0
ENDSEC
  0
SECTION
  2
TABLES
  0
TABLE
  2
VPORT
 70
     1
  0
VPORT
  2
*ACTIVE
 70
     0
 10
0.0
 20
0.0
 11
1.0
 21
1.0
 12
0.0
 22
0.0
 13
0.0
 23
0.0
 14
1.0
 24
1.0
 15
0.0
 25
0.0
 16
-0.0000000000000071
 26
0.0
 36
22.963605636156249
 17
55.349364403949259
 27
7.7131538386733309
 37
0.0
 40
8.1712190821040327
 41
2.0983240223463682
 42
50.0
 43
0.0
 44
0.0
 50
0.0
 51
0.0
 71
     0
 72
   100
 73
     1
 74
     1
 75
     0
 76
     0
 77
     0
 78
     0
  0
ENDTAB
  0
TABLE
  2
LTYPE
 70
     2
  0
LTYPE
  2
CONTINUOUS
 70
     0
  3
Solid line
 72
    65
 73
     0
 40
0.0
  0
LTYPE
  2
PHANTOM2
 70
     0
  3
___ _ _ ___ _ _ ___ _ _ ___ _ _
 72
    65
 73
     6
 40
1.25
 49
0.625
 49
-0.125
 49
0.125
 49
-0.125
 49
0.125
 49
-0.125
  0
ENDTAB
  0
TABLE
  2
LAYER
 70
     2
  0
LAYER
  2
0
 70
     0
 62
   255
  6
CONTINUOUS
  0
LAYER
  2
DEFPOINTS
 70
     0
 62
     7
  6
CONTINUOUS
  0
ENDTAB
  0
TABLE
  2
STYLE
 70
     1
  0
STYLE
  2
STANDARD
 70
     0
 40
0.0
 41
0.8
 50
0.0
 71
     0
 42
0.2
  3
txt
  4

  0
ENDTAB
  0
TABLE
  2
VIEW
 70
     0
  0
ENDTAB
  0
TABLE
  2
UCS
 70
     0
  0
ENDTAB
  0
TABLE
  2
APPID
 70
     9
  0
APPID
  2
ACAD
 70
     0
  0
APPID
  2
ACAD_MLEADERVER
 70
     0
  0
APPID
  2
ACAD_EXEMPT_FROM_CAD_STANDARDS
 70
     0
  0
APPID
  2
ACAD_DSTYLE_DIMJAG
 70
     0
  0
APPID
  2
ACAD_DSTYLE_DIMTALN
 70
     0
  0
APPID
  2
ACAD_NAV_VCDISPLAY
 70
     0
  0
APPID
  2
ACAECLAYERSTANDARD
 70
     0
  0
APPID
  2
ACCMTRANSPARENCY
 70
     0
  0
APPID
  2
AcDbAttr
 70
     0
  0
ENDTAB
  0
TABLE
  2
DIMSTYLE
 70
     1
  0
DIMSTYLE
  2
STANDARD
 70
     0
  3

  4

  5

  6

  7

 40
1.0
 41
0.1875
 42
0.0625
 43
0.38
 44
0.125
 45
0.0
 46
0.0
 47
0.01
 48
0.01
140
0.15625
141
0.09
142
0.0
143
25.399999999999999
144
1.0
145
0.0
146
1.0
147
0.09
 71
     1
 72
     0
 73
     1
 74
     1
 75
     0
 76
     0
 77
     0
 78
     4
170
     0
171
     2
172
     0
173
     0
174
     0
175
     0
176
     0
177
     0
178
     0
  0
ENDTAB
  0
ENDSEC
  0
SECTION
  2
BLOCKS
  0
BLOCK
  8
0
  2
$MODEL_SPACE
 70
     0
 10
0.0
 20
0.0
 30
0.0
  3
$MODEL_SPACE
  1

  0
ENDBLK
  5
21
  8
0
  0
BLOCK
 67
     1
  8
0
  2
$PAPER_SPACE
 70
     0
 10
0.0
 20
0.0
 30
0.0
  3
$PAPER_SPACE
  1

  0
ENDBLK
  5
1D
 67
     1
  8
0
  0
ENDSEC
  0
SECTION
  2
ENTITIES
  0
ATTDEF
  5
128B
  8
DEFPOINTS
 10
57.77726686602508
 20
7.7098205053400006
 30
0.0
 40
0.001
  1
METAL
  3

  2
MATERIAL
 70
     0
1001
AcDbAttr
1070
     0
1070
     1
  0
ATTDEF
  5
128C
  8
DEFPOINTS
 10
57.77726686602508
 20
7.7114871720066658
 30
0.0
 40
0.001
  1
VALVE TRIM
  3

  2
PRODUCT
 70
     0
1001
AcDbAttr
1070
     0
1070
     1
  0
ATTDEF
  5
128D
  8
DEFPOINTS
 10
57.77726686602508
 20
7.7131538386733309
 30
0.0
 40
0.001
  1
ARTIFACTS
  3

  2
TRADENAME
 70
     0
1001
AcDbAttr
1070
     0
1070
     1
  0
ATTDEF
  5
128E
  8
DEFPOINTS
 10
57.77726686602508
 20
7.7148205053399961
 30
0.0
 40
0.001
  1
K-T72768-3
  3

  2
MODELNUMBER
 70
     0
1001
AcDbAttr
1070
     0
1070
     1
  0
LINE
  5
144B
  8
0
 10
56.541736307671222
 20
5.1131538386733286
 30
0.0
 11
57.268091019112191
 21
5.1131538386733286
 31
0.0
  0
LINE
  5
144C
  8
0
 10
56.541736307671222
 20
5.71315383867333
 30
0.0
 11
57.259111144789799
 21
5.71315383867333
 31
0.0
  0
LINE
  5
144D
  8
0
 10
56.121736307671213
 20
5.7881538386733293
 30
0.0
 11
56.196736307671202
 21
5.7881538386733293
 31
0.0
  0
LINE
  5
144E
  8
0
 10
56.121736307671213
 20
5.0381538386733293
 30
0.0
 11
56.196736307671202
 21
5.0381538386733293
 31
0.0
  0
LINE
  5
144F
  8
0
 10
56.426736307671213
 20
5.7881538386733293
 30
0.0
 11
56.491736307671211
 21
5.7881538386733293
 31
0.0
  0
LINE
  5
1450
  8
0
 10
56.091736307671212
 20
5.7581682133733292
 30
0.0
 11
56.091736307671212
 21
5.0681394644733286
 31
0.0
  0
LINE
  5
1451
  8
0
 10
56.22673630767121
 20
5.8281538386733294
 30
0.0
 11
56.22673630767121
 21
4.9981538382733293
 31
0.0
  0
LINE
  5
1452
  8
0
 10
56.396736307671212
 20
4.9981538386733293
 30
0.0
 11
56.396736307671212
 21
5.8281538386733294
 31
0.0
  0
LINE
  5
1453
  8
0
 10
56.521736307671212
 20
5.0681395053733294
 30
0.0
 11
56.521736307671212
 21
5.7581681715733293
 31
0.0
  0
ARC
  5
1454
  8
0
 10
56.311736307671211
 20
5.8281538386733294
 30
0.0
 40
0.085
 50
0.0
 51
180.0
  0
ARC
  5
1455
  8
0
 10
56.541736307671222
 20
5.6931538386733287
 30
0.0
 40
0.02
 50
90.0
 51
180.0
  0
ARC
  5
1456
  8
0
 10
56.541736307671222
 20
5.1331538386733291
 30
0.0
 40
0.02
 50
180.0
 51
270.0
  0
LINE
  5
1457
  8
0
 10
57.361736307671208
 20
10.65315383867333
 30
0.0
 11
57.415679689046641
 21
10.65316624974133
 31
0.0
  0
LINE
  5
1458
  8
0
 10
57.361736307671208
 20
10.60715383867333
 30
0.0
 11
57.321747854571207
 21
10.60715383867333
 31
0.0
  0
LINE
  5
1459
  8
0
 10
54.23433348937121
 20
7.3962248675733298
 30
0.0
 11
54.23433348937121
 21
8.0300822686733326
 31
0.0
  0
LINE
  5
145A
  8
0
 10
54.252333489371203
 20
7.9631538386733309
 30
0.0
 11
54.252333489371203
 21
7.4631538386733309
 31
0.0
  0
LINE
  5
145B
  8
0
 10
54.482025051171213
 20
8.2133589978733301
 30
0.0
 11
54.489510976671198
 21
8.2409969375733318
 31
0.0
  0
LINE
  5
145C
  8
0
 10
54.482025051171213
 20
8.2133589978733301
 30
0.0
 11
54.482025051171213
 21
7.2129486794733308
 31
0.0
  0
LINE
  5
145D
  8
0
 10
56.71566903597121
 20
8.7751538386733312
 30
0.0
 11
56.809901287971201
 21
8.7751538386733312
 31
0.0
  0
LINE
  5
145E
  8
0
 10
56.367317509471206
 20
8.7536538386733298
 30
0.0
 11
56.420336800671208
 21
8.7536538386733298
 31
0.0
  0
LINE
  5
145F
  8
0
 10
54.518467598671208
 20
8.2631540331677726
 30
0.0
 11
54.670033444471208
 21
8.2631538386733325
 31
0.0
  0
LINE
  5
1460
  8
0
 10
54.252333489371203
 20
7.9531538386733303
 30
0.0
 11
54.23433348937121
 21
7.9531538386733303
 31
0.0
  0
LINE
  5
1461
  8
0
 10
54.530072172071208
 20
7.9497580944733306
 30
0.0
 11
54.654570927271202
 21
7.9497580944733306
 31
0.0
  0
LINE
  5
1462
  8
0
 10
54.6545709251712
 20
7.4765495826733321
 30
0.0
 11
54.530072171971213
 21
7.4765495828733322
 31
0.0
  0
LINE
  5
1463
  8
0
 10
56.45443282717121
 20
8.7807506128733301
 30
0.0
 11
56.45443282717121
 21
6.6455570644733291
 31
0.0
  0
LINE
  5
1464
  8
0
 10
56.683077138271209
 20
6.6289119031733321
 30
0.0
 11
56.683077138271209
 21
8.7973957741733315
 31
0.0
  0
LINE
  5
1465
  8
0
 10
56.809901287971201
 20
8.8382020089733295
 30
0.0
 11
56.809901287971201
 21
6.5881056683733297
 31
0.0
  0
LINE
  5
1466
  8
0
 10
57.252736205670637
 20
6.1391022830246094
 30
0.0
 11
57.252736300871213
 21
9.2872147640733331
 31
0.0
  0
LINE
  5
1467
  8
0
 10
57.271757635571213
 20
10.55814277687333
 30
0.0
 11
57.252736300871213
 21
9.2872147640733331
 31
0.0
  0
LINE
  5
1468
  8
0
 10
57.361736307671208
 20
10.65315383867333
 30
0.0
 11
57.361736307671222
 21
4.819153838673329
 31
0.0
  0
LINE
  5
1469
  8
0
 10
57.772736307671202
 20
10.98815383867333
 30
0.0
 11
57.772736307671202
 21
4.4381538386733288
 31
0.0
  0
ARC
  5
146A
  8
0
 10
54.518474426970819
 20
8.2331451746929396
 30
0.0
 40
0.0300088592516987
 50
90.013037241744414
 51
164.83211922885991
  0
ARC
  5
146B
  8
0
 10
56.864756296669022
 20
9.2911538386782944
 30
0.0
 40
0.3880000000050316
 50
271.87433299969859
 51
359.41830869472022
  0
ARC
  5
146C
  8
0
 10
56.571333489371199
 20
8.7536538386733298
 30
0.0
 40
0.12
 50
21.37780749689977
 51
166.9496950600998
  0
ARC
  5
146D
  8
0
 10
56.879736307671209
 20
8.8333988831733308
 30
0.0
 40
0.07
 50
91.874332999399641
 51
176.06549655689969
  0
ARC
  5
146E
  8
0
 10
57.321747854571207
 20
10.557153838673329
 30
0.0
 40
0.05
 50
90.0
 51
178.86668637150001
  0
LINE
  5
146F
  8
0
 10
53.412593932471211
 20
8.6540148466733307
 30
0.0
 11
53.97406289687121
 21
8.6540148466733307
 31
0.0
  0
LINE
  5
1470
  8
0
 10
53.173347526271208
 20
7.8993261589733299
 30
0.0
 11
53.23995265087121
 21
7.8998076252733291
 31
0.0
  0
LINE
  5
1471
  8
0
 10
53.248306870371209
 20
8.1426966820733302
 30
0.0
 11
53.164996003471209
 21
8.1412419930733293
 31
0.0
  0
LINE
  5
1472
  8
0
 10
53.239954852971209
 20
7.5268726638733296
 30
0.0
 11
53.173349722471201
 21
7.5273533436733286
 31
0.0
  0
LINE
  5
1473
  8
0
 10
53.248311944071212
 20
7.283983766773332
 30
0.0
 11
53.165001059871202
 21
7.2854374712733287
 31
0.0
  0
LINE
  5
1474
  8
0
 10
53.974071531663512
 20
6.7722992149625041
 30
0.0
 11
53.412593932471211
 21
6.7722928305733312
 31
0.0
  0
LINE
  5
1475
  8
0
 10
53.963359866571203
 20
8.6073194286733319
 30
0.0
 11
53.97800675567121
 21
8.5292026869733313
 31
0.0
  0
LINE
  5
1476
  8
0
 10
53.132771059371208
 20
7.3238815942733311
 30
0.0
 11
53.136334568271202
 21
7.3087316575733281
 31
0.0
  0
LINE
  5
1477
  8
0
 10
53.28132611707121
 20
8.1018363177733281
 30
0.0
 11
53.281330707771211
 21
7.3248621116733288
 31
0.0
  0
LINE
  5
1478
  8
0
 10
53.136334568271202
 20
7.3087316575733281
 30
0.0
 11
53.136331630871197
 21
8.1179553070733306
 31
0.0
  0
LINE
  5
1479
  8
0
 10
53.044366334671203
 20
8.0233640652733307
 30
0.0
 11
53.044366334634411
 21
7.4033146743824041
 31
0.0
  0
LINE
  5
147A
  8
0
 10
53.13276645727121
 20
8.1027974891733301
 30
0.0
 11
53.136331630871197
 21
8.1179553070733306
 31
0.0
  0
LINE
  5
147B
  8
0
 10
53.423296962871213
 20
8.6073194286733319
 30
0.0
 11
53.408241040071211
 21
8.5270211739733313
 31
0.0
  0
ARC
  5
147C
  8
0
 10
52.391657222271213
 20
7.91016096567333
 30
0.0
 40
0.9107795073
 50
12.570221948000061
 51
13.29434001820009
  0
ARC
  5
147D
  8
0
 10
52.391659548171212
 20
7.5165093602733322
 30
0.0
 40
0.9107795073
 50
346.70633703390013
 51
347.43045510419989
  0
ARC
  5
147E
  8
0
 10
53.727453769171213
 20
7.6397235104733312
 30
0.0
 40
0.6304252605
 50
129.75679456889961
 51
135.04466581849979
  0
CIRCLE
  5
147F
  8
0
 10
53.6933284146712
 20
7.7131538386733309
 30
0.0
 40
0.3560093122
  0
ARC
  5
1480
  8
0
 10
54.022332197771213
 20
8.618376740773332
 30
0.0
 40
0.06
 50
143.56087119360001
 51
190.61965527609999
  0
ARC
  5
1481
  8
0
 10
53.364324631571208
 20
8.618376740773332
 30
0.0
 40
0.06
 50
349.38034472390029
 51
36.439128806399978
  0
ARC
  5
1482
  8
0
 10
53.948452841144288
 20
8.5236925138987942
 30
0.0
 40
0.0300631979532406
 50
318.91907612130962
 51
10.561237792125571
  0
ARC
  5
1483
  8
0
 10
53.437948584432888
 20
8.5215064576749704
 30
0.0
 40
0.0302150672323112
 50
169.48368850439181
 51
215.55411084595309
  0
ARC
  5
1484
  8
0
 10
53.248821770268947
 20
8.112687110509416
 30
0.0
 40
0.0300139885279254
 50
13.312106826061861
 51
90.982976263096816
  0
ARC
  5
1485
  8
0
 10
53.248826489305749
 20
7.3139933444465584
 30
0.0
 40
0.030013988554071
 50
269.01770087847439
 51
346.6885702358835
  0
ARC
  5
1486
  8
0
 10
53.165488366999917
 20
7.315323160550558
 30
0.0
 40
0.0298896619554795
 50
192.74003822125971
 51
269.0658349064019
  0
ARC
  5
1487
  8
0
 10
53.165483605509181
 20
8.1113564693365419
 30
0.0
 40
0.0298895012465829
 50
90.934735509464744
 51
167.24547667777281
  0
ARC
  5
1488
  8
0
 10
53.1035680363712
 20
7.3170125733733293
 30
0.0
 40
0.03
 50
13.23628373979993
 51
89.789546947000105
  0
ARC
  5
1489
  8
0
 10
53.014373567771209
 20
8.0240228033733292
 30
0.0
 40
0.03
 50
304.16295813160019
 51
358.74180176610002
  0
ARC
  5
148A
  8
0
 10
53.103563353071223
 20
8.1096661649733282
 30
0.0
 40
0.03
 50
270.211130105
 51
346.76439331220013
  0
ARC
  5
148B
  8
0
 10
53.251263527289503
 20
8.1018359227991645
 30
0.0
 40
0.030062589784302
 50
0.0007527745597618
 51
12.571692476555461
  0
ARC
  5
148C
  8
0
 10
53.251267865214693
 20
7.3248446116302084
 30
0.0
 40
0.0300628476500414
 50
347.4289952027047
 51
0.0333527508951815
  0
ARC
  5
148D
  8
0
 10
54.204333489362739
 20
8.0300828096621828
 30
0.0
 40
0.0300000000133451
 50
359.99896678740618
 51
70.370178528521649
  0
ARC
  5
148E
  8
0
 10
54.4461722166672
 20
8.7021957556788614
 30
0.0
 40
0.6842982264573246
 50
237.44992037065589
 51
250.20331807780269
  0
ARC
  5
148F
  8
0
 10
54.183187455718389
 20
8.3594504118534303
 30
0.0
 40
0.2566157085118644
 50
145.73318137982099
 51
245.79999461895829
  0
ARC
  5
1490
  8
0
 10
53.673718711567091
 20
8.8836596599972033
 30
0.0
 40
0.378078523513493
 50
322.59827307538899
 51
87.026920275833433
  0
ARC
  5
1491
  8
0
 10
53.7132154761183
 20
8.8835314284536651
 30
0.0
 40
0.3782210647450567
 50
93.014031971438982
 51
217.3607746777557
  0
ARC
  5
1492
  8
0
 10
53.172685360510592
 20
8.3601910819626433
 30
0.0
 40
0.280339841437129
 50
302.73438453729659
 51
30.847637118442272
  0
LINE
  5
1493
  8
0
 10
53.963359866571203
 20
6.8189882485733291
 30
0.0
 11
53.97800675567121
 21
6.8971049902733297
 31
0.0
  0
LINE
  5
1494
  8
0
 10
53.423296962871213
 20
6.8189882485733291
 30
0.0
 11
53.408241040071211
 21
6.8992865032733297
 31
0.0
  0
ARC
  5
1495
  8
0
 10
53.727453769171213
 20
7.7865841667733298
 30
0.0
 40
0.6304252605
 50
224.95533418149981
 51
230.24320543110031
  0
ARC
  5
1496
  8
0
 10
54.022266311690743
 20
6.8079296195824091
 30
0.0
 40
0.0599354865979931
 50
169.36750011070379
 51
216.47551967974081
  0
ARC
  5
1497
  8
0
 10
53.364324631571208
 20
6.8079309364733289
 30
0.0
 40
0.06
 50
323.56087119360001
 51
10.619655276100071
  0
ARC
  5
1498
  8
0
 10
53.948452846210941
 20
6.902615163607507
 30
0.0
 40
0.0300631930200044
 50
349.43875995156048
 51
41.082768562385489
  0
ARC
  5
1499
  8
0
 10
53.437949022714548
 20
6.9048012131586241
 30
0.0
 40
0.0302154969817898
 50
144.44476308987419
 51
190.51614785306441
  0
ARC
  5
149A
  8
0
 10
54.204333489371209
 20
7.3962248675733298
 30
0.0
 40
0.03
 50
289.62982146339988
 51
0.0
  0
ARC
  5
149B
  8
0
 10
54.446171988284149
 20
6.7241124599955198
 30
0.0
 40
0.6842976425009234
 50
109.7966791985549
 51
122.5500951755309
  0
ARC
  5
149C
  8
0
 10
54.183187559198231
 20
7.0668571443747972
 30
0.0
 40
0.2566158413147405
 50
114.2000346919753
 51
214.26656941834949
  0
ARC
  5
149D
  8
0
 10
53.6737120782348
 20
6.5426577402589832
 30
0.0
 40
0.378088624766203
 50
272.97400679655942
 51
37.399919644778947
  0
ARC
  5
149E
  8
0
 10
53.71321552752422
 20
6.5427762431412591
 30
0.0
 40
0.378221109033695
 50
142.6392293673521
 51
266.98596058367912
  0
ARC
  5
149F
  8
0
 10
53.172685360510592
 20
7.0661165952840177
 30
0.0
 40
0.2803398414371273
 50
329.15253585338547
 51
57.265615462703821
  0
ARC
  5
14A0
  8
0
 10
53.097998113152542
 20
8.0134024774366672
 30
0.0
 40
0.0665065247821098
 50
85.104319497578715
 51
125.9732247563104
  0
ARC
  5
14A1
  8
0
 10
53.102096440045592
 20
8.0285424875554128
 30
0.0
 40
0.0579618937596998
 50
138.13409445132561
 51
185.12574482093541
  0
ARC
  5
14A2
  8
0
 10
53.146158727453468
 20
7.8110965277905917
 30
0.0
 40
0.2204396283694594
 50
121.4266587563588
 51
163.644399175795
  0
ARC
  5
14A3
  8
0
 10
53.543561317282602
 20
7.7006502236615146
 30
0.0
 40
0.6328895672954228
 50
164.1813390081831
 51
178.86796841806071
  0
ARC
  5
14A4
  8
0
 10
53.014373567771209
 20
7.4026559362733302
 30
0.0
 40
0.03
 50
1.2581982339000131
 51
55.83704186839978
  0
ARC
  5
14A5
  8
0
 10
53.097999409404963
 20
7.4132789488998654
 30
0.0
 40
0.0665094605276233
 50
234.0272310762698
 51
274.89808589045111
  0
ARC
  5
14A6
  8
0
 10
53.102096440045592
 20
7.3981362520912484
 30
0.0
 40
0.0579618937596998
 50
174.87425517906451
 51
221.86590554867431
  0
ARC
  5
14A7
  8
0
 10
53.146158727010722
 20
7.6155822113640168
 30
0.0
 40
0.2204396277187358
 50
196.35560125571561
 51
238.57334127515441
  0
ARC
  5
14A8
  8
0
 10
53.482691876403379
 20
7.7169667034198781
 30
0.0
 40
0.5719093113406761
 50
180.3819883235719
 51
196.60752829556
  0
LINE
  5
14A9
  8
0
 10
53.971113945171197
 20
8.5039372554733301
 30
0.0
 11
53.413366610918729
 21
8.5039372554733301
 31
0.0
  0
LINE
  5
14AA
  8
0
 10
53.97111331047121
 20
6.9223711483733288
 30
0.0
 11
53.413367044876971
 21
6.9223711483733288
 31
0.0
  0
ARC
  5
14AB
  8
0
 10
52.454162950579637
 20
8.0007548408596065
 30
0.0
 40
0.8238675383819675
 50
351.6918295076473
 51
8.308954337329121
  0
ARC
  5
14AC
  8
0
 10
51.63443025486594
 20
7.713328967495773
 30
0.0
 40
1.643601482435352
 50
354.12084948039569
 51
5.8799986848816621
  0
ARC
  5
14AD
  8
0
 10
52.454042735881821
 20
7.4259160830473787
 30
0.0
 40
0.8239905780653597
 50
351.69296991350387
 51
8.3077091481666834
  0
ARC
  5
14AE
  8
0
 10
53.24009419863593
 20
7.3143680440342074
 30
0.0
 40
0.0302387618883767
 50
269.73415782934592
 51
345.63896783927862
  0
ARC
  5
14AF
  8
0
 10
53.240095826235169
 20
8.1123216774293496
 30
0.0
 40
0.0302295460566502
 50
14.347514365967109
 51
90.260256801390597
  0
ARC
  5
14B0
  8
0
 10
53.958093488702403
 20
7.9999130409889458
 30
0.0
 40
0.8217614293464153
 50
171.6951065962196
 51
188.30557042692479
  0
ARC
  5
14B1
  8
0
 10
54.775423372177507
 20
7.7133492472085763
 30
0.0
 40
1.639090272620656
 50
174.122064080869
 51
185.87861225134381
  0
ARC
  5
14B2
  8
0
 10
53.95797262574353
 20
7.4267758111374071
 30
0.0
 40
0.8216384859573892
 50
171.69385484606161
 51
188.30682311755069
  0
ARC
  5
14B3
  8
0
 10
53.174260890445339
 20
7.3155155742934994
 30
0.0
 40
0.0302375268413336
 50
194.25415759335641
 51
268.27094372367998
  0
ARC
  5
14B4
  8
0
 10
53.1742562139722
 20
8.1111639734807603
 30
0.0
 40
0.0302375568165992
 50
91.730261490634376
 51
165.74648250342179
  0
ARC
  5
14B5
  8
0
 10
53.174272335783101
 20
7.8665648793640619
 30
0.0
 40
0.0327743301116903
 50
91.616958025674634
 51
153.4630488793417
  0
ARC
  5
14B6
  8
0
 10
53.239811395394177
 20
7.8665989036375619
 30
0.0
 40
0.0332090220541314
 50
27.0633667510055
 51
89.756290111196975
  0
ARC
  5
14B7
  8
0
 10
53.174176395405539
 20
7.5599613666711072
 30
0.0
 40
0.0326185001489023
 50
206.37335782887291
 51
268.54775842382298
  0
ARC
  5
14B8
  8
0
 10
53.239436175139311
 20
7.5606939873573893
 30
0.0
 40
0.0338253004259628
 50
270.87860906054919
 51
332.30645215385908
  0
ARC
  5
14B9
  8
0
 10
56.711583574242063
 20
8.80416726663044
 30
0.0
 40
0.0292996586902091
 50
193.36252807403369
 51
278.01527949236981
  0
ARC
  5
14BA
  8
0
 10
56.424878036845811
 20
8.7829395751258907
 30
0.0
 40
0.029635741690773
 50
261.18554718516299
 51
355.76414788476882
  0
ARC
  5
14BB
  8
0
 10
56.364625094927092
 20
8.7247681379409983
 30
0.0
 40
0.0290109083428153
 50
84.674889169321943
 51
143.63942401106951
  0
ARC
  5
14BC
  8
0
 10
55.4301476102384
 20
9.7897215103956547
 30
0.0
 40
1.388495053939983
 50
275.6607499556344
 51
311.00985489337592
  0
ARC
  5
14BD
  8
0
 10
52.960292253640922
 20
42.519586937557591
 30
0.0
 40
34.21105089983412
 50
273.4603624752271
 51
274.37005993678463
  0
ARC
  5
14BE
  8
0
 10
55.029784445127802
 20
7.9755908638084696
 30
0.0
 40
0.3953455365369489
 50
90.663954628649961
 51
136.01660443867161
  0
ARC
  5
14BF
  8
0
 10
54.720044521249882
 20
8.2663094721866202
 30
0.0
 40
0.0300033718195897
 50
213.5479528984396
 51
327.3863763073519
  0
ARC
  5
14C0
  8
0
 10
54.670032365505477
 20
8.2331518433348201
 30
0.0
 40
0.030001995357915
 50
33.540118178164242
 51
89.997939464312623
  0
ARC
  5
14C1
  8
0
 10
54.452643691776778
 20
8.2172462481634625
 30
0.0
 40
0.029637391833338
 50
267.3364246232947
 51
352.46335113233818
  0
ARC
  5
14C2
  8
0
 10
54.461197345456419
 20
8.0012314251112571
 30
0.0
 40
0.1866737984960872
 50
93.049544149426765
 51
143.09350923726601
  0
ARC
  5
14C3
  8
0
 10
54.613525370052869
 20
7.9067320600782507
 30
0.0
 40
0.3655721430445654
 50
145.58807009767619
 51
171.12157886248519
  0
LINE
  5
14C4
  8
0
 10
57.361736307671208
 20
4.819153838673329
 30
0.0
 11
57.321747854571207
 21
4.819153838673329
 31
0.0
  0
LINE
  5
14C5
  8
0
 10
54.482025051171213
 20
7.2129486794733308
 30
0.0
 11
54.489510976671198
 21
7.1853107397733309
 31
0.0
  0
LINE
  5
14C6
  8
0
 10
56.71566903597121
 20
6.6511538386733298
 30
0.0
 11
56.809901287971201
 21
6.6511538386733298
 31
0.0
  0
LINE
  5
14C7
  8
0
 10
56.367317509471206
 20
6.6726538386733303
 30
0.0
 11
56.420336800671208
 21
6.6726538386733303
 31
0.0
  0
LINE
  5
14C8
  8
0
 10
54.518467598671208
 20
7.1631536441788901
 30
0.0
 11
54.670033444471208
 21
7.1631538386733311
 31
0.0
  0
LINE
  5
14C9
  8
0
 10
54.252333489371203
 20
7.4731538386733334
 30
0.0
 11
54.23433348937121
 21
7.4731538386733334
 31
0.0
  0
LINE
  5
14CA
  8
0
 10
57.271757635571213
 20
4.8681649004733307
 30
0.0
 11
57.252736205626128
 21
6.1391022830374018
 31
0.0
  0
ARC
  5
14CB
  8
0
 10
54.518474426970819
 20
7.193162502653724
 30
0.0
 40
0.0300088592516987
 50
195.16788077114001
 51
269.98696275825517
  0
ARC
  5
14CC
  8
0
 10
56.86475629667121
 20
6.135153838673328
 30
0.0
 40
0.3880000000000014
 50
0.5830750047357532
 51
88.125667000599549
  0
ARC
  5
14CD
  8
0
 10
56.571333489371199
 20
6.6726538386733303
 30
0.0
 40
0.12
 50
193.0503049399
 51
338.62219250310011
  0
ARC
  5
14CE
  8
0
 10
56.879736307671209
 20
6.5929087941733293
 30
0.0
 40
0.07
 50
183.9345034431
 51
268.12566700059989
  0
ARC
  5
14CF
  8
0
 10
57.321747854571207
 20
4.8691538386733297
 30
0.0
 40
0.05
 50
181.13331362849991
 51
270.0
  0
ARC
  5
14D0
  8
0
 10
57.807145384656849
 20
4.8326133645345939
 30
0.0
 40
0.3959574498878577
 50
187.6360621531654
 51
265.01465437731042
  0
ARC
  5
14D1
  8
0
 10
56.711583574242063
 20
6.6221404107162201
 30
0.0
 40
0.0292996586902091
 50
81.984720507629802
 51
166.637471925966
  0
ARC
  5
14D2
  8
0
 10
56.424878036845811
 20
6.643368102220772
 30
0.0
 40
0.029635741690773
 50
4.2358521152309709
 51
98.814452814836613
  0
ARC
  5
14D3
  8
0
 10
56.364625094927092
 20
6.7015395394056609
 30
0.0
 40
0.0290109083428153
 50
216.36057598893001
 51
275.325110830678
  0
ARC
  5
14D4
  8
0
 10
55.4301476102384
 20
5.6365861669510116
 30
0.0
 40
1.388495053939983
 50
48.99014510662407
 51
84.339250044365585
  0
ARC
  5
14D5
  8
0
 10
52.960292253640901
 20
-27.09327926021092
 30
0.0
 40
34.21105089983412
 50
85.629940063214974
 51
86.539637524772857
  0
ARC
  5
14D6
  8
0
 10
55.029784445127802
 20
7.4507168135381932
 30
0.0
 40
0.3953455365369489
 50
223.98339556132791
 51
269.33604537134971
  0
ARC
  5
14D7
  8
0
 10
54.720044521249882
 20
7.1599982051600426
 30
0.0
 40
0.0300033718195897
 50
32.613623692648041
 51
146.45204710156091
  0
ARC
  5
14D8
  8
0
 10
54.670032365505477
 20
7.1931558340118427
 30
0.0
 40
0.030001995357915
 50
270.00206053568741
 51
326.45988182183561
  0
ARC
  5
14D9
  8
0
 10
54.452643691776778
 20
7.2090614291832011
 30
0.0
 40
0.029637391833338
 50
7.5366488676615448
 51
92.66357537670531
  0
ARC
  5
14DA
  8
0
 10
54.461197345456419
 20
7.4250762522354057
 30
0.0
 40
0.1866737984960872
 50
216.90649076273399
 51
266.95045585057278
  0
ARC
  5
14DB
  8
0
 10
54.613525370052869
 20
7.5195756172684121
 30
0.0
 40
0.3655721430445654
 50
188.87842113751469
 51
214.41192990232381
  0
LINE
  5
14DC
  8
0
 10
54.69299485907122
 20
8.2524610021642602
 30
0.0
 11
54.69299485907122
 21
7.1738466751824026
 31
0.0
  0
ARC
  5
14DD
  8
0
 10
54.654488134249817
 20
8.2334092470376987
 30
0.0
 40
0.0297447267030886
 50
17.92281750060544
 51
89.840519737467844
  0
ARC
  5
14DE
  8
0
 10
53.509908974512861
 20
8.0875024394505957
 30
0.0
 40
1.1830858845583541
 50
352.4689052542675
 51
7.531098182143066
  0
ARC
  5
14DF
  8
0
 10
52.331930664132422
 20
7.7131541133249639
 30
0.0
 40
2.3610641949388032
 50
354.67081866852942
 51
5.3291288644285508
  0
ARC
  5
14E0
  8
0
 10
53.50993277083078
 20
7.3388036813628821
 30
0.0
 40
1.1830620882407521
 50
352.4688256723615
 51
7.5312448162844907
  0
ARC
  5
14E1
  8
0
 10
54.654488155789231
 20
7.192898418080957
 30
0.0
 40
0.0297447005769287
 50
270.1635419919146
 51
342.07719826629659
  0
ARC
  5
14E2
  8
0
 10
54.530147546379879
 20
8.2332559005897323
 30
0.0
 40
0.0298980330947894
 50
90.144445433298685
 51
166.17566657778499
  0
ARC
  5
14E3
  8
0
 10
55.522827535725291
 20
8.0859730455376582
 30
0.0
 40
1.0333165013705139
 50
171.40507349608029
 51
188.5949189475416
  0
ARC
  5
14E4
  8
0
 10
56.550508084265878
 20
7.7131538398001283
 30
0.0
 40
2.0609961238164529
 50
173.91726023533039
 51
186.08273986961061
  0
ARC
  5
14E5
  8
0
 10
55.522831026944672
 20
7.3403345945385681
 30
0.0
 40
1.0333199585600219
 50
171.4051080216492
 51
188.59489542885811
  0
ARC
  5
14E6
  8
0
 10
54.530147074305098
 20
7.19305118983997
 30
0.0
 40
0.0298974449932768
 50
193.82345203803209
 51
269.85645641731531
  0
ARC
  5
14E7
  8
0
 10
54.652755203149127
 20
7.9151483600958734
 30
0.0
 40
0.0346573306497422
 50
29.933526962231529
 51
86.996855281915543
  0
ARC
  5
14E8
  8
0
 10
54.530363823473103
 20
7.9171680568044742
 30
0.0
 40
0.0325913426510449
 50
90.512731789912294
 51
153.82157349013329
  0
ARC
  5
14E9
  8
0
 10
54.652744285138802
 20
7.5111783641746817
 30
0.0
 40
0.0346769249224356
 50
273.01950722956639
 51
330.04574051944883
  0
ARC
  5
14EA
  8
0
 10
54.530521577009402
 20
7.5093904493700299
 30
0.0
 40
0.0328439408533711
 50
206.4497047563373
 51
269.21599512336309
  0
ARC
  5
14EB
  8
0
 10
57.365575334888803
 20
4.7689491936237411
 30
0.0
 40
0.0503512116491006
 50
12.67635440534859
 51
94.372759359097358
  0
ARC
  5
14EC
  8
0
 10
56.493289519104621
 20
5.7597077891034134
 30
0.0
 40
0.0284884222429243
 50
356.9020192336846
 51
93.125361129064785
  0
ARC
  5
14ED
  8
0
 10
56.425521322915912
 20
5.8169699937869161
 30
0.0
 40
0.028841757635174
 50
185.81049018086861
 51
272.41435023609392
  0
ARC
  5
14EE
  8
0
 10
56.117759077368092
 20
5.762132972160912
 30
0.0
 40
0.0263230669744426
 50
81.309729072376854
 51
188.66281069454601
  0
ARC
  5
14EF
  8
0
 10
56.198879069442413
 20
5.8159976696686666
 30
0.0
 40
0.0279261589285935
 50
265.59939502260841
 51
355.97379182971582
  0
LINE
  5
14F0
  8
0
 10
56.121736307671213
 20
5.0381538382733293
 30
0.0
 11
56.196736307671202
 21
5.0381538382733293
 31
0.0
  0
LINE
  5
14F1
  8
0
 10
56.426736307671213
 20
5.0381538382733293
 30
0.0
 11
56.491736307671211
 21
5.0381538382733293
 31
0.0
  0
ARC
  5
14F2
  8
0
 10
56.311736307671211
 20
4.9981538382733293
 30
0.0
 40
0.085
 50
180.0
 51
0.0
  0
ARC
  5
14F3
  8
0
 10
56.493289519104621
 20
5.0665998878432452
 30
0.0
 40
0.0284884222429243
 50
266.8746388709352
 51
3.0979807663154761
  0
ARC
  5
14F4
  8
0
 10
56.425521322915912
 20
5.0093376831597416
 30
0.0
 40
0.028841757635174
 50
87.585649763906034
 51
174.18950981913139
  0
ARC
  5
14F5
  8
0
 10
56.1231919085699
 20
5.0696101404127702
 30
0.0
 40
0.0314899621826433
 50
182.67686057518071
 51
267.35059965789111
  0
ARC
  5
14F6
  8
0
 10
56.198879069442413
 20
5.0103100072779911
 30
0.0
 40
0.0279261589285935
 50
4.0262081702841916
 51
94.400604977391524
  0
ARC
  5
14F7
  8
0
 10
57.807145384656849
 20
10.593694312812071
 30
0.0
 40
0.3959574498878577
 50
94.985345622689593
 51
171.36161060919829
  0
ENDSEC
  0
EOF
