  0
SECTION
  2
HEADER
  9
$ACADVER
  1
AC1009
  9
$INSBASE
 10
35.700285638532172
 20
4.1807456734999997
 30
0.0
  9
$EXTMIN
 10
32.425285638532173
 20
0.9057456735000005
 30
0.0
  9
$EXTMAX
 10
38.975285638532164
 20
7.4557456735000001
 30
0.0
  9
$LIMMIN
 10
0.0
 20
0.0
  9
$LIMMAX
 10
11.692913385800001
 20
8.2677165353999982
  9
$ORTHOMODE
 70
     1
  9
$REGENMODE
 70
     1
  9
$FILLMODE
 70
     1
  9
$QTEXTMODE
 70
     0
  9
$MIRRTEXT
 70
     0
  9
$DRAGMODE
 70
     2
  9
$LTSCALE
 40
0.6431102362
  9
$OSMODE
 70
  3071
  9
$ATTMODE
 70
     1
  9
$TEXTSIZE
 40
0.2
  9
$TRACEWID
 40
0.05
  9
$TEXTSTYLE
  7
STANDARD
  9
$CLAYER
  8
0
  9
$CELTYPE
  6
BYLAYER
  9
$CECOLOR
 62
   256
  9
$DIMSCALE
 40
1.0
  9
$DIMASZ
 40
0.1875
  9
$DIMEXO
 40
0.0625
  9
$DIMDLI
 40
0.4443307087
  9
$DIMRND
 40
0.0
  9
$DIMDLE
 40
0.0
  9
$DIMEXE
 40
0.125
  9
$DIMTP
 40
0.01
  9
$DIMTM
 40
0.01
  9
$DIMTXT
 40
0.5
  9
$DIMCEN
 40
0.1052362205
  9
$DIMTSZ
 40
0.0
  9
$DIMTOL
 70
     1
  9
$DIMLIM
 70
     0
  9
$DIMTIH
 70
     1
  9
$DIMTOH
 70
     1
  9
$DIMSE1
 70
     0
  9
$DIMSE2
 70
     0
  9
$DIMTAD
 70
     0
  9
$DIMZIN
 70
     0
  9
$DIMBLK
  1

  9
$DIMASO
 70
     1
  9
$DIMSHO
 70
     1
  9
$DIMPOST
  1
\X
  9
$DIMAPOST
  1

  9
$DIMALT
 70
     1
  9
$DIMALTD
 70
     2
  9
$DIMALTF
 40
25.399999999999999
  9
$DIMLFAC
 40
1.0
  9
$DIMTOFL
 70
     0
  9
$DIMTVP
 40
0.0
  9
$DIMTIX
 70
     0
  9
$DIMSOXD
 70
     0
  9
$DIMSAH
 70
     0
  9
$DIMBLK1
  1

  9
$DIMBLK2
  1

  9
$DIMSTYLE
  2
STANDARD
  9
$DIMCLRD
 70
     0
  9
$DIMCLRE
 70
     0
  9
$DIMCLRT
 70
     0
  9
$DIMTFAC
 40
1.0
  9
$DIMGAP
 40
0.09
  9
$LUNITS
 70
     2
  9
$LUPREC
 70
     4
  9
$SKETCHINC
 40
0.1
  9
$FILLETRAD
 40
0.0
  9
$AUNITS
 70
     0
  9
$AUPREC
 70
     0
  9
$MENU
  1
.
  9
$ELEVATION
 40
0.0
  9
$PELEVATION
 40
0.0
  9
$THICKNESS
 40
0.0
  9
$LIMCHECK
 70
     0
  9
$BLIPMODE
 70
     0
  9
$CHAMFERA
 40
0.0
  9
$CHAMFERB
 40
0.0
  9
$SKPOLY
 70
     0
  9
$TDCREATE
 40
2458194.5325210299
  9
$TDUPDATE
 40
2458194.7177345371
  9
$TDINDWG
 40
0.1164457986
  9
$TDUSRTIMER
 40
0.1164457986
  9
$USRTIMER
 70
     1
  9
$ANGBASE
 50
0.0
  9
$ANGDIR
 70
     0
  9
$PDMODE
 70
     0
  9
$PDSIZE
 40
0.3125
  9
$PLINEWID
 40
0.0
  9
$COORDS
 70
     1
  9
$SPLFRAME
 70
     0
  9
$SPLINETYPE
 70
     6
  9
$SPLINESEGS
 70
     8
  9
$ATTDIA
 70
     1
  9
$ATTREQ
 70
     1
  9
$HANDLING
 70
     1
  9
$HANDSEED
  5
13A2
  9
$SURFTAB1
 70
     6
  9
$SURFTAB2
 70
     6
  9
$SURFTYPE
 70
     6
  9
$SURFU
 70
     6
  9
$SURFV
 70
     6
  9
$UCSNAME
  2

  9
$UCSORG
 10
0.0
 20
0.0
 30
0.0
  9
$UCSXDIR
 10
1.0
 20
0.0
 30
0.0
  9
$UCSYDIR
 10
0.0
 20
1.0
 30
0.0
  9
$PUCSNAME
  2

  9
$PUCSORG
 10
0.0
 20
0.0
 30
0.0
  9
$PUCSXDIR
 10
1.0
 20
0.0
 30
0.0
  9
$PUCSYDIR
 10
0.0
 20
1.0
 30
0.0
  9
$USERI1
 70
     0
  9
$USERI2
 70
     0
  9
$USERI3
 70
     0
  9
$USERI4
 70
     0
  9
$USERI5
 70
     0
  9
$USERR1
 40
0.0
  9
$USERR2
 40
0.0
  9
$USERR3
 40
0.0
  9
$USERR4
 40
0.0
  9
$USERR5
 40
0.0
  9
$WORLDVIEW
 70
     1
  9
$SHADEDGE
 70
     3
  9
$SHADEDIF
 70
    70
  9
$TILEMODE
 70
     1
  9
$MAXACTVP
 70
    64
  9
$PLIMCHECK
 70
     0
  9
$PEXTMIN
 10
1.0000000000000000E+020
 20
1.0000000000000000E+020
 30
1.0000000000000000E+020
  9
$PEXTMAX
 10
-1.0000000000000000E+020
 20
-1.0000000000000000E+020
 30
-1.0000000000000000E+020
  9
$PLIMMIN
 10
0.0
 20
0.0
  9
$PLIMMAX
 10
12.0
 20
9.0
  9
$UNITMODE
 70
     0
  9
$VISRETAIN
 70
     1
  9
$PLINEGEN
 70
     0
  9
$PSLTSCALE
 70
     1
  0
ENDSEC
  0
SECTION
  2
TABLES
  0
TABLE
  2
VPORT
 70
     1
  0
VPORT
  2
*ACTIVE
 70
     0
 10
0.0
 20
0.0
 11
1.0
 21
1.0
 12
0.0
 22
0.0
 13
0.0
 23
0.0
 14
1.0
 24
1.0
 15
0.0
 25
0.0
 16
-0.0000000000000071
 26
0.0
 36
26.003464082424468
 17
35.707700365318743
 27
4.1807456734999988
 37
0.0
 40
9.2482594790468369
 41
2.0983240223463682
 42
50.0
 43
0.0
 44
0.0
 50
0.0
 51
0.0
 71
     0
 72
   100
 73
     1
 74
     1
 75
     0
 76
     0
 77
     0
 78
     0
  0
ENDTAB
  0
TABLE
  2
LTYPE
 70
     2
  0
LTYPE
  2
CONTINUOUS
 70
     0
  3
Solid line
 72
    65
 73
     0
 40
0.0
  0
LTYPE
  2
PHANTOM2
 70
     0
  3
___ _ _ ___ _ _ ___ _ _ ___ _ _
 72
    65
 73
     6
 40
1.25
 49
0.625
 49
-0.125
 49
0.125
 49
-0.125
 49
0.125
 49
-0.125
  0
ENDTAB
  0
TABLE
  2
LAYER
 70
     2
  0
LAYER
  2
0
 70
     0
 62
   255
  6
CONTINUOUS
  0
LAYER
  2
DEFPOINTS
 70
     0
 62
     7
  6
CONTINUOUS
  0
ENDTAB
  0
TABLE
  2
STYLE
 70
     1
  0
STYLE
  2
STANDARD
 70
     0
 40
0.0
 41
0.8
 50
0.0
 71
     0
 42
0.2
  3
txt
  4

  0
ENDTAB
  0
TABLE
  2
VIEW
 70
     0
  0
ENDTAB
  0
TABLE
  2
UCS
 70
     0
  0
ENDTAB
  0
TABLE
  2
APPID
 70
     9
  0
APPID
  2
ACAD
 70
     0
  0
APPID
  2
ACAD_MLEADERVER
 70
     0
  0
APPID
  2
ACAD_EXEMPT_FROM_CAD_STANDARDS
 70
     0
  0
APPID
  2
ACAD_DSTYLE_DIMJAG
 70
     0
  0
APPID
  2
ACAD_DSTYLE_DIMTALN
 70
     0
  0
APPID
  2
ACAD_NAV_VCDISPLAY
 70
     0
  0
APPID
  2
ACAECLAYERSTANDARD
 70
     0
  0
APPID
  2
ACCMTRANSPARENCY
 70
     0
  0
APPID
  2
AcDbAttr
 70
     0
  0
ENDTAB
  0
TABLE
  2
DIMSTYLE
 70
     1
  0
DIMSTYLE
  2
STANDARD
 70
     0
  3

  4

  5

  6

  7

 40
1.0
 41
0.1875
 42
0.0625
 43
0.38
 44
0.125
 45
0.0
 46
0.0
 47
0.01
 48
0.01
140
0.15625
141
0.09
142
0.0
143
25.399999999999999
144
1.0
145
0.0
146
1.0
147
0.09
 71
     1
 72
     0
 73
     1
 74
     1
 75
     0
 76
     0
 77
     0
 78
     4
170
     0
171
     2
172
     0
173
     0
174
     0
175
     0
176
     0
177
     0
178
     0
  0
ENDTAB
  0
ENDSEC
  0
SECTION
  2
BLOCKS
  0
BLOCK
  8
0
  2
$MODEL_SPACE
 70
     0
 10
0.0
 20
0.0
 30
0.0
  3
$MODEL_SPACE
  1

  0
ENDBLK
  5
21
  8
0
  0
BLOCK
 67
     1
  8
0
  2
$PAPER_SPACE
 70
     0
 10
0.0
 20
0.0
 30
0.0
  3
$PAPER_SPACE
  1

  0
ENDBLK
  5
1D
 67
     1
  8
0
  0
ENDSEC
  0
SECTION
  2
ENTITIES
  0
CIRCLE
  5
1062
  8
0
 10
35.700285017532167
 20
1.880745673499999
 30
0.0
 40
0.5
  0
CIRCLE
  5
1063
  8
0
 10
35.700285017532167
 20
1.880745673499999
 30
0.0
 40
0.375
  0
CIRCLE
  5
1064
  8
0
 10
35.700285017532167
 20
1.880745673499999
 30
0.0
 40
0.3000000000000003
  0
CIRCLE
  5
1065
  8
0
 10
35.700285017532167
 20
4.1807456734999997
 30
0.0
 40
2.8939999999999988
  0
LINE
  5
1069
  8
0
 10
34.759609733632168
 20
4.4614801557000003
 30
0.0
 11
34.759609733632168
 21
3.9000111913
 31
0.0
  0
LINE
  5
106A
  8
0
 10
35.430439289832158
 20
5.074911263599998
 30
0.0
 11
35.415368805332172
 21
4.9945339412999958
 31
0.0
  0
LINE
  5
106B
  8
0
 10
35.430439289832158
 20
3.2865800835000001
 30
0.0
 11
35.41536850903217
 21
3.366957580999999
 31
0.0
  0
LINE
  5
106C
  8
0
 10
35.97050219353217
 20
3.2865800835000001
 30
0.0
 11
35.98557293283217
 21
3.3669573597000002
 31
0.0
  0
LINE
  5
106D
  8
0
 10
35.97050219353217
 20
5.074911263599998
 30
0.0
 11
35.985572974332172
 21
4.9945337660000009
 31
0.0
  0
LINE
  5
106E
  8
0
 10
36.641331749732167
 20
3.9000111913
 30
0.0
 11
36.641331749732167
 21
4.4614801557000003
 31
0.0
  0
LINE
  5
106F
  8
0
 10
34.806305151632174
 20
3.9107142217000019
 30
0.0
 11
34.88668242783217
 21
3.8956434824000019
 31
0.0
  0
LINE
  5
1070
  8
0
 10
35.41973625943217
 20
3.2398846655000009
 30
0.0
 11
35.981205223832163
 21
3.2398846655000009
 31
0.0
  0
LINE
  5
1071
  8
0
 10
36.594636331732168
 20
4.4507771254000001
 30
0.0
 11
36.514259055532158
 21
4.4658478646999997
 31
0.0
  0
LINE
  5
1072
  8
0
 10
36.594636331732168
 20
3.9107142217000019
 30
0.0
 11
36.514258834132157
 21
3.8956434408999998
 31
0.0
  0
LINE
  5
1073
  8
0
 10
34.806305151632174
 20
4.4507771254000001
 30
0.0
 11
34.886685409694557
 21
4.4658472536980494
 31
0.0
  0
LINE
  5
1074
  8
0
 10
35.981205223832163
 20
5.1216066816000039
 30
0.0
 11
35.41973625943217
 21
5.1216066816000039
 31
0.0
  0
ARC
  5
1075
  8
0
 10
36.029474524732173
 20
3.2755227713999999
 30
0.0
 40
0.06
 50
169.38034472390001
 51
216.43912880639991
  0
ARC
  5
1076
  8
0
 10
35.371466958632169
 20
3.2755227713999999
 30
0.0
 40
0.06
 50
323.56087119360001
 51
10.61965527609995
  0
ARC
  5
1077
  8
0
 10
36.605693643832169
 20
3.8517418904000009
 30
0.0
 40
0.06
 50
53.560871193599972
 51
100.6196552761001
  0
ARC
  5
1078
  8
0
 10
34.795247839532173
 20
3.8517418904000009
 30
0.0
 40
0.06
 50
79.380344723899924
 51
126.43912880640001
  0
ARC
  5
1079
  8
0
 10
35.534990409632172
 20
3.781690596400002
 30
0.0
 40
0.0300038696
 50
225.11556296049989
 51
269.88434459740012
  0
ARC
  5
107A
  8
0
 10
36.099339485632171
 20
4.0154516759000014
 30
0.0
 40
0.0300038656
 50
315.1155568559999
 51
359.88435394230009
  0
ARC
  5
107B
  8
0
 10
35.865578452132169
 20
3.7816906149000018
 30
0.0
 40
0.0300038672
 50
270.11556022109988
 51
314.88434713499993
  0
ARC
  5
107C
  8
0
 10
35.30122935143217
 20
4.0154516268000018
 30
0.0
 40
0.0300038712
 50
180.1155520085
 51
224.88433744379981
  0
CIRCLE
  5
107D
  8
0
 10
35.700285017532167
 20
4.1807456734999997
 30
0.0
 40
0.4046157443000001
  0
CIRCLE
  5
107E
  8
0
 10
35.70028521043217
 20
4.1807456734999997
 30
0.0
 40
0.3663267145
  0
CIRCLE
  5
107F
  8
0
 10
35.700285638532172
 20
4.1807456734999997
 30
0.0
 40
0.2858605479
  0
ARC
  5
1080
  8
0
 10
34.795247839532173
 20
4.5097494566000034
 30
0.0
 40
0.06
 50
233.56087119360001
 51
280.61965527609959
  0
ARC
  5
1081
  8
0
 10
35.301229330632168
 20
4.3460396688000014
 30
0.0
 40
0.0300038713
 50
135.11556133249991
 51
179.8843494814999
  0
ARC
  5
1082
  8
0
 10
35.53499035933217
 20
4.5798007298000041
 30
0.0
 40
0.0300038696
 50
90.115562065399914
 51
134.8843453072999
  0
ARC
  5
1083
  8
0
 10
35.371466958632169
 20
5.0859685756999991
 30
0.0
 40
0.06
 50
349.38034472390001
 51
36.439128806399957
  0
ARC
  5
1084
  8
0
 10
36.099339464732168
 20
4.3460397219999978
 30
0.0
 40
0.0300038656
 50
0.1155532053000423
 51
44.884347855300049
  0
ARC
  5
1085
  8
0
 10
35.865578401432167
 20
4.579800752999998
 30
0.0
 40
0.0300038673
 50
45.115558334599719
 51
89.884346441599988
  0
ARC
  5
1086
  8
0
 10
36.605693643832169
 20
4.5097494566000034
 30
0.0
 40
0.06
 50
259.3803447238999
 51
306.43912880639999
  0
ARC
  5
1087
  8
0
 10
36.029474524732173
 20
5.0859685756999991
 30
0.0
 40
0.06
 50
143.56087119360001
 51
190.61965527609991
  0
ARC
  5
1088
  8
0
 10
36.870975097153313
 20
4.1611327359788302
 30
0.0
 40
0.3780802025461961
 50
2.9735573262013379
 51
127.40125272751671
  0
ARC
  5
1089
  8
0
 10
36.870927644804397
 20
4.2004612480702699
 30
0.0
 40
0.378132928541379
 50
232.6139052015109
 51
357.0112847423303
  0
ARC
  5
108A
  8
0
 10
34.530013838533257
 20
4.200461248012596
 30
0.0
 40
0.378132928511743
 50
182.98871524915259
 51
307.38609480700518
  0
ARC
  5
108B
  8
0
 10
34.529983125548128
 20
4.1610965296219593
 30
0.0
 40
0.378098799199328
 50
52.604094881052781
 51
177.0210950627899
  0
ARC
  5
108C
  8
0
 10
35.720289775198253
 20
5.3511607846475382
 30
0.0
 40
0.3781897698441786
 50
93.032043234286888
 51
217.3715470282005
  0
ARC
  5
108D
  8
0
 10
35.680780836141999
 20
5.3512084407124449
 30
0.0
 40
0.3781160939533533
 50
322.61083745856178
 51
87.043132821024173
  0
ARC
  5
108E
  8
0
 10
35.715920223041863
 20
3.0083164204803028
 30
0.0
 40
0.3759638178753161
 50
141.98030857299599
 51
267.64488135571622
  0
ARC
  5
108F
  8
0
 10
35.680925557345248
 20
3.010209993614017
 30
0.0
 40
0.3780454113209806
 50
272.96354888744543
 51
37.411261166272823
  0
ARC
  5
1090
  8
0
 10
34.892214388529347
 20
4.436337221947821
 30
0.0
 40
0.030023517129995
 50
55.39944243092431
 51
100.6118672421601
  0
ARC
  5
1091
  8
0
 10
35.052684908157183
 20
4.7436465931881582
 30
0.0
 40
0.3169074125236134
 50
243.09154579542141
 51
326.61188061403658
  0
ARC
  5
1092
  8
0
 10
35.145795285282553
 20
4.8275556331661402
 30
0.0
 40
0.31005227173724
 50
303.58113485980903
 51
27.74991254707696
  0
ARC
  5
1093
  8
0
 10
35.445452335582488
 20
4.9891244526034182
 30
0.0
 40
0.0305660164280545
 50
169.80625916736281
 51
214.25384120716441
  0
ARC
  5
1094
  8
0
 10
35.957933906632249
 20
4.9889827508501821
 30
0.0
 40
0.0281909884983455
 50
322.8442087078339
 51
11.35617204807617
  0
ARC
  5
1095
  8
0
 10
36.508748530505329
 20
4.4349113753707146
 30
0.0
 40
0.0314234348550955
 50
79.900184956891749
 51
123.7122445954073
  0
ARC
  5
1096
  8
0
 10
36.508881198757287
 20
3.9272146505327732
 30
0.0
 40
0.0320259307421598
 50
236.7205339851441
 51
279.66661702350592
  0
ARC
  5
1097
  8
0
 10
35.445491009067347
 20
3.372358447863939
 30
0.0
 40
0.0306028490708211
 50
145.7720414162805
 51
190.16494114759831
  0
ARC
  5
1098
  8
0
 10
35.957622232874463
 20
3.3724372120853672
 30
0.0
 40
0.0284828090309088
 50
348.90761342387782
 51
36.891561275114448
  0
ARC
  5
1099
  8
0
 10
34.892210060165098
 20
3.9251673029670662
 30
0.0
 40
0.030036822403251
 50
259.39550102610377
 51
304.59307954150529
  0
ARC
  5
109A
  8
0
 10
36.347886213507152
 20
4.7436465931881511
 30
0.0
 40
0.3169074125236075
 50
213.3881249893152
 51
296.90845420457953
  0
ARC
  5
109B
  8
0
 10
36.25477586135306
 20
4.8275556302005116
 30
0.0
 40
0.3100522952036737
 50
152.24261743378369
 51
236.41886626343009
  0
ARC
  5
109C
  8
0
 10
35.052684877306461
 20
3.617845045945157
 30
0.0
 40
0.3169071380573716
 50
33.388072216526261
 51
116.9084731338471
  0
ARC
  5
109D
  8
0
 10
35.14579555012584
 20
3.533935682685784
 30
0.0
 40
0.3100520228510539
 50
332.25024865159872
 51
56.418919179810118
  0
ARC
  5
109E
  8
0
 10
36.347886213507152
 20
3.6178447538118501
 30
0.0
 40
0.3169074125236075
 50
63.091545795420522
 51
146.6118750106848
  0
ARC
  5
109F
  8
0
 10
36.254775861353068
 20
3.5339357167994878
 30
0.0
 40
0.3100522952036841
 50
123.5811337365713
 51
207.7573825662154
  0
LINE
  5
10A0
  8
0
 10
36.491307826232173
 20
3.900440842100001
 30
0.0
 11
36.491307826232173
 21
4.4610505048999993
 31
0.0
  0
LINE
  5
10A1
  8
0
 10
35.420187933087057
 20
4.9719200541300861
 30
0.0
 11
35.980402016832173
 21
4.9719558351999966
 31
0.0
  0
LINE
  5
10A2
  8
0
 10
34.909263295432169
 20
4.4610505048999993
 30
0.0
 11
34.909263295432169
 21
3.900440842100001
 31
0.0
  0
LINE
  5
10A3
  8
0
 10
35.420188383829313
 20
3.3895721495958262
 30
0.0
 11
35.980402016832173
 21
3.3895355118000001
 31
0.0
  0
LINE
  5
10A4
  8
0
 10
35.534929843412499
 20
4.6098045383715389
 30
0.0
 11
35.865508284852609
 21
4.6098045383715389
 31
0.0
  0
LINE
  5
10A5
  8
0
 10
35.886751506478547
 20
4.6010594377112186
 30
0.0
 11
36.120598182905468
 21
4.3672127910399592
 31
0.0
  0
LINE
  5
10A6
  8
0
 10
36.129343269313068
 20
4.3461002332718737
 30
0.0
 11
36.129343269313068
 21
4.0153815633290977
 31
0.0
  0
LINE
  5
10A7
  8
0
 10
36.12059816859248
 20
3.9942785715046631
 30
0.0
 11
35.886751522033961
 21
3.7604318953268652
 31
0.0
  0
LINE
  5
10A8
  8
0
 10
35.865638967081203
 20
3.7516868087265158
 30
0.0
 11
35.534929844835062
 21
3.7516867879270901
 31
0.0
  0
LINE
  5
10A9
  8
0
 10
35.513817304679087
 20
3.7604319083497071
 30
0.0
 11
35.279970625443617
 21
3.99427855767127
 31
0.0
  0
LINE
  5
10AA
  8
0
 10
35.271225541250018
 20
4.0153911161435589
 30
0.0
 11
35.271225520454102
 21
4.3461002310429091
 31
0.0
  0
LINE
  5
10AB
  8
0
 10
35.279970641978977
 20
4.3672127755567782
 30
0.0
 11
35.513817288414891
 21
4.6010594517490206
 31
0.0
  0
ARC
  5
10AC
  8
0
 10
35.700285017532167
 20
4.1807456734999997
 30
0.0
 40
1.1902075922999991
 50
107.432938872139
 51
162.553590071966
  0
ARC
  5
10AD
  8
0
 10
35.700285017532167
 20
4.1807456734999997
 30
0.0
 40
1.1902075922999991
 50
197.4449724800044
 51
252.472076993782
  0
ARC
  5
10AE
  8
0
 10
35.700285017532167
 20
4.1807456734999997
 30
0.0
 40
1.1902075922999991
 50
287.45691844168721
 51
342.55671982575973
  0
ARC
  5
10AF
  8
0
 10
35.700285017532167
 20
4.1807456734999997
 30
0.0
 40
1.1902075922999991
 50
17.445498050546082
 51
72.546363038759452
  0
ARC
  5
10B0
  8
0
 10
35.700285638532172
 20
4.1807456734999997
 30
0.0
 40
1.028822189503068
 50
107.4050475933463
 51
162.57938679173731
  0
ARC
  5
10B1
  8
0
 10
35.700285638532172
 20
4.1807456734999997
 30
0.0
 40
1.028822189503068
 50
197.42015007849639
 51
252.5643420805543
  0
ARC
  5
10B2
  8
0
 10
35.700285638532172
 20
4.1807456734999997
 30
0.0
 40
1.028822189503068
 50
287.4252123733196
 51
342.59039498863979
  0
ARC
  5
10B3
  8
0
 10
35.700285638532172
 20
4.1807456734999997
 30
0.0
 40
1.028822189503068
 50
17.410315749563662
 51
72.575829207708225
  0
ARC
  5
10B4
  8
0
 10
35.700285638532172
 20
4.1807456734999997
 30
0.0
 40
1.1605004391133951
 50
107.6878922236005
 51
162.29825013051521
  0
ARC
  5
10B5
  8
0
 10
35.700285638532172
 20
4.1807456734999997
 30
0.0
 40
1.1605004391133951
 50
197.70045094851659
 51
252.2262664531024
  0
ARC
  5
10B6
  8
0
 10
35.700285638532172
 20
4.1807456734999997
 30
0.0
 40
1.1605004391133951
 50
287.711286477648
 51
342.3027148465747
  0
ARC
  5
10B7
  8
0
 10
35.700285638532172
 20
4.1807456734999997
 30
0.0
 40
1.1605004391133951
 50
17.699288846766841
 51
72.291671154893095
  0
CIRCLE
  5
10B8
  8
0
 10
35.700285638532172
 20
4.1807456734999997
 30
0.0
 40
3.274999999999999
  0
ATTDEF
  5
128B
  8
DEFPOINTS
 10
35.694294102448659
 20
4.173284692805252
 30
0.0
 40
0.001
  1
METAL
  3

  2
MATERIAL
 70
     0
1001
AcDbAttr
1070
     0
1070
     1
  0
ATTDEF
  5
128C
  8
DEFPOINTS
 10
35.694294102448659
 20
4.1749513594719172
 30
0.0
 40
0.001
  1
VALVE TRIM
  3

  2
PRODUCT
 70
     0
1001
AcDbAttr
1070
     0
1070
     1
  0
ATTDEF
  5
128D
  8
DEFPOINTS
 10
35.694294102448659
 20
4.1766180261385824
 30
0.0
 40
0.001
  1
ARTIFACTS
  3

  2
TRADENAME
 70
     0
1001
AcDbAttr
1070
     0
1070
     1
  0
ATTDEF
  5
128E
  8
DEFPOINTS
 10
35.694294102448659
 20
4.1782846928052466
 30
0.0
 40
0.001
  1
K-T72768-3
  3

  2
MODELNUMBER
 70
     0
1001
AcDbAttr
1070
     0
1070
     1
  0
ENDSEC
  0
EOF
