  0
SECTION
  2
HEADER
  9
$ACADVER
  1
AC1009
  9
$INSBASE
 10
5.8443339467999991
 20
15.079188553699989
 30
0.0
  9
$EXTMIN
 10
2.5690998161524341
 20
10.11376971327782
 30
0.0
  9
$EXTMAX
 10
9.1197400369509438
 20
15.089400399973499
 30
0.0
  9
$LIMMIN
 10
0.0
 20
0.0
  9
$LIMMAX
 10
22.0
 20
17.0
  9
$ORTHOMODE
 70
     0
  9
$REGENMODE
 70
     1
  9
$FILLMODE
 70
     1
  9
$QTEXTMODE
 70
     0
  9
$MIRRTEXT
 70
     0
  9
$DRAGMODE
 70
     2
  9
$LTSCALE
 40
1.2099999999999991
  9
$OSMODE
 70
    47
  9
$ATTMODE
 70
     1
  9
$TEXTSIZE
 40
0.2
  9
$TRACEWID
 40
0.05
  9
$TEXTSTYLE
  7
STANDARD
  9
$CLAYER
  8
0
  9
$CELTYPE
  6
BYLAYER
  9
$CECOLOR
 62
   256
  9
$DIMSCALE
 40
1.0
  9
$DIMASZ
 40
0.1875
  9
$DIMEXO
 40
0.0625
  9
$DIMDLI
 40
0.8359999999999999
  9
$DIMRND
 40
0.0
  9
$DIMDLE
 40
0.0
  9
$DIMEXE
 40
0.125
  9
$DIMTP
 40
0.0
  9
$DIMTM
 40
0.0
  9
$DIMTXT
 40
0.15625
  9
$DIMCEN
 40
0.198
  9
$DIMTSZ
 40
0.0
  9
$DIMTOL
 70
     0
  9
$DIMLIM
 70
     0
  9
$DIMTIH
 70
     1
  9
$DIMTOH
 70
     1
  9
$DIMSE1
 70
     0
  9
$DIMSE2
 70
     0
  9
$DIMTAD
 70
     0
  9
$DIMZIN
 70
     0
  9
$DIMBLK
  1

  9
$DIMASO
 70
     1
  9
$DIMSHO
 70
     1
  9
$DIMPOST
  1

  9
$DIMAPOST
  1

  9
$DIMALT
 70
     0
  9
$DIMALTD
 70
     2
  9
$DIMALTF
 40
25.399999999999999
  9
$DIMLFAC
 40
1.0
  9
$DIMTOFL
 70
     0
  9
$DIMTVP
 40
0.0
  9
$DIMTIX
 70
     0
  9
$DIMSOXD
 70
     0
  9
$DIMSAH
 70
     0
  9
$DIMBLK1
  1

  9
$DIMBLK2
  1

  9
$DIMSTYLE
  2
STANDARD
  9
$DIMCLRD
 70
     0
  9
$DIMCLRE
 70
     0
  9
$DIMCLRT
 70
     0
  9
$DIMTFAC
 40
1.0
  9
$DIMGAP
 40
0.09
  9
$LUNITS
 70
     2
  9
$LUPREC
 70
     4
  9
$SKETCHINC
 40
0.1
  9
$FILLETRAD
 40
0.0
  9
$AUNITS
 70
     0
  9
$AUPREC
 70
     0
  9
$MENU
  1
.
  9
$ELEVATION
 40
0.0
  9
$PELEVATION
 40
0.0
  9
$THICKNESS
 40
0.0
  9
$LIMCHECK
 70
     0
  9
$BLIPMODE
 70
     0
  9
$CHAMFERA
 40
0.0
  9
$CHAMFERB
 40
0.0
  9
$SKPOLY
 70
     0
  9
$TDCREATE
 40
2457351.4503939119
  9
$TDUPDATE
 40
2457415.7250689119
  9
$TDINDWG
 40
0.8058188773
  9
$TDUSRTIMER
 40
0.8058188773
  9
$USRTIMER
 70
     1
  9
$ANGBASE
 50
0.0
  9
$ANGDIR
 70
     0
  9
$PDMODE
 70
     0
  9
$PDSIZE
 40
0.3125
  9
$PLINEWID
 40
0.0
  9
$COORDS
 70
     0
  9
$SPLFRAME
 70
     0
  9
$SPLINETYPE
 70
     6
  9
$SPLINESEGS
 70
     8
  9
$ATTDIA
 70
     1
  9
$ATTREQ
 70
     1
  9
$HANDLING
 70
     1
  9
$HANDSEED
  5
AC3
  9
$SURFTAB1
 70
     6
  9
$SURFTAB2
 70
     6
  9
$SURFTYPE
 70
     6
  9
$SURFU
 70
     6
  9
$SURFV
 70
     6
  9
$UCSNAME
  2

  9
$UCSORG
 10
0.0
 20
0.0
 30
0.0
  9
$UCSXDIR
 10
1.0
 20
0.0
 30
0.0
  9
$UCSYDIR
 10
0.0
 20
1.0
 30
0.0
  9
$PUCSNAME
  2

  9
$PUCSORG
 10
0.0
 20
0.0
 30
0.0
  9
$PUCSXDIR
 10
1.0
 20
0.0
 30
0.0
  9
$PUCSYDIR
 10
0.0
 20
1.0
 30
0.0
  9
$USERI1
 70
     0
  9
$USERI2
 70
     0
  9
$USERI3
 70
     0
  9
$USERI4
 70
     0
  9
$USERI5
 70
     0
  9
$USERR1
 40
0.0
  9
$USERR2
 40
0.0
  9
$USERR3
 40
0.0
  9
$USERR4
 40
0.0
  9
$USERR5
 40
0.0
  9
$WORLDVIEW
 70
     1
  9
$SHADEDGE
 70
     3
  9
$SHADEDIF
 70
    70
  9
$TILEMODE
 70
     1
  9
$MAXACTVP
 70
    48
  9
$PLIMCHECK
 70
     0
  9
$PEXTMIN
 10
1.0000000000000000E+020
 20
1.0000000000000000E+020
 30
1.0000000000000000E+020
  9
$PEXTMAX
 10
-1.0000000000000000E+020
 20
-1.0000000000000000E+020
 30
-1.0000000000000000E+020
  9
$PLIMMIN
 10
0.0
 20
0.0
  9
$PLIMMAX
 10
12.0
 20
9.0
  9
$UNITMODE
 70
     0
  9
$VISRETAIN
 70
     1
  9
$PLINEGEN
 70
     0
  9
$PSLTSCALE
 70
     1
  0
ENDSEC
  0
SECTION
  2
TABLES
  0
TABLE
  2
VPORT
 70
     1
  0
VPORT
  2
*ACTIVE
 70
     0
 10
0.0
 20
0.0
 11
1.0
 21
1.0
 12
1.622067097317142
 22
5.0124689943961149
 13
0.0
 23
0.0
 14
1.0
 24
1.0
 15
0.0
 25
0.0
 16
0.0000000000000009
 26
0.0
 36
4.3497912063375441
 17
5.8445565795935384
 27
11.122654273049999
 37
0.0
 40
9.7897039486106721
 41
2.1244343891402711
 42
50.0
 43
0.0
 44
0.0
 50
0.0
 51
0.000000000000009
 71
     0
 72
   100
 73
     1
 74
     1
 75
     0
 76
     0
 77
     0
 78
     0
  0
ENDTAB
  0
TABLE
  2
LTYPE
 70
     1
  0
LTYPE
  2
CONTINUOUS
 70
     0
  3
Solid line
 72
    65
 73
     0
 40
0.0
  0
ENDTAB
  0
TABLE
  2
LAYER
 70
     2
  0
LAYER
  2
0
 70
     0
 62
     7
  6
CONTINUOUS
  0
LAYER
  2
DEFPOINTS
 70
     0
 62
     7
  6
CONTINUOUS
  0
ENDTAB
  0
TABLE
  2
STYLE
 70
     1
  0
STYLE
  2
STANDARD
 70
     0
 40
0.0
 41
0.8
 50
0.0
 71
     0
 42
0.2
  3
txt
  4

  0
ENDTAB
  0
TABLE
  2
VIEW
 70
     0
  0
ENDTAB
  0
TABLE
  2
UCS
 70
     0
  0
ENDTAB
  0
TABLE
  2
APPID
 70
     5
  0
APPID
  2
ACAD
 70
     0
  0
APPID
  2
ACAD_MLEADERVER
 70
     0
  0
APPID
  2
ACAD_NAV_VCDISPLAY
 70
     0
  0
APPID
  2
ACAD_EXEMPT_FROM_CAD_STANDARDS
 70
     0
  0
APPID
  2
ACDBATTR
 70
     0
  0
ENDTAB
  0
TABLE
  2
DIMSTYLE
 70
     1
  0
DIMSTYLE
  2
STANDARD
 70
     0
  3

  4

  5

  6

  7

 40
1.0
 41
0.1875
 42
0.0625
 43
0.38
 44
0.125
 45
0.0
 46
0.0
 47
1.5
 48
1.5
140
0.15625
141
0.09
142
0.0
143
25.399999999999999
144
1.0
145
0.0
146
1.0
147
0.09
 71
     0
 72
     0
 73
     1
 74
     1
 75
     0
 76
     0
 77
     0
 78
     4
170
     0
171
     2
172
     0
173
     0
174
     0
175
     0
176
     0
177
     0
178
     0
  0
ENDTAB
  0
ENDSEC
  0
SECTION
  2
BLOCKS
  0
BLOCK
  8
0
  2
$MODEL_SPACE
 70
     0
 10
0.0
 20
0.0
 30
0.0
  3
$MODEL_SPACE
  1

  0
ENDBLK
  5
21
  8
0
  0
BLOCK
 67
     1
  8
0
  2
$PAPER_SPACE
 70
     0
 10
0.0
 20
0.0
 30
0.0
  3
$PAPER_SPACE
  1

  0
ENDBLK
  5
1D
 67
     1
  8
0
  0
ENDSEC
  0
SECTION
  2
ENTITIES
  0
LINE
  5
2E4
  8
0
 10
5.5368145263999988
 20
10.233785685200001
 30
0.0
 11
6.1518533672000002
 21
10.233785685200001
 31
0.0
  0
LINE
  5
2E7
  8
0
 10
5.5285252433999998
 20
10.366250103800001
 30
0.0
 11
6.1601424176999986
 21
10.3662494742
 31
0.0
  0
LINE
  5
2EC
  8
0
 10
5.4856685805999987
 20
10.4874765271
 30
0.0
 11
6.2029993128999994
 21
10.4874765271
 31
0.0
  0
LINE
  5
2F5
  8
0
 10
5.5104250116999989
 20
11.1572065801
 30
0.0
 11
6.1782448371000003
 21
11.1572046474
 31
0.0
  0
LINE
  5
2F6
  8
0
 10
2.9503339467999998
 20
14.6723417123
 30
0.0
 11
2.9503339467999998
 21
14.628200100600001
 31
0.0
  0
LINE
  5
2F9
  8
0
 10
6.1408349815999994
 20
11.4445700828
 30
0.0
 11
5.5478329119999996
 21
11.4445700828
 31
0.0
  0
LINE
  5
2FD
  8
0
 10
6.344539106
 20
11.788477246999999
 30
0.0
 11
6.3721770457
 21
11.7959631725
 31
0.0
  0
LINE
  5
304
  8
0
 10
5.6043339467999989
 20
11.540785685199999
 30
0.0
 11
6.0843339467999993
 21
11.540785685199999
 31
0.0
  0
LINE
  5
30B
  8
0
 10
6.3188201643999999
 20
11.7577173113
 30
0.0
 11
5.3698469094999997
 21
11.757718596
 31
0.0
  0
LINE
  5
340
  8
0
 10
4.7823339467999988
 20
14.0221212318
 30
0.0
 11
4.7823339467999988
 21
14.1114745035
 31
0.0
  0
LINE
  5
341
  8
0
 10
4.8038339468000002
 20
13.6737697053
 30
0.0
 11
4.8038339468000002
 21
13.7267889965
 31
0.0
  0
LINE
  5
356
  8
0
 10
4.776737172599999
 20
13.760885023
 30
0.0
 11
6.9119307210000001
 21
13.760885023
 31
0.0
  0
LINE
  5
357
  8
0
 10
6.9285758822999997
 20
13.9895293342
 30
0.0
 11
4.7600920113000003
 21
13.9895293342
 31
0.0
  0
LINE
  5
36C
  8
0
 10
4.7193539251000001
 20
14.111358254500001
 30
0.0
 11
6.9693139683999998
 21
14.111358254500001
 31
0.0
  0
LINE
  5
372
  8
0
 10
6.0843339467999993
 20
11.540785685199999
 30
0.0
 11
6.0843339467999993
 21
11.5587856852
 31
0.0
  0
LINE
  5
373
  8
0
 10
6.0943339467999991
 20
11.5307856852
 30
0.0
 11
6.0943339467999991
 21
11.5030319251
 31
0.0
  0
LINE
  5
374
  8
0
 10
6.1693339467999992
 20
11.395785674400001
 30
0.0
 11
6.1693339467999992
 21
11.1785412236
 31
0.0
  0
LINE
  5
376
  8
0
 10
7.4184019269999997
 20
14.5591886185
 30
0.0
 11
4.2702723512872049
 21
14.55918855364451
 31
0.0
  0
LINE
  5
37C
  8
0
 10
8.7774893412000008
 20
14.721151491300001
 30
0.0
 11
2.9111785522999991
 21
14.721151491300001
 31
0.0
  0
LINE
  5
381
  8
0
 10
6.3943339467999989
 20
11.9764856403
 30
0.0
 11
6.3943339467999989
 21
11.824919791799999
 31
0.0
  0
LINE
  5
388
  8
0
 10
2.5693339468
 20
15.079188553699989
 30
0.0
 11
9.1193339467999994
 21
15.079188553699989
 31
0.0
  0
LINE
  5
38A
  8
0
 10
6.8848339467999988
 20
13.6737697053
 30
0.0
 11
6.8848339467999988
 21
13.7267889965
 31
0.0
  0
LINE
  5
38B
  8
0
 10
6.9063339467999993
 20
14.0221212318
 30
0.0
 11
6.9063339467999993
 21
14.1114745035
 31
0.0
  0
LINE
  5
39E
  8
0
 10
8.7383339467999992
 20
14.6723417123
 30
0.0
 11
8.7383339467999992
 21
14.628200100600001
 31
0.0
  0
ARC
  5
514
  8
0
 10
4.2663339467999988
 20
14.171208542600001
 30
0.0
 40
0.3879999999999999
 50
1.248597758899999
 51
89.41840765389999
  0
ARC
  5
515
  8
0
 10
4.8038339468000002
 20
13.877785685199999
 30
0.0
 40
0.12
 50
111.3778074969
 51
256.9496950601
  0
ARC
  5
517
  8
0
 10
4.7242251996000002
 20
14.1811885537
 30
0.0
 40
0.07
 50
181.24859775889999
 51
266.00958246369999
  0
ARC
  5
519
  8
0
 10
3.0003339468000001
 20
14.628200100600001
 30
0.0
 40
0.05
 50
180.0
 51
268.86668637150001
  0
ARC
  5
51A
  8
0
 10
2.9003339468
 20
14.6723417123
 30
0.0
 40
0.05
 50
0.0
 51
77.473442999599996
  0
ARC
  5
51C
  8
0
 10
5.6101419191999993
 20
146.55238818890001
 30
0.0
 40
132.00000000150001
 50
268.86668637150001
 51
269.41840765389998
  0
ARC
  5
51D
  8
0
 10
5.8443339467999991
 20
10.8193755237
 30
0.0
 40
0.475
 50
331.38944029629999
 51
45.334200196700003
  0
ARC
  5
520
  8
0
 10
7.4223339467999994
 20
14.171208542600001
 30
0.0
 40
0.3879999999999999
 50
90.581592346099995
 51
178.75140224110001
  0
ARC
  5
521
  8
0
 10
6.8848339467999988
 20
13.877785685199999
 30
0.0
 40
0.12
 50
283.0503049399
 51
68.62219250310001
  0
ARC
  5
522
  8
0
 10
6.0737089467999992
 20
10.2987856852
 30
0.0
 40
0.115625
 50
335.87309127679998
 51
27.334794056500002
  0
ARC
  5
523
  8
0
 10
6.9644426939999988
 20
14.1811885537
 30
0.0
 40
0.07
 50
273.99041753630001
 51
358.75140224109998
  0
ARC
  5
524
  8
0
 10
6.1543336522000001
 20
11.5030318983
 30
0.0
 40
0.0599999832
 50
180.00000145529989
 51
256.99842102700001
  0
ARC
  5
525
  8
0
 10
8.6883339468000003
 20
14.628200100600001
 30
0.0
 40
0.05
 50
271.13331362849999
 51
360.0
  0
ARC
  5
526
  8
0
 10
8.7883339467999981
 20
14.6723417123
 30
0.0
 40
0.05
 50
102.5265570004
 51
180.0
  0
ARC
  5
527
  8
0
 10
6.0843339467999993
 20
11.5307856852
 30
0.0
 40
0.01
 50
0.0
 51
90.0
  0
ARC
  5
528
  8
0
 10
6.0785259743999998
 20
146.55238818890001
 30
0.0
 40
132.00000000150001
 50
270.58159234610002
 51
271.13331362849999
  0
ARC
  5
6D8
  8
0
 10
8.8059041584090281
 20
15.063228403031321
 30
0.0
 40
0.3138358785419153
 50
305.95719709072841
 51
2.915039228723781
  0
ARC
  5
6D9
  8
0
 10
8.6507203597086662
 20
15.327352448552221
 30
0.0
 40
0.6194551685936693
 50
281.52673068891471
 51
303.22999440421438
  0
ARC
  5
6DA
  8
0
 10
2.8927768586020841
 20
15.06687958892056
 30
0.0
 40
0.3236770424496493
 50
177.82059974648661
 51
238.623658191147
  0
ARC
  5
6DB
  8
0
 10
3.060323009221884
 20
15.409452208865231
 30
0.0
 40
0.7042740566223761
 50
241.49811338319
 51
257.7738727387711
  0
ARC
  5
6DC
  8
0
 10
4.7533991786779408
 20
14.017969759134891
 30
0.0
 40
0.029231071337986
 50
283.18448394677199
 51
8.164902165917578
  0
ARC
  5
6DD
  8
0
 10
6.9371316311249878
 20
14.019253255945401
 30
0.0
 40
0.0309309334693325
 50
174.679782777632
 51
254.00018535965211
  0
ARC
  5
6DE
  8
0
 10
6.9143548059170241
 20
13.731125743015721
 30
0.0
 40
0.0298578453928144
 50
94.656828646397116
 51
188.35077863454319
  0
ARC
  5
6DF
  8
0
 10
4.7735445901953906
 20
13.7305326362551
 30
0.0
 40
0.0305198289991495
 50
352.9542096152374
 51
83.995485454713247
  0
ARC
  5
6E0
  8
0
 10
4.8363165761930658
 20
13.67258545316491
 30
0.0
 40
0.0324577855554492
 50
177.9090467332544
 51
230.13601207407439
  0
ARC
  5
6E1
  8
0
 10
6.8531537002463692
 20
13.67227427297242
 30
0.0
 40
0.0316691333318855
 50
309.14929940455062
 51
2.7067427180896511
  0
ARC
  5
6E2
  8
0
 10
5.3203094341301362
 20
11.96690332594051
 30
0.0
 40
0.0858497364511254
 50
89.861425161997417
 51
98.682681899607715
  0
ARC
  5
6E3
  8
0
 10
6.3634340157939286
 20
11.90096939182845
 30
0.0
 40
0.1518566208408463
 50
83.236450385629652
 51
88.220910427615294
  0
ARC
  5
6E4
  8
0
 10
5.844332811300001
 20
191.88308389231091
 30
0.0
 40
179.8310939733112
 50
269.83310742845657
 51
270.16689257154343
  0
ARC
  5
6E8
  8
0
 10
6.3990766031348008
 20
12.026195845765329
 30
0.0
 40
0.0311343284058522
 50
124.77577524479589
 51
233.00020585358189
  0
ARC
  5
6E9
  8
0
 10
6.3647933411429944
 20
11.97621033946438
 30
0.0
 40
0.0295418884489937
 50
0.5339470535090415
 51
58.247966141017841
  0
ARC
  5
6EA
  8
0
 10
7.5928190083609817
 20
12.93664574644048
 30
0.0
 40
1.0116686505681829
 50
135.3458942378177
 51
165.51872252502241
  0
ARC
  5
6EB
  8
0
 10
9.0429019137047835
 20
12.47498362179531
 30
0.0
 40
2.532532622461896
 50
163.60932209109151
 51
180.99910082088519
  0
ARC
  5
6EC
  8
0
 10
5.3967136905982143
 20
12.49020939896946
 30
0.0
 40
1.115622279402217
 50
342.36290102548833
 51
356.94869053071682
  0
ARC
  5
6ED
  8
0
 10
6.2397366592346089
 20
12.24447499456628
 30
0.0
 40
0.238718459022052
 50
306.206300277791
 51
337.25790707812712
  0
ARC
  5
6EE
  8
0
 10
6.3643338808181786
 20
11.82491984225936
 30
0.0
 40
0.0300000659818627
 50
285.15542019450271
 51
359.99990362993429
  0
ARC
  5
6EF
  8
0
 10
6.3484105879133921
 20
11.75910292116953
 30
0.0
 40
0.0296217936061742
 50
97.477109090116215
 51
182.67860034381141
  0
ARC
  5
6F0
  8
0
 10
6.1216368949392113
 20
11.773456598630149
 30
0.0
 40
0.1978114233244635
 50
307.76872258730441
 51
355.4363151756915
  0
ARC
  5
6F1
  8
0
 10
6.0294186752143668
 20
11.9422410570706
 30
0.0
 40
0.3889113198422719
 50
279.60851953286249
 51
303.2738647832204
  0
ARC
  5
6F2
  8
0
 10
6.1264325952593843
 20
11.403440034510391
 30
0.0
 40
0.0435788369208834
 50
349.8838788246515
 51
70.701356656759344
  0
ARC
  5
6F3
  8
0
 10
6.1976349295158633
 20
11.177828543743029
 30
0.0
 40
0.028307609474139
 50
178.55737575046891
 51
226.76611771122899
  0
ARC
  5
6F4
  8
0
 10
6.59110759438681
 20
10.409361745491729
 30
0.0
 40
0.376932602968993
 50
151.0316719036974
 51
164.40505323424441
  0
ARC
  5
6F5
  8
0
 10
6.2028709879299004
 20
10.51273939539689
 30
0.0
 40
0.0252631942137949
 50
270.29103646785592
 51
355.35682020140308
  0
ARC
  5
6F6
  8
0
 10
6.210100660203917
 20
10.39314814283825
 30
0.0
 40
0.094595312838227
 50
94.305291220908188
 51
132.93485001756929
  0
ARC
  5
6F7
  8
0
 10
6.1948652385134713
 20
10.417755461359929
 30
0.0
 40
0.0664387849725185
 50
137.7763329232429
 51
210.11962362594701
  0
ARC
  5
6F8
  8
0
 10
6.1755995738411258
 20
10.40893718146236
 30
0.0
 40
0.0453951644769726
 50
212.6953063688986
 51
250.0923971547985
  0
ARC
  5
6F9
  8
0
 10
6.1527148841436476
 20
10.34145099585092
 30
0.0
 40
0.0258871846816637
 50
23.726925695858242
 51
73.330991559593372
  0
ARC
  5
6FA
  8
0
 10
6.1546110606668014
 20
10.25952969710649
 30
0.0
 40
0.0258912924030218
 50
263.8858023881545
 51
341.98618688583821
  0
ARC
  5
6FB
  8
0
 10
6.1481170665076821
 20
10.20840706040781
 30
0.0
 40
0.0256607104067189
 50
81.60470656202726
 51
149.410318286483
  0
ARC
  5
6FC
  8
0
 10
5.9177361600771476
 20
10.391531332661261
 30
0.0
 40
0.2688951302426301
 50
284.4720708345107
 51
320.76801927240859
  0
ARC
  5
6FD
  8
0
 10
5.8485011384115957
 20
10.65740312324299
 30
0.0
 40
0.5436334099651652
 50
269.56079809354202
 51
284.53474615023703
  0
LINE
  5
6FE
  8
0
 10
5.344128787599999
 20
11.788477246999999
 30
0.0
 11
5.316490847899999
 21
11.7959631725
 31
0.0
  0
LINE
  5
6FF
  8
0
 10
5.6043339467999997
 20
11.540785685199999
 30
0.0
 11
5.6043339467999997
 21
11.5587856852
 31
0.0
  0
LINE
  5
700
  8
0
 10
5.5943339468
 20
11.5307856852
 30
0.0
 11
5.5943339468
 21
11.5030319251
 31
0.0
  0
LINE
  5
701
  8
0
 10
5.5193339467999998
 20
11.395785674400001
 30
0.0
 11
5.5193339467999998
 21
11.1785412236
 31
0.0
  0
LINE
  5
702
  8
0
 10
5.2943339468000001
 20
11.9764856403
 30
0.0
 11
5.2943339468000001
 21
11.824919791799999
 31
0.0
  0
ARC
  5
703
  8
0
 10
5.8443339468
 20
10.8193755237
 30
0.0
 40
0.475
 50
134.66579980329999
 51
208.61055970370001
  0
ARC
  5
704
  8
0
 10
5.6149589467999999
 20
10.2987856852
 30
0.0
 40
0.115625
 50
152.66520594350001
 51
204.12690872319999
  0
ARC
  5
705
  8
0
 10
5.534334241399999
 20
11.5030318983
 30
0.0
 40
0.0599999832
 50
283.00157897299999
 51
359.99999854470008
  0
ARC
  5
706
  8
0
 10
5.6043339467999997
 20
11.5307856852
 30
0.0
 40
0.01
 50
90.0
 51
180.0
  0
ARC
  5
708
  8
0
 10
5.3252338778060704
 20
11.90096939182845
 30
0.0
 40
0.1518566208408463
 50
91.779089572384663
 51
96.763549614370319
  0
ARC
  5
709
  8
0
 10
5.2895912904651983
 20
12.026195845765329
 30
0.0
 40
0.0311343284058522
 50
306.99979414641808
 51
55.224224755204041
  0
ARC
  5
70A
  8
0
 10
5.3238745524570046
 20
11.97621033946438
 30
0.0
 40
0.0295418884489937
 50
121.7520338589822
 51
179.46605294649089
  0
ARC
  5
70B
  8
0
 10
4.0958488852390174
 20
12.93664574644048
 30
0.0
 40
1.0116686505681829
 50
14.48127747497753
 51
44.654105762182319
  0
ARC
  5
70C
  8
0
 10
2.645765979895216
 20
12.47498362179531
 30
0.0
 40
2.532532622461896
 50
359.00089917911481
 51
16.390677908908479
  0
ARC
  5
70D
  8
0
 10
6.2919542030017848
 20
12.49020939896946
 30
0.0
 40
1.115622279402217
 50
183.05130946928321
 51
197.6370989745117
  0
ARC
  5
70E
  8
0
 10
5.4489312343653902
 20
12.24447499456628
 30
0.0
 40
0.238718459022052
 50
202.74209292187291
 51
233.793699722209
  0
ARC
  5
70F
  8
0
 10
5.3243340127818204
 20
11.82491984225936
 30
0.0
 40
0.0300000659818627
 50
180.00009637006571
 51
254.8445798054972
  0
ARC
  5
710
  8
0
 10
5.3402573056866061
 20
11.75910292116953
 30
0.0
 40
0.0296217936061742
 50
357.32139965618848
 51
82.522890909883813
  0
ARC
  5
711
  8
0
 10
5.5670309986607878
 20
11.773456598630149
 30
0.0
 40
0.1978114233244635
 50
184.5636848243085
 51
232.23127741269559
  0
ARC
  5
712
  8
0
 10
5.6592492183856322
 20
11.9422410570706
 30
0.0
 40
0.3889113198422719
 50
236.7261352167796
 51
260.3914804671374
  0
ARC
  5
713
  8
0
 10
5.5622352983406147
 20
11.403440034510391
 30
0.0
 40
0.0435788369208834
 50
109.2986433432406
 51
190.1161211753485
  0
ARC
  5
714
  8
0
 10
5.4910329640841358
 20
11.177828543743029
 30
0.0
 40
0.028307609474139
 50
313.2338822887711
 51
1.44262424953104
  0
ARC
  5
715
  8
0
 10
5.0975602992131881
 20
10.409361745491729
 30
0.0
 40
0.376932602968993
 50
15.594946765755569
 51
28.968328096302582
  0
ARC
  5
716
  8
0
 10
5.4857969056700986
 20
10.51273939539689
 30
0.0
 40
0.0252631942137949
 50
184.64317979859689
 51
269.70896353214408
  0
ARC
  5
717
  8
0
 10
5.478567233396082
 20
10.39314814283825
 30
0.0
 40
0.094595312838227
 50
47.065149982430711
 51
85.694708779091798
  0
ARC
  5
718
  8
0
 10
5.4938026550865278
 20
10.417755461359929
 30
0.0
 40
0.0664387849725185
 50
329.88037637405313
 51
42.223667076757032
  0
ARC
  5
719
  8
0
 10
5.5130683197588732
 20
10.40893718146236
 30
0.0
 40
0.0453951644769726
 50
289.9076028452015
 51
327.30469363110137
  0
ARC
  5
71A
  8
0
 10
5.5359530094563514
 20
10.34145099585092
 30
0.0
 40
0.0258871846816637
 50
106.6690084404066
 51
156.27307430414169
  0
ARC
  5
71B
  8
0
 10
5.5340568329331976
 20
10.25952969710649
 30
0.0
 40
0.0258912924030218
 50
198.01381311416179
 51
276.11419761184561
  0
ARC
  5
71C
  8
0
 10
5.5405508270923169
 20
10.20840706040781
 30
0.0
 40
0.0256607104067189
 50
30.589681713516939
 51
98.395293437972796
  0
ARC
  5
71D
  8
0
 10
5.7709317335228514
 20
10.391531332661261
 30
0.0
 40
0.2688951302426301
 50
219.23198072759141
 51
255.5279291654893
  0
ARC
  5
71E
  8
0
 10
5.8401667551884033
 20
10.65740312324299
 30
0.0
 40
0.5436334099651652
 50
255.46525384976309
 51
270.43920190645809
  0
ARC
  5
72A
  8
0
 10
5.3240798196511792
 20
11.960939428380071
 30
0.0
 40
0.0297459905951147
 50
107.9246290474082
 51
179.83878968389209
  0
ARC
  5
72B
  8
0
 10
5.4699853116646278
 20
11.21021176576237
 30
0.0
 40
0.7943117754187683
 50
78.742811371229521
 51
101.2571888792675
  0
ARC
  5
72C
  8
0
 10
5.8443337652139213
 20
9.9968809585752041
 30
0.0
 40
2.004392261316025
 50
83.718993839558266
 51
96.280926234867977
  0
ARC
  5
72D
  8
0
 10
6.2148684415530813
 20
10.95795205005202
 30
0.0
 40
1.043455437349958
 50
81.24219687523366
 51
98.238072801447061
  0
ARC
  5
72E
  8
0
 10
6.3645897980007984
 20
11.960940681703461
 30
0.0
 40
0.0297442630500279
 50
0.1588056106251656
 51
72.077852102207927
  0
ARC
  5
72F
  8
0
 10
5.3240798196511792
 20
11.84046600371993
 30
0.0
 40
0.0297459905951147
 50
180.16121031610791
 51
252.0753709525919
  0
ARC
  5
730
  8
0
 10
5.4699853116646278
 20
12.591193666337629
 30
0.0
 40
0.7943117754187683
 50
258.74281112073248
 51
281.25718862877051
  0
ARC
  5
731
  8
0
 10
5.8443337652139213
 20
13.80452447352479
 30
0.0
 40
2.004392261316025
 50
263.71907376513212
 51
276.28100616044168
  0
ARC
  5
732
  8
0
 10
6.2148684415530813
 20
12.84345338204797
 30
0.0
 40
1.043455437349958
 50
261.761927198553
 51
278.75780312476633
  0
ARC
  5
733
  8
0
 10
6.3645897980007984
 20
11.84046475039654
 30
0.0
 40
0.0297442630500279
 50
287.92214789779212
 51
359.84119438937478
  0
LINE
  5
734
  8
0
 10
5.6250464059999983
 20
11.989241716900001
 30
0.0
 11
5.6250464059999983
 21
11.812163715200001
 31
0.0
  0
LINE
  5
735
  8
0
 10
6.0636239036999982
 20
11.989241411
 30
0.0
 11
6.0653552552411032
 21
11.81076511502155
 31
0.0
  0
ATTDEF
  5
81D
  8
DEFPOINTS
 10
5.8397023688865053
 20
15.083400399973501
 30
0.0
 40
0.001
  1
METAL
  3

  2
MATERIAL
 70
     0
1001
ACDBATTR
1070
     0
1070
     1
  0
ATTDEF
  5
81E
  8
DEFPOINTS
 10
5.8397023688865053
 20
15.085067066640169
 30
0.0
 40
0.001
  1
VALVE TRIM
  3

  2
PRODUCT
 70
     0
1001
ACDBATTR
1070
     0
1070
     1
  0
ATTDEF
  5
81F
  8
DEFPOINTS
 10
5.8397023688865053
 20
15.086733733306829
 30
0.0
 40
0.001
  1
ARTIFACTS
  3

  2
TRADENAME
 70
     0
1001
ACDBATTR
1070
     0
1070
     1
  0
ATTDEF
  5
820
  8
DEFPOINTS
 10
5.8397023688865053
 20
15.0884003999735
 30
0.0
 40
0.001
  1
K-T72767-4
  3

  2
MODELNUMBER
 70
     0
1001
ACDBATTR
1070
     0
1070
     1
  0
ENDSEC
  0
EOF
