  0
SECTION
  2
HEADER
  9
$ACADVER
  1
AC1009
  9
$INSBASE
 10
2.9841706923000002
 20
19.340005834700001
 30
0.0
  9
$EXTMIN
 10
1.7441706923938269
 20
8.7120058347000011
 30
0.0
  9
$EXTMAX
 10
8.2241706922999942
 20
19.352154814876531
 30
0.0
  9
$LIMMIN
 10
0.0
 20
0.0
  9
$LIMMAX
 10
11.692913385800001
 20
8.2677165353999982
  9
$ORTHOMODE
 70
     0
  9
$REGENMODE
 70
     1
  9
$FILLMODE
 70
     1
  9
$QTEXTMODE
 70
     0
  9
$MIRRTEXT
 70
     0
  9
$DRAGMODE
 70
     2
  9
$LTSCALE
 40
0.6431102362
  9
$OSMODE
 70
  3071
  9
$ATTMODE
 70
     1
  9
$TEXTSIZE
 40
0.2
  9
$TRACEWID
 40
0.05
  9
$TEXTSTYLE
  7
STANDARD
  9
$CLAYER
  8
0
  9
$CELTYPE
  6
BYLAYER
  9
$CECOLOR
 62
   256
  9
$DIMSCALE
 40
1.0
  9
$DIMASZ
 40
0.1875
  9
$DIMEXO
 40
0.0625
  9
$DIMDLI
 40
0.4443307087
  9
$DIMRND
 40
0.0
  9
$DIMDLE
 40
0.0
  9
$DIMEXE
 40
0.125
  9
$DIMTP
 40
0.0
  9
$DIMTM
 40
0.0
  9
$DIMTXT
 40
1.0
  9
$DIMCEN
 40
0.1052362205
  9
$DIMTSZ
 40
0.0
  9
$DIMTOL
 70
     0
  9
$DIMLIM
 70
     0
  9
$DIMTIH
 70
     1
  9
$DIMTOH
 70
     1
  9
$DIMSE1
 70
     0
  9
$DIMSE2
 70
     0
  9
$DIMTAD
 70
     0
  9
$DIMZIN
 70
     0
  9
$DIMBLK
  1

  9
$DIMASO
 70
     1
  9
$DIMSHO
 70
     1
  9
$DIMPOST
  1
\X
  9
$DIMAPOST
  1

  9
$DIMALT
 70
     1
  9
$DIMALTD
 70
     2
  9
$DIMALTF
 40
25.399999999999999
  9
$DIMLFAC
 40
1.0
  9
$DIMTOFL
 70
     0
  9
$DIMTVP
 40
0.0
  9
$DIMTIX
 70
     0
  9
$DIMSOXD
 70
     0
  9
$DIMSAH
 70
     0
  9
$DIMBLK1
  1

  9
$DIMBLK2
  1

  9
$DIMSTYLE
  2
STANDARD
  9
$DIMCLRD
 70
     0
  9
$DIMCLRE
 70
     0
  9
$DIMCLRT
 70
     0
  9
$DIMTFAC
 40
1.0
  9
$DIMGAP
 40
0.09
  9
$LUNITS
 70
     2
  9
$LUPREC
 70
     4
  9
$SKETCHINC
 40
0.1
  9
$FILLETRAD
 40
0.0
  9
$AUNITS
 70
     0
  9
$AUPREC
 70
     0
  9
$MENU
  1
.
  9
$ELEVATION
 40
0.0
  9
$PELEVATION
 40
0.0
  9
$THICKNESS
 40
0.0
  9
$LIMCHECK
 70
     0
  9
$BLIPMODE
 70
     0
  9
$CHAMFERA
 40
0.0
  9
$CHAMFERB
 40
0.0
  9
$SKPOLY
 70
     0
  9
$TDCREATE
 40
2457968.4726216318
  9
$TDUPDATE
 40
2457968.7846300462
  9
$TDINDWG
 40
0.0247270139
  9
$TDUSRTIMER
 40
0.0247270139
  9
$USRTIMER
 70
     1
  9
$ANGBASE
 50
0.0
  9
$ANGDIR
 70
     0
  9
$PDMODE
 70
     0
  9
$PDSIZE
 40
0.3125
  9
$PLINEWID
 40
0.0
  9
$COORDS
 70
     1
  9
$SPLFRAME
 70
     0
  9
$SPLINETYPE
 70
     6
  9
$SPLINESEGS
 70
     8
  9
$ATTDIA
 70
     1
  9
$ATTREQ
 70
     1
  9
$HANDLING
 70
     1
  9
$HANDSEED
  5
97A
  9
$SURFTAB1
 70
     6
  9
$SURFTAB2
 70
     6
  9
$SURFTYPE
 70
     6
  9
$SURFU
 70
     6
  9
$SURFV
 70
     6
  9
$UCSNAME
  2

  9
$UCSORG
 10
0.0
 20
0.0
 30
0.0
  9
$UCSXDIR
 10
1.0
 20
0.0
 30
0.0
  9
$UCSYDIR
 10
0.0
 20
1.0
 30
0.0
  9
$PUCSNAME
  2

  9
$PUCSORG
 10
0.0
 20
0.0
 30
0.0
  9
$PUCSXDIR
 10
1.0
 20
0.0
 30
0.0
  9
$PUCSYDIR
 10
0.0
 20
1.0
 30
0.0
  9
$USERI1
 70
     0
  9
$USERI2
 70
     0
  9
$USERI3
 70
     0
  9
$USERI4
 70
     0
  9
$USERI5
 70
     0
  9
$USERR1
 40
0.0
  9
$USERR2
 40
0.0
  9
$USERR3
 40
0.0
  9
$USERR4
 40
0.0
  9
$USERR5
 40
0.0
  9
$WORLDVIEW
 70
     1
  9
$SHADEDGE
 70
     3
  9
$SHADEDIF
 70
    70
  9
$TILEMODE
 70
     1
  9
$MAXACTVP
 70
    48
  9
$PLIMCHECK
 70
     0
  9
$PEXTMIN
 10
1.0000000000000000E+020
 20
1.0000000000000000E+020
 30
1.0000000000000000E+020
  9
$PEXTMAX
 10
-1.0000000000000000E+020
 20
-1.0000000000000000E+020
 30
-1.0000000000000000E+020
  9
$PLIMMIN
 10
0.0
 20
0.0
  9
$PLIMMAX
 10
12.0
 20
9.0
  9
$UNITMODE
 70
     0
  9
$VISRETAIN
 70
     1
  9
$PLINEGEN
 70
     0
  9
$PSLTSCALE
 70
     1
  0
ENDSEC
  0
SECTION
  2
TABLES
  0
TABLE
  2
VPORT
 70
     1
  0
VPORT
  2
*ACTIVE
 70
     0
 10
0.0
 20
0.0
 11
1.0
 21
1.0
 12
-9.5175134599277733
 22
8.9884892482658625
 13
0.0
 23
0.0
 14
1.0
 24
1.0
 15
0.0
 25
0.0
 16
-0.0000000000000178
 26
0.0
 36
82.560936612257095
 17
12.52028167247772
 27
10.34883293509483
 37
0.0
 40
0.0618243474806141
 41
2.1748571428571419
 42
50.0
 43
0.0
 44
0.0
 50
0.0
 51
0.0
 71
     0
 72
   100
 73
     1
 74
     1
 75
     0
 76
     0
 77
     0
 78
     0
  0
ENDTAB
  0
TABLE
  2
LTYPE
 70
     2
  0
LTYPE
  2
CONTINUOUS
 70
     0
  3
Solid line
 72
    65
 73
     0
 40
0.0
  0
LTYPE
  2
PHANTOM2
 70
     0
  3
___ _ _ ___ _ _ ___ _ _ ___ _ _
 72
    65
 73
     6
 40
1.25
 49
0.625
 49
-0.125
 49
0.125
 49
-0.125
 49
0.125
 49
-0.125
  0
ENDTAB
  0
TABLE
  2
LAYER
 70
     2
  0
LAYER
  2
0
 70
     0
 62
     7
  6
CONTINUOUS
  0
LAYER
  2
DEFPOINTS
 70
     0
 62
     7
  6
CONTINUOUS
  0
ENDTAB
  0
TABLE
  2
STYLE
 70
     1
  0
STYLE
  2
STANDARD
 70
     0
 40
0.0
 41
0.8
 50
0.0
 71
     0
 42
0.2
  3
txt
  4

  0
ENDTAB
  0
TABLE
  2
VIEW
 70
     0
  0
ENDTAB
  0
TABLE
  2
UCS
 70
     0
  0
ENDTAB
  0
TABLE
  2
APPID
 70
     7
  0
APPID
  2
ACAD
 70
     0
  0
APPID
  2
ACAD_MLEADERVER
 70
     0
  0
APPID
  2
ACAD_NAV_VCDISPLAY
 70
     0
  0
APPID
  2
ACAD_DSTYLE_DIMJAG
 70
     0
  0
APPID
  2
ACAD_DSTYLE_DIMTALN
 70
     0
  0
APPID
  2
ACAD_EXEMPT_FROM_CAD_STANDARDS
 70
     0
  0
APPID
  2
ACDBATTR
 70
     0
  0
ENDTAB
  0
TABLE
  2
DIMSTYLE
 70
     1
  0
DIMSTYLE
  2
STANDARD
 70
     0
  3

  4

  5

  6

  7

 40
1.0
 41
0.1875
 42
0.0625
 43
0.38
 44
0.125
 45
0.0
 46
0.0
 47
1.5
 48
1.5
140
0.15625
141
0.09
142
0.0
143
25.399999999999999
144
1.0
145
0.0
146
1.0
147
0.09
 71
     0
 72
     0
 73
     1
 74
     1
 75
     0
 76
     0
 77
     0
 78
     4
170
     0
171
     2
172
     0
173
     0
174
     0
175
     0
176
     0
177
     0
178
     0
  0
ENDTAB
  0
ENDSEC
  0
SECTION
  2
BLOCKS
  0
BLOCK
  8
0
  2
$MODEL_SPACE
 70
     0
 10
0.0
 20
0.0
 30
0.0
  3
$MODEL_SPACE
  1

  0
ENDBLK
  5
21
  8
0
  0
BLOCK
 67
     1
  8
0
  2
$PAPER_SPACE
 70
     0
 10
0.0
 20
0.0
 30
0.0
  3
$PAPER_SPACE
  1

  0
ENDBLK
  5
1D
 67
     1
  8
0
  0
ENDSEC
  0
SECTION
  2
ENTITIES
  0
LINE
  5
517
  8
0
 10
1.7741808277999991
 20
19.340005834700001
 30
0.0
 11
4.1941706923000002
 21
19.340005834700001
 31
0.0
  0
ARC
  5
518
  8
0
 10
4.1941706923000002
 20
19.3100058347
 30
0.0
 40
0.0299999999999976
 50
354.82443305373488
 51
89.999999999994813
  0
ARC
  5
51A
  8
0
 10
3.726086902384746
 20
19.35240354290141
 30
0.0
 40
0.5000000000448508
 50
338.7432204946752
 51
354.82443305373471
  0
ARC
  5
51B
  8
0
 10
4.1641104393344559
 20
19.18200583565886
 30
0.0
 40
0.0300000026454341
 50
269.98078770572567
 51
338.74322049467469
  0
LINE
  5
51C
  8
0
 10
4.1641003797999989
 20
19.152005834699999
 30
0.0
 11
1.804230942799999
 21
19.152005834699999
 31
0.0
  0
ARC
  5
51D
  8
0
 10
1.8042309427999981
 20
19.182005834699989
 30
0.0
 40
0.0299999999999963
 50
201.2567795057949
 51
270.0000000000025
  0
ARC
  5
51E
  8
0
 10
2.2422544851541741
 20
19.35240354359161
 30
0.0
 40
0.5000000030340509
 50
185.17556699540779
 51
201.2567794569371
  0
ARC
  5
51F
  8
0
 10
1.774170695022099
 20
19.310005833782949
 30
0.0
 40
0.0300000026282722
 50
89.980647821045608
 51
185.17556474555531
  0
LINE
  5
527
  8
0
 10
3.8579206922999991
 20
19.152005834699999
 30
0.0
 11
3.8579206923999991
 21
18.590005834700001
 31
0.0
  0
ARC
  5
528
  8
0
 10
-0.8681000696770651
 20
18.59000583385907
 30
0.0
 40
4.7260207620770638
 50
336.7173576473005
 51
0.0000000101949245
  0
ARC
  5
529
  8
0
 10
3.4245185040809041
 20
16.742853646528999
 30
0.0
 40
0.0528478118290041
 50
270.000000020703
 51
336.71735764730028
  0
LINE
  5
52A
  8
0
 10
3.4245185040999999
 20
16.690005834699999
 30
0.0
 11
2.5438228805
 21
16.690005834381768
 31
0.0
  0
ARC
  5
52B
  8
0
 10
2.5438228804809029
 20
16.74285364619751
 30
0.0
 40
0.0528478118157381
 50
203.2832466207133
 51
270.00000002070658
  0
ARC
  5
52C
  8
0
 10
6.8362022410219341
 20
18.58995654996853
 30
0.0
 40
4.7257815489789277
 50
179.9994024677022
 51
203.28324662071319
  0
LINE
  5
52D
  8
0
 10
2.1104206922999991
 20
18.590005834700001
 30
0.0
 11
2.110426553345162
 21
19.152005834669438
 31
0.0
  0
LINE
  5
52E
  8
0
 10
3.3591706923000002
 20
16.690005834676391
 30
0.0
 11
3.3591706923000002
 21
9.0870058347000011
 31
0.0
  0
ARC
  5
52F
  8
0
 10
2.9841706923000002
 20
9.0870058347000011
 30
0.0
 40
0.375
 50
180.0
 51
0.0
  0
LINE
  5
530
  8
0
 10
2.6091706923000002
 20
9.0870058347000011
 30
0.0
 11
2.6091706923000002
 21
16.690005834699999
 31
0.0
  0
LINE
  5
531
  8
0
 10
5.7741808277999978
 20
19.340005834700001
 30
0.0
 11
8.1941706922999984
 21
19.340005834700001
 31
0.0
  0
ARC
  5
532
  8
0
 10
8.1941706922999984
 20
19.3100058347
 30
0.0
 40
0.0299999999999976
 50
354.82443305373488
 51
89.999999999994813
  0
ARC
  5
533
  8
0
 10
7.7260869023847452
 20
19.35240354290141
 30
0.0
 40
0.5000000000448508
 50
338.7432204946752
 51
354.82443305373471
  0
ARC
  5
534
  8
0
 10
8.1641104393344541
 20
19.18200583565886
 30
0.0
 40
0.0300000026454341
 50
269.98078770572567
 51
338.74322049467469
  0
LINE
  5
535
  8
0
 10
8.1641003797999971
 20
19.152005834699999
 30
0.0
 11
5.8042309427999976
 21
19.152005834699999
 31
0.0
  0
ARC
  5
536
  8
0
 10
5.8042309427999967
 20
19.182005834699989
 30
0.0
 40
0.0299999999999963
 50
201.2567795057949
 51
270.0000000000025
  0
ARC
  5
537
  8
0
 10
6.2422544851541728
 20
19.35240354359161
 30
0.0
 40
0.5000000030340509
 50
185.17556699540779
 51
201.2567794569371
  0
ARC
  5
538
  8
0
 10
5.774170695022546
 20
19.31000583378254
 30
0.0
 40
0.0300000026286841
 50
89.980647821903361
 51
185.17556474469421
  0
LINE
  5
539
  8
0
 10
7.8579206922999996
 20
19.152005834699999
 30
0.0
 11
7.8579206922999996
 21
18.5950058347
 31
0.0
  0
ARC
  5
53A
  8
0
 10
7.8129206923356103
 20
18.5950058347
 30
0.0
 40
0.0449999999643902
 50
273.11027478843027
 51
0.0000000000005089
  0
ARC
  5
53B
  8
0
 10
7.816989985284911
 20
18.520117195312729
 30
0.0
 40
0.0299991163929615
 50
93.110274788429763
 51
166.58771776756981
  0
LINE
  5
53C
  8
0
 10
6.1091706923000002
 20
18.527005834699999
 30
0.0
 11
7.8591706923000002
 21
18.527005834699999
 31
0.0
  0
ARC
  5
53D
  8
0
 10
4.1431706913000781
 20
18.527005834861541
 30
0.0
 40
3.7160000009999248
 50
331.44048425887638
 51
359.99999999750929
  0
ARC
  5
53E
  8
0
 10
7.3674870539999961
 20
16.77200583470001
 30
0.0
 40
0.0450000000000067
 50
270.00000000000449
 51
331.44048425329407
  0
LINE
  5
53F
  8
0
 10
7.3674870539999988
 20
16.727005834700002
 30
0.0
 11
6.6008548557999998
 21
16.727005834700002
 31
0.0
  0
LINE
  5
540
  8
0
 10
6.110421217499999
 20
19.152005834699999
 30
0.0
 11
6.110421217499999
 21
18.5950058347
 31
0.0
  0
ARC
  5
541
  8
0
 10
6.1554212174643892
 20
18.5950058347
 30
0.0
 40
0.0449999999643902
 50
179.99999999999949
 51
266.88972521156973
  0
ARC
  5
542
  8
0
 10
6.1513519245150867
 20
18.520117195312729
 30
0.0
 40
0.0299991163929615
 50
13.41228223243021
 51
86.889725211570223
  0
ARC
  5
543
  8
0
 10
9.8251791925063632
 20
18.527008962993541
 30
0.0
 40
3.716008500207681
 50
180.00004823401699
 51
208.5594993258251
  0
ARC
  5
544
  8
0
 10
6.6008548558000033
 20
16.77200583470001
 30
0.0
 40
0.0450000000000067
 50
208.5595157467059
 51
269.99999999999551
  0
CIRCLE
  5
545
  8
0
 10
6.9841706923000002
 20
16.947005834700001
 30
0.0
 40
0.1447500000000002
  0
CIRCLE
  5
546
  8
0
 10
6.9841706923000002
 20
16.947005834700001
 30
0.0
 40
0.1337500000000009
  0
ATTDEF
  5
86C
  8
DEFPOINTS
 10
2.9812491707812421
 20
19.346154814876531
 30
0.0
 40
0.001
  1
BRASS
  3

  2
MATERIAL
 70
     0
1001
ACDBATTR
1070
     0
1070
     1
  0
ATTDEF
  5
86D
  8
DEFPOINTS
 10
2.9812491707812421
 20
19.3478214815432
 30
0.0
 40
0.001
  1
BATHROOM SINK FAUCET
  3

  2
PRODUCT
 70
     0
1001
ACDBATTR
1070
     0
1070
     1
  0
ATTDEF
  5
86E
  8
DEFPOINTS
 10
2.9812491707812421
 20
19.349488148209861
 30
0.0
 40
0.001
  1
FALLING WATER
  3

  2
TRADENAME
 70
     0
1001
ACDBATTR
1070
     0
1070
     1
  0
ATTDEF
  5
86F
  8
DEFPOINTS
 10
2.9812491707812421
 20
19.35115481487653
 30
0.0
 40
0.001
  1
K-T197
  3

  2
MODELNUMBER
 70
     0
1001
ACDBATTR
1070
     0
1070
     1
  0
ENDSEC
  0
EOF
