  0
SECTION
  2
HEADER
  9
$ACADVER
  1
AC1009
  9
$INSBASE
 10
3072.1865381400821207
 20
152.562895530964397
 30
0.0
  9
$EXTMIN
 10
3066.7128832588527985
 20
149.1523990491839982
 30
-0.0000000000000058
  9
$EXTMAX
 10
3072.3383274968477963
 20
155.9706718437861923
 30
0.0000000000000104
  9
$LIMMIN
 10
0.0
 20
0.0
  9
$LIMMAX
 10
11.6929133858000007
 20
8.2677165353999982
  9
$ORTHOMODE
 70
     1
  9
$REGENMODE
 70
     1
  9
$FILLMODE
 70
     1
  9
$QTEXTMODE
 70
     0
  9
$MIRRTEXT
 70
     0
  9
$DRAGMODE
 70
     2
  9
$LTSCALE
 40
0.6431102362
  9
$OSMODE
 70
  4095
  9
$ATTMODE
 70
     1
  9
$TEXTSIZE
 40
0.2
  9
$TRACEWID
 40
0.05
  9
$TEXTSTYLE
  7
STANDARD
  9
$CLAYER
  8
0
  9
$CELTYPE
  6
BYLAYER
  9
$CECOLOR
 62
   256
  9
$DIMSCALE
 40
1.0
  9
$DIMASZ
 40
0.1875
  9
$DIMEXO
 40
0.0625
  9
$DIMDLI
 40
0.4443307087
  9
$DIMRND
 40
0.0
  9
$DIMDLE
 40
0.0
  9
$DIMEXE
 40
0.125
  9
$DIMTP
 40
0.01
  9
$DIMTM
 40
0.01
  9
$DIMTXT
 40
2.0
  9
$DIMCEN
 40
0.1052362205
  9
$DIMTSZ
 40
0.0
  9
$DIMTOL
 70
     1
  9
$DIMLIM
 70
     0
  9
$DIMTIH
 70
     1
  9
$DIMTOH
 70
     1
  9
$DIMSE1
 70
     0
  9
$DIMSE2
 70
     0
  9
$DIMTAD
 70
     0
  9
$DIMZIN
 70
     0
  9
$DIMBLK
  1

  9
$DIMASO
 70
     1
  9
$DIMSHO
 70
     1
  9
$DIMPOST
  1
\X
  9
$DIMAPOST
  1

  9
$DIMALT
 70
     1
  9
$DIMALTD
 70
     2
  9
$DIMALTF
 40
25.3999999999999986
  9
$DIMLFAC
 40
1.0
  9
$DIMTOFL
 70
     0
  9
$DIMTVP
 40
0.0
  9
$DIMTIX
 70
     0
  9
$DIMSOXD
 70
     0
  9
$DIMSAH
 70
     0
  9
$DIMBLK1
  1

  9
$DIMBLK2
  1

  9
$DIMSTYLE
  2
STANDARD
  9
$DIMCLRD
 70
     0
  9
$DIMCLRE
 70
     0
  9
$DIMCLRT
 70
     0
  9
$DIMTFAC
 40
1.0
  9
$DIMGAP
 40
0.09
  9
$LUNITS
 70
     2
  9
$LUPREC
 70
     4
  9
$SKETCHINC
 40
0.1
  9
$FILLETRAD
 40
0.0
  9
$AUNITS
 70
     0
  9
$AUPREC
 70
     0
  9
$MENU
  1
.
  9
$ELEVATION
 40
0.0
  9
$PELEVATION
 40
0.0
  9
$THICKNESS
 40
0.0
  9
$LIMCHECK
 70
     0
  9
$BLIPMODE
 70
     0
  9
$CHAMFERA
 40
0.0
  9
$CHAMFERB
 40
0.0
  9
$SKPOLY
 70
     0
  9
$TDCREATE
 40
2458060.468368056230247
  9
$TDUPDATE
 40
2459621.6521296300925314
  9
$TDINDWG
 40
0.4345325231
  9
$TDUSRTIMER
 40
0.4345325231
  9
$USRTIMER
 70
     1
  9
$ANGBASE
 50
0.0
  9
$ANGDIR
 70
     0
  9
$PDMODE
 70
     0
  9
$PDSIZE
 40
0.3125
  9
$PLINEWID
 40
0.0
  9
$COORDS
 70
     1
  9
$SPLFRAME
 70
     0
  9
$SPLINETYPE
 70
     6
  9
$SPLINESEGS
 70
     8
  9
$ATTDIA
 70
     1
  9
$ATTREQ
 70
     1
  9
$HANDLING
 70
     1
  9
$HANDSEED
  5
2AF5D
  9
$SURFTAB1
 70
     6
  9
$SURFTAB2
 70
     6
  9
$SURFTYPE
 70
     6
  9
$SURFU
 70
     6
  9
$SURFV
 70
     6
  9
$UCSNAME
  2

  9
$UCSORG
 10
0.0
 20
0.0
 30
0.0
  9
$UCSXDIR
 10
1.0
 20
0.0
 30
0.0
  9
$UCSYDIR
 10
0.0
 20
1.0
 30
0.0
  9
$PUCSNAME
  2

  9
$PUCSORG
 10
0.0
 20
0.0
 30
0.0
  9
$PUCSXDIR
 10
1.0
 20
0.0
 30
0.0
  9
$PUCSYDIR
 10
0.0
 20
1.0
 30
0.0
  9
$USERI1
 70
     0
  9
$USERI2
 70
     0
  9
$USERI3
 70
     0
  9
$USERI4
 70
     0
  9
$USERI5
 70
     0
  9
$USERR1
 40
0.0
  9
$USERR2
 40
0.0
  9
$USERR3
 40
0.0
  9
$USERR4
 40
0.0
  9
$USERR5
 40
0.0
  9
$WORLDVIEW
 70
     1
  9
$SHADEDGE
 70
     3
  9
$SHADEDIF
 70
    70
  9
$TILEMODE
 70
     1
  9
$MAXACTVP
 70
    64
  9
$PLIMCHECK
 70
     0
  9
$PEXTMIN
 10
1.0000000000000000E+20
 20
1.0000000000000000E+20
 30
1.0000000000000000E+20
  9
$PEXTMAX
 10
-1.0000000000000000E+20
 20
-1.0000000000000000E+20
 30
-1.0000000000000000E+20
  9
$PLIMMIN
 10
0.0
 20
0.0
  9
$PLIMMAX
 10
12.0
 20
9.0
  9
$UNITMODE
 70
     0
  9
$VISRETAIN
 70
     1
  9
$PLINEGEN
 70
     0
  9
$PSLTSCALE
 70
     1
  0
ENDSEC
  0
SECTION
  2
TABLES
  0
TABLE
  2
VPORT
 70
     1
  0
VPORT
  2
*ACTIVE
 70
     0
 10
0.0
 20
0.0
 11
1.0
 21
1.0
 12
-734.0184620049622026
 22
26.566273249735179
 13
0.0
 23
0.0
 14
1.0
 24
1.0
 15
0.0
 25
0.0
 16
0.0
 26
0.0
 36
17.1152628219792007
 17
3803.5440673828129547
 27
125.9952621967499056
 37
0.0
 40
6.8670909769024462
 41
2.2831541218637992
 42
50.0
 43
0.0
 44
0.0
 50
0.0
 51
0.0
 71
     0
 72
   100
 73
     1
 74
     1
 75
     0
 76
     0
 77
     0
 78
     0
  0
ENDTAB
  0
TABLE
  2
LTYPE
 70
     2
  0
LTYPE
  2
CONTINUOUS
 70
     0
  3
Solid line
 72
    65
 73
     0
 40
0.0
  0
LTYPE
  2
PHANTOM2
 70
     0
  3
___ _ _ ___ _ _ ___ _ _ ___ _ _
 72
    65
 73
     6
 40
1.25
 49
0.625
 49
-0.125
 49
0.125
 49
-0.125
 49
0.125
 49
-0.125
  0
ENDTAB
  0
TABLE
  2
LAYER
 70
     2
  0
LAYER
  2
0
 70
     0
 62
   255
  6
CONTINUOUS
  0
LAYER
  2
DEFPOINTS
 70
     0
 62
     7
  6
CONTINUOUS
  0
ENDTAB
  0
TABLE
  2
STYLE
 70
     1
  0
STYLE
  2
STANDARD
 70
     0
 40
0.0
 41
0.8
 50
0.0
 71
     0
 42
0.2
  3
txt
  4

  0
ENDTAB
  0
TABLE
  2
VIEW
 70
     0
  0
ENDTAB
  0
TABLE
  2
UCS
 70
     0
  0
ENDTAB
  0
TABLE
  2
APPID
 70
     9
  0
APPID
  2
ACAD
 70
     0
  0
APPID
  2
ACAD_MLEADERVER
 70
     0
  0
APPID
  2
ACAD_EXEMPT_FROM_CAD_STANDARDS
 70
     0
  0
APPID
  2
ACAD_NAV_VCDISPLAY
 70
     0
  0
APPID
  2
ACAECLAYERSTANDARD
 70
     0
  0
APPID
  2
ACCMTRANSPARENCY
 70
     0
  0
APPID
  2
ACAD_DSTYLE_DIMJAG
 70
     0
  0
APPID
  2
ACAD_DSTYLE_DIMTALN
 70
     0
  0
APPID
  2
ACDBATTR
 70
     0
  0
ENDTAB
  0
TABLE
  2
DIMSTYLE
 70
     1
  0
DIMSTYLE
  2
STANDARD
 70
     0
  3

  4

  5

  6

  7

 40
1.0
 41
0.1875
 42
0.0625
 43
0.38
 44
0.125
 45
0.0
 46
0.0
 47
0.01
 48
0.01
140
0.15625
141
0.09
142
0.0
143
25.3999999999999986
144
1.0
145
0.0
146
1.0
147
0.09
 71
     1
 72
     0
 73
     1
 74
     1
 75
     0
 76
     0
 77
     0
 78
     4
170
     0
171
     2
172
     0
173
     0
174
     0
175
     0
176
     0
177
     0
178
     0
  0
ENDTAB
  0
ENDSEC
  0
SECTION
  2
BLOCKS
  0
BLOCK
  8
0
  2
$MODEL_SPACE
 70
     0
 10
0.0
 20
0.0
 30
0.0
  3
$MODEL_SPACE
  1

  0
ENDBLK
  5
21
  8
0
  0
BLOCK
 67
     1
  8
0
  2
$PAPER_SPACE
 70
     0
 10
0.0
 20
0.0
 30
0.0
  3
$PAPER_SPACE
  1

  0
ENDBLK
  5
1D
 67
     1
  8
0
  0
BLOCK
  8
0
  2
_FILLED
 70
     0
 10
0.0
 20
0.0
 30
0.0
  3
_FILLED
  1

  0
SOLID
  5
2A3C8
  8
0
  6
BYBLOCK
 62
     0
 10
0.0
 20
0.0
 30
0.0
 11
-1.0
 21
0.1666666667
 31
0.0
 12
-1.0
 22
-0.1666666667
 32
0.0
 13
-1.0
 23
-0.1666666667
 33
0.0
  0
ENDBLK
  5
2A3C9
  8
0
  6
BYBLOCK
 62
     0
  0
ENDSEC
  0
SECTION
  2
ENTITIES
  0
ATTDEF
  5
2A275
  8
DEFPOINTS
 10
3072.1870024605041181
 20
152.5670293861942923
 30
0.0
 40
0.001
  1
K-T14501-4
  3

  2
MODELNUMBER
 70
     0
1001
ACDBATTR
1070
     0
1070
     1
  0
ATTDEF
  5
2A276
  8
DEFPOINTS
 10
3072.1870024605041181
 20
152.5653627195275988
 30
0.0
 40
0.001
  1
PURIST
  3

  2
TRADENAME
 70
     0
1001
ACDBATTR
1070
     0
1070
     1
  0
ATTDEF
  5
2A277
  8
DEFPOINTS
 10
3072.1870024605041181
 20
152.5636960528609052
 30
0.0
 40
0.001
  1
VALVE TRIM
  3

  2
PRODUCT
 70
     0
1001
ACDBATTR
1070
     0
1070
     1
  0
LINE
  5
2A68E
  8
0
 10
3071.2765381400809019
 20
149.1628955309143976
 30
0.0
 11
3071.4265381400809929
 21
149.1628955309143976
 31
0.0
  0
LINE
  5
2A68F
  8
0
 10
3071.4265381400809929
 20
149.1662059661144895
 30
0.0
 11
3071.4294008648807903
 21
149.1662059661144895
 31
0.0
  0
LINE
  5
2A690
  8
0
 10
3071.5515381400809929
 20
149.1837728378143879
 30
0.0
 11
3072.1865381400821207
 21
149.2923153755143915
 31
0.0
  0
LINE
  5
2A691
  8
0
 10
3071.5515381400809929
 20
149.1871037460144009
 30
0.0
 11
3071.4294008648807903
 21
149.1662059661144895
 31
0.0
  0
LINE
  5
2A692
  8
0
 10
3067.3900381400808328
 20
149.5086955309143946
 30
0.0
 11
3066.7400381400821061
 21
149.5086955309143946
 31
0.0
  0
LINE
  5
2A693
  8
0
 10
3070.806538140081102
 20
149.8878955310144079
 30
0.0
 11
3071.1765381400809929
 21
149.8878955310144079
 31
0.0
  0
LINE
  5
2A694
  8
0
 10
3069.5415381400807746
 20
149.9628955310143965
 30
0.0
 11
3070.7765381400818114
 21
149.9628955310143965
 31
0.0
  0
LINE
  5
2A695
  8
0
 10
3069.5415381400807746
 20
150.5628955310143908
 30
0.0
 11
3070.7765381400818114
 21
150.5628955310143908
 31
0.0
  0
LINE
  5
2A696
  8
0
 10
3072.1865381400821207
 20
155.8334756864144026
 30
0.0
 11
3072.1865381400821207
 21
149.2923153755143915
 31
0.0
  0
LINE
  5
2A697
  8
0
 10
3070.806538140081102
 20
150.6378955310144079
 30
0.0
 11
3071.1765381400809929
 21
150.6378955310144079
 31
0.0
  0
LINE
  5
2A698
  8
0
 10
3071.5515381400809929
 20
149.1837728378143879
 30
0.0
 11
3071.5515381400809929
 21
149.1871037460144009
 31
0.0
  0
LINE
  5
2A699
  8
0
 10
3071.4265381400809929
 20
149.1662059802143858
 30
0.0
 11
3071.4265381400809929
 21
149.1628955309143976
 31
0.0
  0
LINE
  5
2A69A
  8
0
 10
3070.9865381400809383
 20
151.5628955310143908
 30
0.0
 11
3071.0065381400809201
 21
151.5628955310143908
 31
0.0
  0
LINE
  5
2A69B
  8
0
 10
3071.1765381400809929
 20
149.2628955310144079
 30
0.0
 11
3071.1765381400809929
 21
155.8628955310144022
 31
0.0
  0
LINE
  5
2A69C
  8
0
 10
3068.4900381400811966
 20
151.7628955310144079
 30
0.0
 11
3068.5400381400818333
 21
151.7628955310144079
 31
0.0
  0
LINE
  5
2A69D
  8
0
 10
3068.9535381400810365
 20
151.7743955310143917
 30
0.0
 11
3070.956538140081193
 21
151.7743955310143917
 31
0.0
  0
LINE
  5
2A69E
  8
0
 10
3068.7035381400810365
 20
151.7807623902143916
 30
0.0
 11
3068.8535381400811275
 21
151.7807623902143916
 31
0.0
  0
LINE
  5
2A69F
  8
0
 10
3068.7035381400810365
 20
151.8264938998144089
 30
0.0
 11
3068.5600381400809056
 21
151.8214827693144002
 31
0.0
  0
LINE
  5
2A6A0
  8
0
 10
3070.956538140081193
 20
151.592895531014392
 30
0.0
 11
3070.956538140081193
 21
153.5328924921143994
 31
0.0
  0
LINE
  5
2A6A1
  8
0
 10
3070.7765381400818114
 20
149.917895531014409
 30
0.0
 11
3070.7765381400818114
 21
150.606930841014389
 31
0.0
  0
LINE
  5
2A6A2
  8
0
 10
3067.368132643926856
 20
152.3028813011021043
 30
0.0
 11
3068.1900381400810147
 21
152.3028955310143999
 31
0.0
  0
LINE
  5
2A6A3
  8
0
 10
3067.3685968065810812
 20
152.8228955310144102
 30
0.0
 11
3068.1900381400810147
 21
152.8228955310144102
 31
0.0
  0
LINE
  5
2A6A4
  8
0
 10
3068.7035381400810365
 20
153.2992971622144012
 30
0.0
 11
3068.5600381400809056
 21
153.3043082927144098
 31
0.0
  0
LINE
  5
2A6A5
  8
0
 10
3069.5315381400810111
 20
149.9728955310143874
 30
0.0
 11
3069.5315381400810111
 21
150.552892701614411
 31
0.0
  0
LINE
  5
2A6A6
  8
0
 10
3068.7035381400810365
 20
153.3513955310143899
 30
0.0
 11
3070.956538140081193
 21
153.3513955310143899
 31
0.0
  0
LINE
  5
2A6A7
  8
0
 10
3068.4900381400811966
 20
153.3628955310144022
 30
0.0
 11
3068.5400381400818333
 21
153.3628955310144022
 31
0.0
  0
LINE
  5
2A6A8
  8
0
 10
3070.9865381400809383
 20
153.5628955310143908
 30
0.0
 11
3071.0065381400809201
 21
153.5628955310143908
 31
0.0
  0
LINE
  5
2A6A9
  8
0
 10
3066.7400381400821061
 20
153.9128955309143976
 30
0.0
 11
3067.3900381400808328
 21
153.9128955309143976
 31
0.0
  0
LINE
  5
2A6AA
  8
0
 10
3068.7035381400810365
 20
151.7807623902143916
 30
0.0
 11
3068.7035381400810365
 21
153.3513955310143899
 31
0.0
  0
LINE
  5
2A6AB
  8
0
 10
3068.5600381400809056
 20
151.7828955310143897
 30
0.0
 11
3068.5600381400809056
 21
153.3428860586143969
 31
0.0
  0
LINE
  5
2A6AC
  8
0
 10
3068.4700381400812148
 20
151.7829027614143911
 30
0.0
 11
3068.4700381400812148
 21
153.3428883006143906
 31
0.0
  0
LINE
  5
2A6AD
  8
0
 10
3067.3900381400808328
 20
153.9128955309143976
 30
0.0
 11
3067.3900381400808328
 21
152.850372961314406
 31
0.0
  0
LINE
  5
2A6AE
  8
0
 10
3067.3900381400808328
 20
152.2754045114143935
 30
0.0
 11
3067.3900381400808328
 21
149.5086955309143946
 31
0.0
  0
LINE
  5
2A6AF
  8
0
 10
3066.7400381400821061
 20
153.9128955309143976
 30
0.0
 11
3066.7400381400821061
 21
149.5086955309143946
 31
0.0
  0
LINE
  5
2A6B0
  8
0
 10
3071.4294008648807903
 20
155.9628955309144089
 30
0.0
 11
3072.1865381400821207
 21
155.8334756864144026
 31
0.0
  0
LINE
  5
2A6B1
  8
0
 10
3071.2765381400809019
 20
155.9628955309144089
 30
0.0
 11
3071.4294008648807903
 21
155.9628955309144089
 31
0.0
  0
ARC
  5
2A6B2
  8
0
 10
3071.2765381402518869
 20
149.2628955310850927
 30
0.0
 40
0.1000000001707111
 50
180.0000000405123899
 51
269.9999999021890744
  0
ARC
  5
2A6B3
  8
0
 10
3070.806538140081102
 20
149.917895531014409
 30
0.0
 40
0.03
 50
180.0
 51
270.0
  0
ARC
  5
2A6B4
  8
0
 10
3070.8065485368979353
 20
150.6078704308800127
 30
0.0
 40
0.03002510193445
 50
90.0198398558332542
 51
181.7932769818357031
  0
ARC
  5
2A6B5
  8
0
 10
3070.9865381400809383
 20
151.592895531014392
 30
0.0
 40
0.0299999999999994
 50
180.0000000000032117
 51
270.0
  0
ARC
  5
2A6B6
  8
0
 10
3069.5415381403640822
 20
150.5528955303315115
 30
0.0
 40
0.0100000006829766
 50
90.000001620888014
 51
180.0162073537956928
  0
ARC
  5
2A6B7
  8
0
 10
3069.5415381400807746
 20
149.9728955310143874
 30
0.0
 40
0.01
 50
180.0
 51
270.0
  0
ARC
  5
2A6B8
  8
0
 10
3071.0065381400809201
 20
151.5728955310144102
 30
0.0
 40
0.01
 50
270.0
 51
359.999990177199777
  0
ARC
  5
2A6B9
  8
0
 10
3071.2765381399099169
 20
155.862895531085087
 30
0.0
 40
0.09999999982929
 50
89.9999999021891455
 51
180.0000000405140099
  0
ARC
  5
2A6BA
  8
0
 10
3070.9865381401900777
 20
153.5328955307516878
 30
0.0
 40
0.0300000002627057
 50
90.0000002078415662
 51
180.0058033697075075
  0
ARC
  5
2A6BB
  8
0
 10
3071.0065381400809201
 20
153.5528955310143999
 30
0.0
 40
0.01
 50
0.0000098228002445
 51
90.0
  0
ARC
  5
2A6BC
  8
0
 10
3068.0625448391811005
 20
150.207748462314413
 30
0.0
 40
3.25
 50
16.6342181600022982
 51
24.7235623595288985
  0
ARC
  5
2A6BD
  8
0
 10
3068.1900381400810147
 20
152.0228955310143988
 30
0.0
 40
0.28
 50
0.0000044331000652
 51
90.0
  0
ARC
  5
2A6BE
  8
0
 10
3068.5400381400818333
 20
151.7828955310143897
 30
0.0
 40
0.02
 50
270.0
 51
0.0
  0
ARC
  5
2A6BF
  8
0
 10
3068.4900381410047885
 20
151.7828955332441865
 30
0.0
 40
0.0200000022297649
 50
179.9792928194491992
 51
269.9999973540781184
  0
ARC
  5
2A6C0
  8
0
 10
3068.0625448391811005
 20
154.9180425998144131
 30
0.0
 40
3.25
 50
335.2764376392847794
 51
343.3657818399976804
  0
ARC
  5
2A6C1
  8
0
 10
3068.1900381400810147
 20
153.1028955310144113
 30
0.0
 40
0.28
 50
270.0
 51
359.9999955668998837
  0
ARC
  5
2A6C2
  8
0
 10
3068.4900381410047885
 20
153.3428955287847089
 30
0.0
 40
0.0200000022297653
 50
90.0000026459218532
 51
180.0207071805425869
  0
ARC
  5
2A6C3
  8
0
 10
3068.5400381384961292
 20
153.3428955271882046
 30
0.0
 40
0.0200000038262281
 50
359.972874538408405
 51
89.9999954596636371
  0
ARC
  5
2A6C4
  8
0
 10
3067.3780186167209649
 20
152.2748004186618971
 30
0.0
 40
0.012034694423833
 50
2.8772244100357081
 51
51.1966597342851131
  0
ARC
  5
2A6C5
  8
0
 10
3068.5249927718309664
 20
153.3634201940880928
 30
0.0
 40
1.5694164836232409
 50
215.1846958619445047
 51
223.4459755198496964
  0
ARC
  5
2A6C6
  8
0
 10
3067.5069716557759421
 20
152.5683871569204939
 30
0.0
 40
0.2863374266753547
 50
167.279877980058103
 51
202.4372413553221008
  0
ARC
  5
2A6C7
  8
0
 10
3067.7841258595221916
 20
152.3587526438915916
 30
0.0
 40
0.619683984070486
 50
135.5735170759679136
 51
153.8938688393535017
  0
ARC
  5
2A6C8
  8
0
 10
3070.0272163084591739
 20
150.4306368693908098
 30
0.0
 40
3.576475149439895
 50
137.5788360594650896
 51
138.669905011178713
  0
ARC
  5
2A6C9
  8
0
 10
3067.3795275530392246
 20
152.8505920251411112
 30
0.0
 40
0.0105128696809048
 50
315.6109848862594731
 51
358.8060023958838087
  0
LINE
  5
2A6CA
  8
0
 10
3071.0165381400820479
 20
151.5728955293000126
 30
0.0
 11
3071.0165381400820479
 21
153.5528955327287974
 31
0.0
  0
ARC
  5
2A6CB
  8
0
 10
3070.7292587393071699
 20
150.1341299417879895
 30
0.0
 40
0.0409707126155375
 50
138.4187864289096126
 51
191.1092217997272087
  0
ARC
  5
2A6CC
  8
0
 10
3070.7382446257529409
 20
150.1273958265242072
 30
0.0
 40
0.0521698297015176
 50
105.4207955115925017
 51
139.4364146979953887
  0
ARC
  5
2A6CD
  8
0
 10
3070.7414633966809561
 20
150.1157266968280908
 30
0.0
 40
0.0642747491209688
 50
72.3649250139748546
 51
105.4207955115925017
  0
ARC
  5
2A6CE
  8
0
 10
3070.7433275702251194
 20
150.1244936381343109
 30
0.0
 40
0.0553620341884995
 50
53.1387055672361512
 51
71.4547630247325998
  0
ARC
  5
2A6CF
  8
0
 10
3070.7413642825240458
 20
150.1449298557685097
 30
0.0
 40
0.0576299813787566
 50
251.5256909914440939
 51
307.6140595143169776
  0
ARC
  5
2A6D0
  8
0
 10
3070.737918576201082
 20
150.1383932317579877
 30
0.0
 40
0.0503525687865101
 50
193.9720134592548959
 51
252.8876633000458014
  0
ARC
  5
2A6D1
  8
0
 10
3070.7348413668178182
 20
150.1599267981607966
 30
0.0
 40
0.0432371952270065
 50
190.4808359693803936
 51
241.499625185976214
  0
ARC
  5
2A6D2
  8
0
 10
3070.7418750008541792
 20
150.1728809384624128
 30
0.0
 40
0.0579776755008736
 50
241.499625185976214
 51
282.7109590406548136
  0
ARC
  5
2A6D3
  8
0
 10
3070.7435094494958321
 20
150.1656347805765961
 30
0.0
 40
0.0505494707064611
 50
282.7109590406548136
 51
310.8093163525996943
  0
ARC
  5
2A6D4
  8
0
 10
3070.7408963299758398
 20
150.0970223426037933
 30
0.0
 40
0.0870776390708476
 50
65.8384580862444295
 51
97.436978407550896
  0
ARC
  5
2A6D5
  8
0
 10
3070.738756057332921
 20
150.1134186700882083
 30
0.0
 40
0.0705422127998692
 50
97.436978407550896
 51
141.8666674303011064
  0
ARC
  5
2A6D6
  8
0
 10
3070.7233881192692024
 20
150.1254831165790051
 30
0.0
 40
0.0510044445172079
 50
141.8666674303011064
 51
194.3864214893297913
  0
ARC
  5
2A6D7
  8
0
 10
3070.7317065244010337
 20
150.1276168187953886
 30
0.0
 40
0.0595921420599799
 50
194.3864214893283133
 51
241.638103495509398
  0
ARC
  5
2A6D8
  8
0
 10
3070.7416346772279212
 20
150.146007775825808
 30
0.0
 40
0.0804917956230607
 50
241.638103495509398
 51
295.6979970128234072
  0
ARC
  5
2A6D9
  8
0
 10
3068.6899992355470204
 20
151.9939282119127881
 30
0.0
 40
0.1305831014999408
 50
84.0472313090833438
 51
110.8927932874471054
  0
ARC
  5
2A6DA
  8
0
 10
3068.6646475846309841
 20
152.0484001562684
 30
0.0
 40
0.0707800555761029
 50
107.4431288856808067
 51
168.1910541979893026
  0
ARC
  5
2A6DB
  8
0
 10
3068.6499372634430074
 20
152.0583573973678995
 30
0.0
 40
0.0547592207647529
 50
175.2570288811461978
 51
229.0686714306891076
  0
ARC
  5
2A6DC
  8
0
 10
3068.6842640553791171
 20
152.0979415737982947
 30
0.0
 40
0.1071542173616604
 50
229.0686714306891076
 51
258.4646242001726932
  0
ARC
  5
2A6DD
  8
0
 10
3068.6897113138370514
 20
152.1246313447965122
 30
0.0
 40
0.1343941971825705
 50
258.4646242001726932
 51
275.9057127314733862
  0
ARC
  5
2A6DE
  8
0
 10
3068.6632194199250989
 20
152.0334692070298956
 30
0.0
 40
0.0827938643460259
 50
118.0827205320791933
 51
180.5751460431829116
  0
ARC
  5
2A6DF
  8
0
 10
3068.636233194235956
 20
152.0397462953951049
 30
0.0
 40
0.0562543608823307
 50
187.2591715638851895
 51
232.8114707608193896
  0
ARC
  5
2A6E0
  8
0
 10
3068.6733808648609738
 20
152.088706894848201
 30
0.0
 40
0.1177123931621872
 50
232.8114707608193896
 51
262.0524818511706258
  0
ARC
  5
2A6E1
  8
0
 10
3068.6866504386839551
 20
152.1837564632733972
 30
0.0
 40
0.2136837537196467
 50
262.0524818511706258
 51
274.5328860844455789
  0
LINE
  5
2A6E2
  8
0
 10
3071.4294008648807903
 20
155.9628955309144089
 30
0.0
 11
3071.4294008648807903
 21
149.1662059661144895
 31
0.0
  0
ARC
  5
2A6E4
  8
0
 10
3068.8761994572969343
 20
151.3481885512252063
 30
0.0
 40
0.4331670133745746
 50
79.7151291477923252
 51
92.9988221406893132
  0
ENDSEC
  0
EOF
