  0
SECTION
  2
HEADER
  9
$ACADVER
  1
AC1009
  9
$INSBASE
 10
3062.8665724264810706
 20
152.562895530964397
 30
0.0
  9
$EXTMIN
 10
3059.3662738881957921
 20
149.1592266694329965
 30
-0.0000000000112498
  9
$EXTMAX
 10
3066.3844531657578045
 20
155.9659117787466016
 30
0.0000000000002956
  9
$LIMMIN
 10
0.0
 20
0.0
  9
$LIMMAX
 10
11.6929133858000007
 20
8.2677165353999982
  9
$ORTHOMODE
 70
     1
  9
$REGENMODE
 70
     1
  9
$FILLMODE
 70
     1
  9
$QTEXTMODE
 70
     0
  9
$MIRRTEXT
 70
     0
  9
$DRAGMODE
 70
     2
  9
$LTSCALE
 40
0.6431102362
  9
$OSMODE
 70
  4095
  9
$ATTMODE
 70
     1
  9
$TEXTSIZE
 40
0.2
  9
$TRACEWID
 40
0.05
  9
$TEXTSTYLE
  7
STANDARD
  9
$CLAYER
  8
0
  9
$CELTYPE
  6
BYLAYER
  9
$CECOLOR
 62
   256
  9
$DIMSCALE
 40
1.0
  9
$DIMASZ
 40
0.1875
  9
$DIMEXO
 40
0.0625
  9
$DIMDLI
 40
0.4443307087
  9
$DIMRND
 40
0.0
  9
$DIMDLE
 40
0.0
  9
$DIMEXE
 40
0.125
  9
$DIMTP
 40
0.01
  9
$DIMTM
 40
0.01
  9
$DIMTXT
 40
2.0
  9
$DIMCEN
 40
0.1052362205
  9
$DIMTSZ
 40
0.0
  9
$DIMTOL
 70
     1
  9
$DIMLIM
 70
     0
  9
$DIMTIH
 70
     1
  9
$DIMTOH
 70
     1
  9
$DIMSE1
 70
     0
  9
$DIMSE2
 70
     0
  9
$DIMTAD
 70
     0
  9
$DIMZIN
 70
     0
  9
$DIMBLK
  1

  9
$DIMASO
 70
     1
  9
$DIMSHO
 70
     1
  9
$DIMPOST
  1
\X
  9
$DIMAPOST
  1

  9
$DIMALT
 70
     1
  9
$DIMALTD
 70
     2
  9
$DIMALTF
 40
25.3999999999999986
  9
$DIMLFAC
 40
1.0
  9
$DIMTOFL
 70
     0
  9
$DIMTVP
 40
0.0
  9
$DIMTIX
 70
     0
  9
$DIMSOXD
 70
     0
  9
$DIMSAH
 70
     0
  9
$DIMBLK1
  1

  9
$DIMBLK2
  1

  9
$DIMSTYLE
  2
STANDARD
  9
$DIMCLRD
 70
     0
  9
$DIMCLRE
 70
     0
  9
$DIMCLRT
 70
     0
  9
$DIMTFAC
 40
1.0
  9
$DIMGAP
 40
0.09
  9
$LUNITS
 70
     2
  9
$LUPREC
 70
     4
  9
$SKETCHINC
 40
0.1
  9
$FILLETRAD
 40
0.0
  9
$AUNITS
 70
     0
  9
$AUPREC
 70
     0
  9
$MENU
  1
.
  9
$ELEVATION
 40
0.0
  9
$PELEVATION
 40
0.0
  9
$THICKNESS
 40
0.0
  9
$LIMCHECK
 70
     0
  9
$BLIPMODE
 70
     0
  9
$CHAMFERA
 40
0.0
  9
$CHAMFERB
 40
0.0
  9
$SKPOLY
 70
     0
  9
$TDCREATE
 40
2458060.468368056230247
  9
$TDUPDATE
 40
2459621.6524305557832122
  9
$TDINDWG
 40
0.435296412
  9
$TDUSRTIMER
 40
0.435296412
  9
$USRTIMER
 70
     1
  9
$ANGBASE
 50
0.0
  9
$ANGDIR
 70
     0
  9
$PDMODE
 70
     0
  9
$PDSIZE
 40
0.3125
  9
$PLINEWID
 40
0.0
  9
$COORDS
 70
     1
  9
$SPLFRAME
 70
     0
  9
$SPLINETYPE
 70
     6
  9
$SPLINESEGS
 70
     8
  9
$ATTDIA
 70
     1
  9
$ATTREQ
 70
     1
  9
$HANDLING
 70
     1
  9
$HANDSEED
  5
2ACCF
  9
$SURFTAB1
 70
     6
  9
$SURFTAB2
 70
     6
  9
$SURFTYPE
 70
     6
  9
$SURFU
 70
     6
  9
$SURFV
 70
     6
  9
$UCSNAME
  2

  9
$UCSORG
 10
0.0
 20
0.0
 30
0.0
  9
$UCSXDIR
 10
1.0
 20
0.0
 30
0.0
  9
$UCSYDIR
 10
0.0
 20
1.0
 30
0.0
  9
$PUCSNAME
  2

  9
$PUCSORG
 10
0.0
 20
0.0
 30
0.0
  9
$PUCSXDIR
 10
1.0
 20
0.0
 30
0.0
  9
$PUCSYDIR
 10
0.0
 20
1.0
 30
0.0
  9
$USERI1
 70
     0
  9
$USERI2
 70
     0
  9
$USERI3
 70
     0
  9
$USERI4
 70
     0
  9
$USERI5
 70
     0
  9
$USERR1
 40
0.0
  9
$USERR2
 40
0.0
  9
$USERR3
 40
0.0
  9
$USERR4
 40
0.0
  9
$USERR5
 40
0.0
  9
$WORLDVIEW
 70
     1
  9
$SHADEDGE
 70
     3
  9
$SHADEDIF
 70
    70
  9
$TILEMODE
 70
     1
  9
$MAXACTVP
 70
    64
  9
$PLIMCHECK
 70
     0
  9
$PEXTMIN
 10
1.0000000000000000E+20
 20
1.0000000000000000E+20
 30
1.0000000000000000E+20
  9
$PEXTMAX
 10
-1.0000000000000000E+20
 20
-1.0000000000000000E+20
 30
-1.0000000000000000E+20
  9
$PLIMMIN
 10
0.0
 20
0.0
  9
$PLIMMAX
 10
12.0
 20
9.0
  9
$UNITMODE
 70
     0
  9
$VISRETAIN
 70
     1
  9
$PLINEGEN
 70
     0
  9
$PSLTSCALE
 70
     1
  0
ENDSEC
  0
SECTION
  2
TABLES
  0
TABLE
  2
VPORT
 70
     1
  0
VPORT
  2
*ACTIVE
 70
     0
 10
0.0
 20
0.0
 11
1.0
 21
1.0
 12
-740.6687038558357017
 22
26.5673070273399112
 13
0.0
 23
0.0
 14
1.0
 24
1.0
 15
0.0
 25
0.0
 16
0.0
 26
0.0
 36
17.1152628219792007
 17
3803.5440673828129547
 27
125.9952621967499056
 37
0.0
 40
6.8554203248934718
 41
2.2831541218637992
 42
50.0
 43
0.0
 44
0.0
 50
0.0
 51
0.0
 71
     0
 72
   100
 73
     1
 74
     1
 75
     0
 76
     0
 77
     0
 78
     0
  0
ENDTAB
  0
TABLE
  2
LTYPE
 70
     2
  0
LTYPE
  2
CONTINUOUS
 70
     0
  3
Solid line
 72
    65
 73
     0
 40
0.0
  0
LTYPE
  2
PHANTOM2
 70
     0
  3
___ _ _ ___ _ _ ___ _ _ ___ _ _
 72
    65
 73
     6
 40
1.25
 49
0.625
 49
-0.125
 49
0.125
 49
-0.125
 49
0.125
 49
-0.125
  0
ENDTAB
  0
TABLE
  2
LAYER
 70
     2
  0
LAYER
  2
0
 70
     0
 62
   255
  6
CONTINUOUS
  0
LAYER
  2
DEFPOINTS
 70
     0
 62
     7
  6
CONTINUOUS
  0
ENDTAB
  0
TABLE
  2
STYLE
 70
     1
  0
STYLE
  2
STANDARD
 70
     0
 40
0.0
 41
0.8
 50
0.0
 71
     0
 42
0.2
  3
txt
  4

  0
ENDTAB
  0
TABLE
  2
VIEW
 70
     0
  0
ENDTAB
  0
TABLE
  2
UCS
 70
     0
  0
ENDTAB
  0
TABLE
  2
APPID
 70
     9
  0
APPID
  2
ACAD
 70
     0
  0
APPID
  2
ACAD_MLEADERVER
 70
     0
  0
APPID
  2
ACAD_EXEMPT_FROM_CAD_STANDARDS
 70
     0
  0
APPID
  2
ACAD_NAV_VCDISPLAY
 70
     0
  0
APPID
  2
ACAECLAYERSTANDARD
 70
     0
  0
APPID
  2
ACCMTRANSPARENCY
 70
     0
  0
APPID
  2
ACAD_DSTYLE_DIMJAG
 70
     0
  0
APPID
  2
ACAD_DSTYLE_DIMTALN
 70
     0
  0
APPID
  2
ACDBATTR
 70
     0
  0
ENDTAB
  0
TABLE
  2
DIMSTYLE
 70
     1
  0
DIMSTYLE
  2
STANDARD
 70
     0
  3

  4

  5

  6

  7

 40
1.0
 41
0.1875
 42
0.0625
 43
0.38
 44
0.125
 45
0.0
 46
0.0
 47
0.01
 48
0.01
140
0.15625
141
0.09
142
0.0
143
25.3999999999999986
144
1.0
145
0.0
146
1.0
147
0.09
 71
     1
 72
     0
 73
     1
 74
     1
 75
     0
 76
     0
 77
     0
 78
     4
170
     0
171
     2
172
     0
173
     0
174
     0
175
     0
176
     0
177
     0
178
     0
  0
ENDTAB
  0
ENDSEC
  0
SECTION
  2
BLOCKS
  0
BLOCK
  8
0
  2
$MODEL_SPACE
 70
     0
 10
0.0
 20
0.0
 30
0.0
  3
$MODEL_SPACE
  1

  0
ENDBLK
  5
21
  8
0
  0
BLOCK
 67
     1
  8
0
  2
$PAPER_SPACE
 70
     0
 10
0.0
 20
0.0
 30
0.0
  3
$PAPER_SPACE
  1

  0
ENDBLK
  5
1D
 67
     1
  8
0
  0
BLOCK
  8
0
  2
_FILLED
 70
     0
 10
0.0
 20
0.0
 30
0.0
  3
_FILLED
  1

  0
SOLID
  5
2A3C8
  8
0
  6
BYBLOCK
 62
     0
 10
0.0
 20
0.0
 30
0.0
 11
-1.0
 21
0.1666666667
 31
0.0
 12
-1.0
 22
-0.1666666667
 32
0.0
 13
-1.0
 23
-0.1666666667
 33
0.0
  0
ENDBLK
  5
2A3C9
  8
0
  6
BYBLOCK
 62
     0
  0
ENDSEC
  0
SECTION
  2
ENTITIES
  0
LINE
  5
2A64D
  8
0
 10
3062.5416472937818071
 20
149.5086955309143946
 30
0.0
 11
3063.1916472937809885
 21
149.5086955309143946
 31
0.0
  0
LINE
  5
2A64E
  8
0
 10
3062.5416472937818071
 20
149.5086955309143946
 30
0.0
 11
3062.5416472937818071
 21
153.9128955309143976
 31
0.0
  0
LINE
  5
2A64F
  8
0
 10
3062.0271472937811268
 20
152.5088955309144012
 30
0.0
 11
3062.0534382185737741
 21
152.5088955309146002
 31
0.0
  0
LINE
  5
2A650
  8
0
 10
3063.6798563689890216
 20
152.5088955309144012
 30
0.0
 11
3063.6991472937811523
 21
152.5088955309144012
 31
0.0
  0
LINE
  5
2A651
  8
0
 10
3063.1916472937809885
 20
149.5086955309143946
 30
0.0
 11
3063.1916472937809885
 21
153.9128955309143976
 31
0.0
  0
LINE
  5
2A652
  8
0
 10
3062.0271472937811268
 20
152.6168955309144053
 30
0.0
 11
3062.0534382185737741
 21
152.6168955309144053
 31
0.0
  0
LINE
  5
2A653
  8
0
 10
3063.6798563689890216
 20
152.6168955309142916
 30
0.0
 11
3063.6991472937811523
 21
152.6168955309144053
 31
0.0
  0
LINE
  5
2A654
  8
0
 10
3063.1916472937809885
 20
153.9128955309143976
 30
0.0
 11
3062.5416472937818071
 21
153.9128955309143976
 31
0.0
  0
ARC
  5
2A655
  8
0
 10
3062.0271472937811268
 20
152.5628955309144033
 30
0.0
 40
0.054
 50
90.0
 51
270.0
  0
CIRCLE
  5
2A656
  8
0
 10
3062.8666472937811704
 20
152.5628955309144033
 30
0.0
 40
3.399999999999999
  0
ARC
  5
2A657
  8
0
 10
3062.8666472937811704
 20
152.5628955309144033
 30
0.0
 40
1.0
 50
288.9655749888386822
 51
71.0344250111613036
  0
ARC
  5
2A658
  8
0
 10
3062.8666475433788037
 20
152.5628959496727077
 30
0.0
 40
1.0000002496097651
 50
108.9655851957756028
 51
251.0344148042244115
  0
ARC
  5
2A659
  8
0
 10
3062.8666472937811704
 20
152.5628955309144033
 30
0.0
 40
0.8671499999999999
 50
176.8847918728000934
 51
183.1152081271999066
  0
ARC
  5
2A65A
  8
0
 10
3062.8666472937811704
 20
152.5628955309144033
 30
0.0
 40
0.8671499999999999
 50
357.2067728178004131
 51
2.7932271821996539
  0
ARC
  5
2A65B
  8
0
 10
3062.8666466533850326
 20
152.5628953044740115
 30
0.0
 40
0.8149993460066493
 50
183.7990550429364873
 51
246.4985335509059894
  0
ARC
  5
2A65C
  8
0
 10
3062.8666472937811704
 20
152.5628955309144033
 30
0.0
 40
0.8149999999999998
 50
293.5014955496462221
 51
356.2009320559005232
  0
ARC
  5
2A65D
  8
0
 10
3062.8666472915288068
 20
152.5628955301179985
 30
0.0
 40
0.815000002300219
 50
3.799067989475839
 51
66.4985043479883018
  0
ARC
  5
2A65E
  8
0
 10
3062.8666474168480818
 20
152.5628954873982082
 30
0.0
 40
0.8150001256793838
 50
113.5015011419564956
 51
176.2009295766110029
  0
ARC
  5
2A65F
  8
0
 10
3063.6991472937811523
 20
152.5628955309144033
 30
0.0
 40
0.054
 50
270.0
 51
90.0
  0
CIRCLE
  5
2A660
  8
0
 10
3061.4613125763271455
 20
150.1297956569021892
 30
0.0
 40
0.0669229613477558
  0
CIRCLE
  5
2A661
  8
0
 10
3060.4244181903050048
 20
151.1542607958747055
 30
0.0
 40
0.1498111615724037
  0
CIRCLE
  5
2A662
  8
0
 10
3060.0561711764680695
 20
152.5629199360340067
 30
0.0
 40
0.0674859870195859
  0
CIRCLE
  5
2A663
  8
0
 10
3060.4243800064591596
 20
153.9740903164114059
 30
0.0
 40
0.1497501193861635
  0
CIRCLE
  5
2A664
  8
0
 10
3061.4612932001377885
 20
154.9960819683589079
 30
0.0
 40
0.0669406469823526
  0
ARC
  5
2A665
  8
0
 10
3062.8666472937811704
 20
150.2628955309143919
 30
0.0
 40
0.375
 50
150.0735651333899057
 51
209.9264348666100943
  0
ARC
  5
2A666
  8
0
 10
3062.8666472937811704
 20
150.2628955309143919
 30
0.0
 40
0.375
 50
330.0735651333898772
 51
29.9264348666101014
  0
ATTDEF
  5
2A82C
  8
DEFPOINTS
 10
3062.8550001022899778
 20
152.5670293861942923
 30
0.0
 40
0.001
  1
K-T14501-4
  3

  2
MODELNUMBER
 70
     0
1001
ACDBATTR
1070
     0
1070
     1
  0
ATTDEF
  5
2A82D
  8
DEFPOINTS
 10
3062.8550001022899778
 20
152.5653627195275988
 30
0.0
 40
0.001
  1
PURIST
  3

  2
TRADENAME
 70
     0
1001
ACDBATTR
1070
     0
1070
     1
  0
ATTDEF
  5
2A82E
  8
DEFPOINTS
 10
3062.8550001022899778
 20
152.5636960528609052
 30
0.0
 40
0.001
  1
VALVE TRIM
  3

  2
PRODUCT
 70
     0
1001
ACDBATTR
1070
     0
1070
     1
  0
ENDSEC
  0
EOF
