  0
SECTION
  2
HEADER
  9
$ACADVER
  1
AC1009
  9
$INSBASE
 10
502.6271439597638846
 20
89.884082757531047
 30
0.0
  9
$EXTMIN
 10
500.6560112396755926
 20
87.9387653630272723
 30
-0.0015258207003583
  9
$EXTMAX
 10
504.5825433018035824
 20
91.8268852199481387
 30
0.0000000349246037
  9
$LIMMIN
 10
0.0
 20
0.0
  9
$LIMMAX
 10
11.6929133858000007
 20
8.2677165353999982
  9
$ORTHOMODE
 70
     0
  9
$REGENMODE
 70
     1
  9
$FILLMODE
 70
     1
  9
$QTEXTMODE
 70
     0
  9
$MIRRTEXT
 70
     0
  9
$DRAGMODE
 70
     2
  9
$LTSCALE
 40
0.6431102362
  9
$OSMODE
 70
  4095
  9
$ATTMODE
 70
     1
  9
$TEXTSIZE
 40
0.2
  9
$TRACEWID
 40
0.05
  9
$TEXTSTYLE
  7
STANDARD
  9
$CLAYER
  8
0
  9
$CELTYPE
  6
BYLAYER
  9
$CECOLOR
 62
   256
  9
$DIMSCALE
 40
1.0
  9
$DIMASZ
 40
0.1875
  9
$DIMEXO
 40
0.0625
  9
$DIMDLI
 40
0.4443307087
  9
$DIMRND
 40
0.0
  9
$DIMDLE
 40
0.0
  9
$DIMEXE
 40
0.125
  9
$DIMTP
 40
0.01
  9
$DIMTM
 40
0.01
  9
$DIMTXT
 40
1.0
  9
$DIMCEN
 40
0.1052362205
  9
$DIMTSZ
 40
0.0
  9
$DIMTOL
 70
     1
  9
$DIMLIM
 70
     0
  9
$DIMTIH
 70
     0
  9
$DIMTOH
 70
     1
  9
$DIMSE1
 70
     0
  9
$DIMSE2
 70
     0
  9
$DIMTAD
 70
     0
  9
$DIMZIN
 70
     0
  9
$DIMBLK
  1

  9
$DIMASO
 70
     1
  9
$DIMSHO
 70
     1
  9
$DIMPOST
  1
\X
  9
$DIMAPOST
  1

  9
$DIMALT
 70
     1
  9
$DIMALTD
 70
     2
  9
$DIMALTF
 40
25.3999999999999986
  9
$DIMLFAC
 40
1.0
  9
$DIMTOFL
 70
     0
  9
$DIMTVP
 40
0.0
  9
$DIMTIX
 70
     0
  9
$DIMSOXD
 70
     0
  9
$DIMSAH
 70
     0
  9
$DIMBLK1
  1

  9
$DIMBLK2
  1

  9
$DIMSTYLE
  2
STANDARD
  9
$DIMCLRD
 70
     0
  9
$DIMCLRE
 70
     0
  9
$DIMCLRT
 70
     0
  9
$DIMTFAC
 40
1.0
  9
$DIMGAP
 40
0.09
  9
$LUNITS
 70
     2
  9
$LUPREC
 70
     4
  9
$SKETCHINC
 40
0.1
  9
$FILLETRAD
 40
0.0
  9
$AUNITS
 70
     0
  9
$AUPREC
 70
     0
  9
$MENU
  1
.
  9
$ELEVATION
 40
0.0
  9
$PELEVATION
 40
0.0
  9
$THICKNESS
 40
0.0
  9
$LIMCHECK
 70
     0
  9
$BLIPMODE
 70
     0
  9
$CHAMFERA
 40
0.0
  9
$CHAMFERB
 40
0.0
  9
$SKPOLY
 70
     0
  9
$TDCREATE
 40
2458172.5207638889551163
  9
$TDUPDATE
 40
2459613.6483101858757436
  9
$TDINDWG
 40
0.3118387616
  9
$TDUSRTIMER
 40
0.3118387616
  9
$USRTIMER
 70
     1
  9
$ANGBASE
 50
0.0
  9
$ANGDIR
 70
     0
  9
$PDMODE
 70
     0
  9
$PDSIZE
 40
0.3125
  9
$PLINEWID
 40
0.0
  9
$COORDS
 70
     1
  9
$SPLFRAME
 70
     0
  9
$SPLINETYPE
 70
     6
  9
$SPLINESEGS
 70
     8
  9
$ATTDIA
 70
     1
  9
$ATTREQ
 70
     1
  9
$HANDLING
 70
     1
  9
$HANDSEED
  5
8AAB
  9
$SURFTAB1
 70
     6
  9
$SURFTAB2
 70
     6
  9
$SURFTYPE
 70
     6
  9
$SURFU
 70
     6
  9
$SURFV
 70
     6
  9
$UCSNAME
  2

  9
$UCSORG
 10
0.0
 20
0.0
 30
0.0
  9
$UCSXDIR
 10
1.0
 20
0.0
 30
0.0
  9
$UCSYDIR
 10
0.0
 20
1.0
 30
0.0
  9
$PUCSNAME
  2

  9
$PUCSORG
 10
0.0
 20
0.0
 30
0.0
  9
$PUCSXDIR
 10
1.0
 20
0.0
 30
0.0
  9
$PUCSYDIR
 10
0.0
 20
1.0
 30
0.0
  9
$USERI1
 70
     0
  9
$USERI2
 70
     0
  9
$USERI3
 70
     0
  9
$USERI4
 70
     0
  9
$USERI5
 70
     0
  9
$USERR1
 40
0.0
  9
$USERR2
 40
0.0
  9
$USERR3
 40
0.0
  9
$USERR4
 40
0.0
  9
$USERR5
 40
0.0
  9
$WORLDVIEW
 70
     1
  9
$SHADEDGE
 70
     3
  9
$SHADEDIF
 70
    70
  9
$TILEMODE
 70
     1
  9
$MAXACTVP
 70
    64
  9
$PLIMCHECK
 70
     0
  9
$PEXTMIN
 10
1.0000000000000000E+20
 20
1.0000000000000000E+20
 30
1.0000000000000000E+20
  9
$PEXTMAX
 10
-1.0000000000000000E+20
 20
-1.0000000000000000E+20
 30
-1.0000000000000000E+20
  9
$PLIMMIN
 10
0.0
 20
0.0
  9
$PLIMMAX
 10
12.0
 20
9.0
  9
$UNITMODE
 70
     0
  9
$VISRETAIN
 70
     1
  9
$PLINEGEN
 70
     0
  9
$PSLTSCALE
 70
     1
  0
ENDSEC
  0
SECTION
  2
TABLES
  0
TABLE
  2
VPORT
 70
     1
  0
VPORT
  2
*ACTIVE
 70
     0
 10
0.0
 20
0.0
 11
1.0
 21
1.0
 12
-0.0127512299472983
 22
-0.0131926482630007
 13
0.0
 23
0.0
 14
1.0
 24
1.0
 15
0.0
 25
0.0
 16
0.0
 26
0.0
 36
15.0514596368723108
 17
502.6320285006868858
 27
89.8960179397507062
 37
0.0
 40
3.9159584239155261
 41
2.2831541218637992
 42
50.0
 43
0.0
 44
0.0
 50
0.0
 51
0.0
 71
     0
 72
   100
 73
     1
 74
     1
 75
     0
 76
     0
 77
     0
 78
     0
  0
ENDTAB
  0
TABLE
  2
LTYPE
 70
     2
  0
LTYPE
  2
CONTINUOUS
 70
     0
  3
Solid line
 72
    65
 73
     0
 40
0.0
  0
LTYPE
  2
PHANTOM2
 70
     0
  3
___ _ _ ___ _ _ ___ _ _ ___ _ _
 72
    65
 73
     6
 40
1.25
 49
0.625
 49
-0.125
 49
0.125
 49
-0.125
 49
0.125
 49
-0.125
  0
ENDTAB
  0
TABLE
  2
LAYER
 70
     2
  0
LAYER
  2
0
 70
     0
 62
   255
  6
CONTINUOUS
  0
LAYER
  2
DEFPOINTS
 70
     0
 62
     7
  6
CONTINUOUS
  0
ENDTAB
  0
TABLE
  2
STYLE
 70
     1
  0
STYLE
  2
STANDARD
 70
     0
 40
0.0
 41
0.8
 50
0.0
 71
     0
 42
0.2
  3
txt
  4

  0
ENDTAB
  0
TABLE
  2
VIEW
 70
     0
  0
ENDTAB
  0
TABLE
  2
UCS
 70
     0
  0
ENDTAB
  0
TABLE
  2
APPID
 70
    10
  0
APPID
  2
ACAD
 70
     0
  0
APPID
  2
ACAD_MLEADERVER
 70
     0
  0
APPID
  2
ACAD_EXEMPT_FROM_CAD_STANDARDS
 70
     0
  0
APPID
  2
ACAD_DSTYLE_DIMJAG
 70
     0
  0
APPID
  2
ACAD_DSTYLE_DIMTALN
 70
     0
  0
APPID
  2
ACAD_NAV_VCDISPLAY
 70
     0
  0
APPID
  2
ACAECLAYERSTANDARD
 70
     0
  0
APPID
  2
ACCMTRANSPARENCY
 70
     0
  0
APPID
  2
DCO15
 70
     0
  0
APPID
  2
ACDBATTR
 70
     0
  0
ENDTAB
  0
TABLE
  2
DIMSTYLE
 70
     1
  0
DIMSTYLE
  2
STANDARD
 70
     0
  3

  4

  5

  6

  7

 40
1.0
 41
0.1875
 42
0.0625
 43
0.38
 44
0.125
 45
0.0
 46
0.0
 47
0.01
 48
0.01
140
0.15625
141
0.09
142
0.0
143
25.3999999999999986
144
1.0
145
0.0
146
1.0
147
0.09
 71
     1
 72
     0
 73
     1
 74
     1
 75
     0
 76
     0
 77
     0
 78
     4
170
     0
171
     2
172
     0
173
     0
174
     0
175
     0
176
     0
177
     0
178
     0
  0
ENDTAB
  0
ENDSEC
  0
SECTION
  2
BLOCKS
  0
BLOCK
  8
0
  2
$MODEL_SPACE
 70
     0
 10
0.0
 20
0.0
 30
0.0
  3
$MODEL_SPACE
  1

  0
ENDBLK
  5
21
  8
0
  0
BLOCK
 67
     1
  8
0
  2
$PAPER_SPACE
 70
     0
 10
0.0
 20
0.0
 30
0.0
  3
$PAPER_SPACE
  1

  0
ENDBLK
  5
1D
 67
     1
  8
0
  0
BLOCK
  8
0
  2
_FILLED
 70
     0
 10
0.0
 20
0.0
 30
0.0
  3
_FILLED
  1

  0
SOLID
  5
8578
  8
0
  6
BYBLOCK
 62
     0
 10
0.0
 20
0.0
 30
0.0
 11
-1.0
 21
0.1666666667
 31
0.0
 12
-1.0
 22
-0.1666666667
 32
0.0
 13
-1.0
 23
-0.1666666667
 33
0.0
  0
ENDBLK
  5
8579
  8
0
  6
BYBLOCK
 62
     0
  0
ENDSEC
  0
SECTION
  2
ENTITIES
  0
ATTDEF
  5
829
  8
DEFPOINTS
 10
502.6274983132180978
 20
89.8875161611552471
 30
0.0
 40
0.001
  1
K-T14491-3
  3

  2
MODELNUMBER
 70
     0
1001
ACDBATTR
1070
     0
1070
     1
  0
ATTDEF
  5
82A
  8
DEFPOINTS
 10
502.6274983132180978
 20
89.885849494488582
 30
0.0
 40
0.001
  1
PURIST
  3

  2
TRADENAME
 70
     0
1001
ACDBATTR
1070
     0
1070
     1
  0
ATTDEF
  5
82B
  8
DEFPOINTS
 10
502.6274983132180978
 20
89.8841828278219168
 30
0.0
 40
0.001
  1
VALVE TRIM
  3

  2
PRODUCT
 70
     0
1001
ACDBATTR
1070
     0
1070
     1
  0
LINE
  5
85A6
  8
0
 10
502.8771468622301768
 20
91.6420827575309858
 30
0.0
 11
502.377146871650325
 21
91.6420827575309858
 31
0.0
  0
ARC
  5
85A7
  8
0
 10
502.3795822270876101
 20
91.6298351565095288
 30
0.0
 40
0.0124873811060094
 50
101.2462024444342035
 51
174.9166960049699071
  0
LINE
  5
85A8
  8
0
 10
502.3671439597638937
 20
91.63094158900536
 30
0.0
 11
502.3671439597638937
 21
90.2209416487832527
 31
0.0
  0
ARC
  5
85A9
  8
0
 10
502.2917059692532007
 20
90.2194911811252354
 30
0.0
 40
0.0754519334988667
 50
268.0541140543626852
 51
1.101506492471934
  0
ARC
  5
85AA
  8
0
 10
502.874903141285472
 20
91.6300136020900737
 30
0.0
 40
0.0122759438225372
 50
4.3353492292638398
 51
79.4686321142213927
  0
LINE
  5
85AB
  8
0
 10
502.8871439597638187
 20
91.63094158900536
 30
0.0
 11
502.8871439597638187
 21
90.2209415889053759
 31
0.0
  0
LINE
  5
85AC
  8
0
 10
500.8691439597637896
 20
90.1340798457934795
 30
0.0
 11
500.8691439597637896
 21
89.6330728805638159
 31
0.0
  0
ARC
  5
85AD
  8
0
 10
500.8789182201380754
 20
89.6338883808281537
 30
0.0
 40
0.0098082213751461
 50
184.7693383461092935
 51
271.3187976907985899
  0
LINE
  5
85AE
  8
0
 10
500.8791439595848942
 20
89.6240827575309851
 30
0.0
 11
502.2891438945923142
 21
89.6240827575309851
 31
0.0
  0
ARC
  5
85AF
  8
0
 10
502.2802803454844138
 20
89.5375216013639204
 30
0.0
 40
0.0870137705180475
 50
3.3664936540477708
 51
84.1534962901210974
  0
ARC
  5
85B0
  8
0
 10
500.8822254793341813
 20
90.130645201387523
 30
0.0
 40
0.0135249006082737
 50
96.5151179851494447
 51
165.2886413387570883
  0
LINE
  5
85B1
  8
0
 10
500.8806908714510087
 20
90.1440827575309811
 30
0.0
 11
502.2891439544702052
 21
90.1440827575309811
 31
0.0
  0
LINE
  5
85B2
  8
0
 10
502.3771134036970238
 20
88.1260827575309662
 30
0.0
 11
502.8771745158306885
 21
88.1260827575309662
 31
0.0
  0
ARC
  5
85B3
  8
0
 10
502.8770829570897263
 20
88.1361435271219733
 30
0.0
 40
0.0100611862007627
 50
270.5214098752780956
 51
359.6539305742359147
  0
LINE
  5
85B4
  8
0
 10
502.8871439597638187
 20
88.1360827574145276
 30
0.0
 11
502.8871439597638187
 21
89.5409415293682969
 31
0.0
  0
ARC
  5
85B5
  8
0
 10
502.9738697961299181
 20
89.5377375433908753
 30
0.0
 40
0.0867849999685259
 50
95.7705802160679696
 51
177.8842357377149028
  0
ARC
  5
85B6
  8
0
 10
502.3773746786479819
 20
88.1363130472863219
 30
0.0
 40
0.0102336256076749
 50
181.3656361749584107
 51
268.5370210567770073
  0
LINE
  5
85B7
  8
0
 10
502.3671439597638937
 20
88.136069153473386
 30
0.0
 11
502.3671439597638937
 21
89.5426312759220195
 31
0.0
  0
LINE
  5
85B8
  8
0
 10
504.3851439597638091
 20
89.6340856689788836
 30
0.0
 11
504.3851439597638091
 21
90.1340798456228072
 31
0.0
  0
ARC
  5
85B9
  8
0
 10
504.3714291658004072
 20
90.1303690447026753
 30
0.0
 40
0.014207942036974
 50
15.1399679425017695
 51
74.8433480145859278
  0
LINE
  5
85BA
  8
0
 10
504.3751439601944071
 20
90.1440827575309811
 30
0.0
 11
502.9651440199655781
 21
90.1440827575309811
 31
0.0
  0
ARC
  5
85BB
  8
0
 10
502.9625735293327011
 20
90.2194826321858301
 30
0.0
 40
0.0754436778004659
 50
178.8919247308976992
 51
271.9525396835055062
  0
ARC
  5
85BC
  8
0
 10
504.3714356350159278
 20
89.6377900032002088
 30
0.0
 40
0.0142000091344073
 50
285.1382798611203953
 51
344.8784015074962213
  0
LINE
  5
85BD
  8
0
 10
504.3751439601876996
 20
89.6240827575309851
 30
0.0
 11
502.965143960087687
 21
89.6240827575309851
 31
0.0
  0
ARC
  5
85BE
  8
0
 10
502.6271439596717983
 20
89.8809415890757748
 30
0.0
 40
0.7917927362851027
 50
109.1697958076160972
 51
160.5893821252466864
  0
ARC
  5
85BF
  8
0
 10
502.6271439596717983
 20
89.8809415890757748
 30
0.0
 40
0.7917927362851027
 50
198.9293251341387929
 51
250.8302041923838885
  0
ARC
  5
85C0
  8
0
 10
502.6271439596717983
 20
89.8809415890757748
 30
0.0
 40
0.7917927362851027
 50
289.169795821722289
 51
341.0706748658603829
  0
ARC
  5
85C1
  8
0
 10
502.6271439596717983
 20
89.8809415890757748
 30
0.0
 40
0.7917927362851027
 50
19.4106178747533207
 51
70.830204178277711
  0
LINE
  5
85C2
  8
0
 10
502.4711439597639924
 20
87.9472239260565942
 30
0.0
 11
502.4711439597638787
 21
87.9474866027053679
 31
0.0
  0
ARC
  5
85C3
  8
0
 10
502.7136311846393824
 20
95.4843200029655463
 30
0.0
 40
7.540733237391791
 50
268.1572229481550949
 51
269.342840880300173
  0
LINE
  5
85C4
  8
0
 10
502.7831439597636063
 20
87.9472239260565942
 30
0.0
 11
502.7831439597638905
 21
87.9474866027053679
 31
0.0
  0
LINE
  5
85C5
  8
0
 10
502.345765373567815
 20
90.1668549286573864
 30
0.0
 11
502.9116152953039887
 21
89.5982025195874741
 31
0.0
  0
LINE
  5
85C6
  8
0
 10
502.9085199083565954
 20
90.1668522742216965
 30
0.0
 11
502.3426581361021022
 21
89.5981879635214113
 31
0.0
  0
ARC
  5
85C7
  8
0
 10
502.5406567348882731
 20
95.4843200029655463
 30
0.0
 40
7.540733237391791
 50
270.657159119699827
 51
271.8427770518416082
  0
ARC
  5
85C8
  8
0
 10
502.621224839723709
 20
89.8863961133361329
 30
0.0
 40
1.9459204951264231
 50
274.7730734278753175
 51
359.9318854209612937
  0
ARC
  5
85C9
  8
0
 10
502.6271439597638278
 20
89.884082757530976
 30
0.0
 40
1.939999999999994
 50
90.0
 51
180.0
  0
ARC
  5
85CA
  8
0
 10
502.633063079804117
 20
89.8863961133361329
 30
0.0
 40
1.9459204951264231
 50
180.0681145790387063
 51
265.2269265721246825
  0
ARC
  5
85CB
  8
0
 10
502.6271439597638278
 20
89.884082757530976
 30
0.0
 40
1.939999999999994
 50
0.0
 51
90.0
  0
ENDSEC
  0
EOF
