  0
SECTION
  2
HEADER
  9
$ACADVER
  1
AC1009
  9
$INSBASE
 10
0.0
 20
0.0
 30
0.0
  9
$EXTMIN
 10
1.0000000000000000E+020
 20
1.0000000000000000E+020
 30
1.0000000000000000E+020
  9
$EXTMAX
 10
-1.0000000000000000E+020
 20
-1.0000000000000000E+020
 30
-1.0000000000000000E+020
  9
$LIMMIN
 10
0.0
 20
0.0
  9
$LIMMAX
 10
12.0
 20
9.0
  9
$ORTHOMODE
 70
     0
  9
$REGENMODE
 70
     1
  9
$FILLMODE
 70
     1
  9
$QTEXTMODE
 70
     0
  9
$MIRRTEXT
 70
     1
  9
$DRAGMODE
 70
     2
  9
$LTSCALE
 40
1.0
  9
$OSMODE
 70
     0
  9
$ATTMODE
 70
     1
  9
$TEXTSIZE
 40
0.2
  9
$TRACEWID
 40
0.05
  9
$TEXTSTYLE
  7
STANDARD
  9
$CLAYER
  8
0
  9
$CELTYPE
  6
BYLAYER
  9
$CECOLOR
 62
   256
  9
$DIMSCALE
 40
1.0
  9
$DIMASZ
 40
0.18
  9
$DIMEXO
 40
0.0625
  9
$DIMDLI
 40
0.38
  9
$DIMRND
 40
0.0
  9
$DIMDLE
 40
0.0
  9
$DIMEXE
 40
0.18
  9
$DIMTP
 40
0.0
  9
$DIMTM
 40
0.0
  9
$DIMTXT
 40
0.18
  9
$DIMCEN
 40
0.09
  9
$DIMTSZ
 40
0.0
  9
$DIMTOL
 70
     0
  9
$DIMLIM
 70
     0
  9
$DIMTIH
 70
     1
  9
$DIMTOH
 70
     1
  9
$DIMSE1
 70
     0
  9
$DIMSE2
 70
     0
  9
$DIMTAD
 70
     0
  9
$DIMZIN
 70
     0
  9
$DIMBLK
  1

  9
$DIMASO
 70
     1
  9
$DIMSHO
 70
     1
  9
$DIMPOST
  1

  9
$DIMAPOST
  1

  9
$DIMALT
 70
     0
  9
$DIMALTD
 70
     2
  9
$DIMALTF
 40
25.399999999999999
  9
$DIMLFAC
 40
1.0
  9
$DIMTOFL
 70
     0
  9
$DIMTVP
 40
0.0
  9
$DIMTIX
 70
     0
  9
$DIMSOXD
 70
     0
  9
$DIMSAH
 70
     0
  9
$DIMBLK1
  1

  9
$DIMBLK2
  1

  9
$DIMSTYLE
  2
STANDARD
  9
$DIMCLRD
 70
     0
  9
$DIMCLRE
 70
     0
  9
$DIMCLRT
 70
     0
  9
$DIMTFAC
 40
1.0
  9
$DIMGAP
 40
0.09
  9
$LUNITS
 70
     2
  9
$LUPREC
 70
     4
  9
$SKETCHINC
 40
0.1
  9
$FILLETRAD
 40
0.5
  9
$AUNITS
 70
     0
  9
$AUPREC
 70
     0
  9
$MENU
  1
.
  9
$ELEVATION
 40
0.0
  9
$PELEVATION
 40
0.0
  9
$THICKNESS
 40
0.0
  9
$LIMCHECK
 70
     0
  9
$BLIPMODE
 70
     0
  9
$CHAMFERA
 40
0.5
  9
$CHAMFERB
 40
0.5
  9
$SKPOLY
 70
     0
  9
$TDCREATE
 40
2451380.5970990621
  9
$TDUPDATE
 40
2451380.632847222
  9
$TDINDWG
 40
0.0075611227
  9
$TDUSRTIMER
 40
0.0075520833
  9
$USRTIMER
 70
     1
  9
$ANGBASE
 50
0.0
  9
$ANGDIR
 70
     0
  9
$PDMODE
 70
     0
  9
$PDSIZE
 40
0.0
  9
$PLINEWID
 40
0.0
  9
$COORDS
 70
     0
  9
$SPLFRAME
 70
     0
  9
$SPLINETYPE
 70
     6
  9
$SPLINESEGS
 70
     8
  9
$ATTDIA
 70
     0
  9
$ATTREQ
 70
     1
  9
$HANDLING
 70
     1
  9
$HANDSEED
  5
56B
  9
$SURFTAB1
 70
     6
  9
$SURFTAB2
 70
     6
  9
$SURFTYPE
 70
     6
  9
$SURFU
 70
     6
  9
$SURFV
 70
     6
  9
$UCSNAME
  2

  9
$UCSORG
 10
0.0
 20
0.0
 30
0.0
  9
$UCSXDIR
 10
1.0
 20
0.0
 30
0.0
  9
$UCSYDIR
 10
0.0
 20
1.0
 30
0.0
  9
$PUCSNAME
  2

  9
$PUCSORG
 10
0.0
 20
0.0
 30
0.0
  9
$PUCSXDIR
 10
1.0
 20
0.0
 30
0.0
  9
$PUCSYDIR
 10
0.0
 20
1.0
 30
0.0
  9
$USERI1
 70
     0
  9
$USERI2
 70
     0
  9
$USERI3
 70
     0
  9
$USERI4
 70
     0
  9
$USERI5
 70
     0
  9
$USERR1
 40
0.0
  9
$USERR2
 40
0.0
  9
$USERR3
 40
0.0
  9
$USERR4
 40
0.0
  9
$USERR5
 40
0.0
  9
$WORLDVIEW
 70
     1
  9
$SHADEDGE
 70
     3
  9
$SHADEDIF
 70
    70
  9
$TILEMODE
 70
     1
  9
$MAXACTVP
 70
    64
  9
$PLIMCHECK
 70
     0
  9
$PEXTMIN
 10
1.0000000000000000E+020
 20
1.0000000000000000E+020
 30
1.0000000000000000E+020
  9
$PEXTMAX
 10
-1.0000000000000000E+020
 20
-1.0000000000000000E+020
 30
-1.0000000000000000E+020
  9
$PLIMMIN
 10
0.0
 20
0.0
  9
$PLIMMAX
 10
12.0
 20
9.0
  9
$UNITMODE
 70
     0
  9
$VISRETAIN
 70
     1
  9
$PLINEGEN
 70
     0
  9
$PSLTSCALE
 70
     1
  0
ENDSEC
  0
SECTION
  2
TABLES
  0
TABLE
  2
VPORT
 70
     1
  0
VPORT
  2
*ACTIVE
 70
     0
 10
0.0
 20
0.0
 11
1.0
 21
1.0
 12
0.0259706769138575
 22
1.697606563568115
 13
0.0
 23
0.0
 14
0.5
 24
0.5
 15
0.5
 25
0.5
 16
-1.0
 26
-1.0
 36
1.0
 17
0.0
 27
0.0
 37
0.0
 40
7.9503100513361211
 41
0.8831023025602407
 42
50.0
 43
0.0
 44
0.0
 50
0.0
 51
0.0
 71
     0
 72
   100
 73
     1
 74
     3
 75
     0
 76
     0
 77
     0
 78
     0
  0
ENDTAB
  0
TABLE
  2
LTYPE
 70
     1
  0
LTYPE
  2
CONTINUOUS
 70
     0
  3
Solid line
 72
    65
 73
     0
 40
0.0
  0
ENDTAB
  0
TABLE
  2
LAYER
 70
     2
  0
LAYER
  2
0
 70
     0
 62
   214
  6
CONTINUOUS
  0
LAYER
  2
ASHADE
 70
     4
 62
     7
  6
CONTINUOUS
  0
ENDTAB
  0
TABLE
  2
STYLE
 70
     2
  0
STYLE
  2
STANDARD
 70
     0
 40
0.0
 41
1.0
 50
0.0
 71
     0
 42
0.2
  3
txt
  4

  0
STYLE
  2
ASHADE
 70
     0
 40
0.2
 41
1.0
 50
0.0
 71
     0
 42
0.2
  3
simplex
  4

  0
ENDTAB
  0
TABLE
  2
VIEW
 70
     0
  0
ENDTAB
  0
TABLE
  2
UCS
 70
     0
  0
ENDTAB
  0
TABLE
  2
APPID
 70
     6
  0
APPID
  2
ACAD
 70
     0
  0
APPID
  2
AVE_RENDER
 70
     0
  0
APPID
  2
AVE_ENTITY_MATERIAL
 70
     0
  0
APPID
  2
AVE_FINISH
 70
     0
  0
APPID
  2
AVE_MATERIAL
 70
     0
  0
APPID
  2
AVE_GLOBAL
 70
     0
  0
ENDTAB
  0
TABLE
  2
DIMSTYLE
 70
     1
  0
DIMSTYLE
  2
STANDARD
 70
     0
  3

  4

  5

  6

  7

 40
1.0
 41
0.18
 42
0.0625
 43
0.38
 44
0.18
 45
0.0
 46
0.0
 47
0.0
 48
0.0
140
0.18
141
0.09
142
0.0
143
25.399999999999999
144
1.0
145
0.0
146
1.0
147
0.09
 71
     0
 72
     0
 73
     1
 74
     1
 75
     0
 76
     0
 77
     0
 78
     0
170
     0
171
     2
172
     0
173
     0
174
     0
175
     0
176
     0
177
     0
178
     0
  0
ENDTAB
  0
ENDSEC
  0
SECTION
  2
BLOCKS
  0
BLOCK
  8
0
  2
$MODEL_SPACE
 70
     0
 10
0.0
 20
0.0
 30
0.0
  3
$MODEL_SPACE
  1

  0
ENDBLK
  5
21
  8
0
  0
BLOCK
 67
     1
  8
0
  2
$PAPER_SPACE
 70
     0
 10
0.0
 20
0.0
 30
0.0
  3
$PAPER_SPACE
  1

  0
ENDBLK
  5
1D
 67
     1
  8
0
  0
BLOCK
  8
0
  2
DIRECT
 70
     2
 10
0.0
 20
0.0
 30
0.0
  3
DIRECT
  1

  0
ATTDEF
  5
2F
  8
ASHADE
  6
CONTINUOUS
 62
     1
 10
0.0
 20
-0.1
 30
0.0
 40
0.2
  1

  7
ASHADE
 72
     1
 11
0.0
 21
-0.1
 31
0.0
  3
Light Name
  2
SNAME
 70
     0
  0
ARC
  5
30
  8
ASHADE
  6
CONTINUOUS
 62
     7
 10
0.0
 20
0.0
 30
0.0
 40
0.3
 50
205.67928861945691
 51
334.32071138054312
  0
ARC
  5
31
  8
ASHADE
  6
CONTINUOUS
 62
     7
 10
0.0
 20
0.0
 30
0.0
 40
0.3
 50
25.679288619456852
 51
154.32071138054309
  0
LINE
  5
32
  8
ASHADE
  6
CONTINUOUS
 62
     7
 10
-0.21
 20
0.2142428528562855
 30
0.0
 11
-0.21
 21
0.5
 31
0.0
  0
LINE
  5
33
  8
ASHADE
  6
CONTINUOUS
 62
     7
 10
-0.11
 20
0.2791057147390572
 30
0.0
 11
-0.11
 21
0.5
 31
0.0
  0
LINE
  5
34
  8
ASHADE
  6
CONTINUOUS
 62
     7
 10
0.21
 20
0.2142428528562855
 30
0.0
 11
0.21
 21
0.5
 31
0.0
  0
ATTDEF
  5
35
  8
ASHADE
  6
CONTINUOUS
 62
     7
 10
0.0
 20
0.25
 30
0.0
 40
0.01
  1

  3
Look-at Y
  2
LAY
 70
     1
  0
ATTDEF
  5
36
  8
ASHADE
  6
CONTINUOUS
 62
     7
 10
0.0
 20
0.22
 30
0.0
 40
0.01
  1
1
  3
Light Intensity
  2
INTENSITY
 70
     1
  0
ATTDEF
  5
37
  8
ASHADE
  6
CONTINUOUS
 62
     7
 10
0.0
 20
0.16
 30
0.0
 40
0.01
  1
-1
  3
*not used*
  2
BEAMD
 70
     1
  0
ATTDEF
  5
38
  8
ASHADE
  6
CONTINUOUS
 62
     7
 10
0.0
 20
0.175
 30
0.0
 40
0.01
  1
-1
  3
*not used*
  2
CONED
 70
     1
  0
ATTDEF
  5
39
  8
ASHADE
  6
CONTINUOUS
 62
     7
 10
0.0
 20
0.19
 30
0.0
 40
0.01
  1
0
  3
Depth Map Size
  2
CONEA
 70
     1
  0
ATTDEF
  5
3A
  8
ASHADE
  6
CONTINUOUS
 62
     7
 10
0.0
 20
0.2050000000000001
 30
0.0
 40
0.01
  1
1,1,1
  3
Light Color (RGB)
  2
COLOR
 70
     1
  0
ATTDEF
  5
3B
  8
ASHADE
  6
CONTINUOUS
 62
     7
 10
0.0
 20
0.235
 30
0.0
 40
0.01
  1

  3
Look-at Z
  2
LAZ
 70
     1
  0
LINE
  5
3C
  8
ASHADE
  6
CONTINUOUS
 62
     7
 10
0.0
 20
0.3
 30
0.0
 11
0.0
 21
0.5
 31
0.0
  0
LINE
  5
3D
  8
ASHADE
  6
CONTINUOUS
 62
     7
 10
0.11
 20
0.2791057147390572
 30
0.0
 11
0.11
 21
0.5
 31
0.0
  0
ATTDEF
  5
3E
  8
ASHADE
  6
CONTINUOUS
 62
     7
 10
0.0
 20
0.265
 30
0.0
 40
0.01
  1

  3
Look-at X
  2
LAX
 70
     1
  0
ATTDEF
  5
3F
  8
ASHADE
  6
CONTINUOUS
 62
     7
 10
0.0
 20
0.28
 30
0.0
 40
0.01
  1

  3

  2
GNAME
 70
     1
  0
ENDBLK
  5
41
  8
0
  0
BLOCK
  8
0
  2
OVERHEAD
 70
     2
 10
0.0
 20
0.0
 30
0.0
  3
OVERHEAD
  1

  0
ATTDEF
  5
43
  8
ASHADE
  6
CONTINUOUS
 62
     1
 10
0.0
 20
-0.1
 30
0.0
 40
0.2
  1

  7
ASHADE
 72
     1
 11
0.0
 21
-0.1
 31
0.0
  3
Light Name
  2
SNAME
 70
     0
  0
ARC
  5
44
  8
ASHADE
  6
CONTINUOUS
 62
     7
 10
0.0
 20
0.0
 30
0.0
 40
0.3
 50
205.67928861945691
 51
334.32071138054312
  0
LINE
  5
45
  8
ASHADE
  6
CONTINUOUS
 62
     7
 10
-0.2041413561583015
 20
-0.2198324514393848
 30
0.0
 11
-0.2721884748777353
 21
-0.2931099352525131
 31
0.0
  0
LINE
  5
46
  8
ASHADE
  6
CONTINUOUS
 62
     7
 10
-0.1096591641591904
 20
-0.2792398032442862
 30
0.0
 11
-0.1279356915190555
 21
-0.3257797704516673
 31
0.0
  0
LINE
  5
47
  8
ASHADE
  6
CONTINUOUS
 62
     7
 10
0.0
 20
-0.2999999999999999
 30
0.0
 11
0.0
 21
-0.4
 31
0.0
  0
LINE
  5
48
  8
ASHADE
  6
CONTINUOUS
 62
     7
 10
0.1096591641591904
 20
-0.2792398032442862
 30
0.0
 11
0.1279356915190555
 21
-0.3257797704516673
 31
0.0
  0
LINE
  5
49
  8
ASHADE
  6
CONTINUOUS
 62
     7
 10
0.2041413561583015
 20
-0.2198324514393848
 30
0.0
 11
0.2721884748777353
 21
-0.2931099352525131
 31
0.0
  0
ARC
  5
4A
  8
ASHADE
  6
CONTINUOUS
 62
     7
 10
0.0
 20
0.0
 30
0.0
 40
0.3
 50
25.679288619456852
 51
154.32071138054309
  0
LINE
  5
4B
  8
ASHADE
  6
CONTINUOUS
 62
     7
 10
-0.2703701166919155
 20
0.13
 30
0.0
 11
-0.3154318028072347
 21
0.1516666666666666
 31
0.0
  0
LINE
  5
4C
  8
ASHADE
  6
CONTINUOUS
 62
     7
 10
-0.2703701166919155
 20
-0.13
 30
0.0
 11
-0.3154318028072347
 21
-0.1516666666666666
 31
0.0
  0
LINE
  5
4D
  8
ASHADE
  6
CONTINUOUS
 62
     7
 10
-0.2041413561583015
 20
0.2198324514393849
 30
0.0
 11
-0.2721884748777353
 21
0.2931099352525131
 31
0.0
  0
LINE
  5
4E
  8
ASHADE
  6
CONTINUOUS
 62
     7
 10
-0.1096591641591904
 20
0.2792398032442862
 30
0.0
 11
-0.1279356915190555
 21
0.3257797704516674
 31
0.0
  0
LINE
  5
4F
  8
ASHADE
  6
CONTINUOUS
 62
     7
 10
0.2703701166919155
 20
-0.13
 30
0.0
 11
0.3154318028072347
 21
-0.1516666666666666
 31
0.0
  0
LINE
  5
50
  8
ASHADE
  6
CONTINUOUS
 62
     7
 10
0.2703701166919155
 20
0.13
 30
0.0
 11
0.3154318028072347
 21
0.1516666666666666
 31
0.0
  0
LINE
  5
51
  8
ASHADE
  6
CONTINUOUS
 62
     7
 10
0.0
 20
0.3
 30
0.0
 11
0.0
 21
0.4
 31
0.0
  0
ATTDEF
  5
52
  8
ASHADE
  6
CONTINUOUS
 62
     7
 10
0.0
 20
0.22
 30
0.0
 40
0.01
  1
1
  3
Light Intensity
  2
INTENSITY
 70
     1
  0
ATTDEF
  5
53
  8
ASHADE
  6
CONTINUOUS
 62
     7
 10
0.0
 20
0.16
 30
0.0
 40
0.01
  1
-1
  3
*not used*
  2
BEAMD
 70
     1
  0
ATTDEF
  5
54
  8
ASHADE
  6
CONTINUOUS
 62
     7
 10
0.0
 20
0.175
 30
0.0
 40
0.01
  1
-1
  3
*not used*
  2
CONED
 70
     1
  0
ATTDEF
  5
55
  8
ASHADE
  6
CONTINUOUS
 62
     7
 10
0.0
 20
0.19
 30
0.0
 40
0.01
  1
0
  3
Depth Map Size
  2
CONEA
 70
     1
  0
ATTDEF
  5
56
  8
ASHADE
  6
CONTINUOUS
 62
     7
 10
0.0
 20
0.2050000000000001
 30
0.0
 40
0.01
  1
1,1,1
  3
Light Color (RGB)
  2
COLOR
 70
     1
  0
ATTDEF
  5
57
  8
ASHADE
  6
CONTINUOUS
 62
     7
 10
0.0
 20
0.235
 30
0.0
 40
0.01
  1

  3
Look-at Z
  2
LAZ
 70
     1
  0
ATTDEF
  5
58
  8
ASHADE
  6
CONTINUOUS
 62
     7
 10
0.0
 20
0.25
 30
0.0
 40
0.01
  1

  3
Look-at Y
  2
LAY
 70
     1
  0
ATTDEF
  5
59
  8
ASHADE
  6
CONTINUOUS
 62
     7
 10
0.0
 20
0.265
 30
0.0
 40
0.01
  1

  3
Look-at X
  2
LAX
 70
     1
  0
ATTDEF
  5
5A
  8
ASHADE
  6
CONTINUOUS
 62
     7
 10
0.0
 20
0.28
 30
0.0
 40
0.01
  1

  3

  2
GNAME
 70
     1
  0
LINE
  5
5B
  8
ASHADE
  6
CONTINUOUS
 62
     7
 10
0.1096591641591904
 20
0.2792398032442862
 30
0.0
 11
0.1279356915190555
 21
0.3257797704516674
 31
0.0
  0
LINE
  5
5C
  8
ASHADE
  6
CONTINUOUS
 62
     7
 10
0.2041413561583015
 20
0.2198324514393849
 30
0.0
 11
0.2721884748777353
 21
0.2931099352525131
 31
0.0
  0
ENDBLK
  5
5E
  8
0
  0
BLOCK
  8
0
  2
SH_SPOT
 70
     2
 10
0.0
 20
0.0
 30
0.0
  3
SH_SPOT
  1

  0
LINE
  5
60
  8
ASHADE
  6
CONTINUOUS
 62
     7
 10
0.25
 20
0.26
 30
0.0
 11
-0.25
 21
0.26
 31
0.0
  0
LINE
  5
61
  8
ASHADE
  6
CONTINUOUS
 62
     7
 10
-0.25
 20
-0.3399999999999999
 30
0.0
 11
0.25
 21
-0.3399999999999999
 31
0.0
  0
ATTDEF
  5
62
  8
ASHADE
  6
CONTINUOUS
 62
     1
 10
0.0
 20
-0.1
 30
0.0
 40
0.2
  1

  7
ASHADE
 72
     1
 11
0.0
 21
-0.1
 31
0.0
  3
Light Name
  2
SNAME
 70
     0
  0
LINE
  5
63
  8
ASHADE
  6
CONTINUOUS
 62
     7
 10
-0.25
 20
-0.13
 30
0.0
 11
-0.25
 21
-0.3399999999999999
 31
0.0
  0
LINE
  5
64
  8
ASHADE
  6
CONTINUOUS
 62
     7
 10
-0.25
 20
-0.18
 30
0.0
 11
-0.29
 21
-0.18
 31
0.0
  0
LINE
  5
65
  8
ASHADE
  6
CONTINUOUS
 62
     7
 10
-0.29
 20
-0.22
 30
0.0
 11
-0.25
 21
-0.22
 31
0.0
  0
LINE
  5
66
  8
ASHADE
  6
CONTINUOUS
 62
     7
 10
-0.29
 20
-0.18
 30
0.0
 11
-0.29
 21
-0.22
 31
0.0
  0
LINE
  5
67
  8
ASHADE
  6
CONTINUOUS
 62
     7
 10
-0.1045454545454545
 20
0.26
 30
0.0
 11
-0.15
 21
0.46
 31
0.0
  0
LINE
  5
68
  8
ASHADE
  6
CONTINUOUS
 62
     7
 10
-0.21
 20
0.26
 30
0.0
 11
-0.301304347826087
 21
0.46
 31
0.0
  0
LINE
  5
69
  8
ASHADE
  6
CONTINUOUS
 62
     7
 10
-0.25
 20
0.26
 30
0.0
 11
-0.25
 21
0.13
 31
0.0
  0
LINE
  5
6A
  8
ASHADE
  6
CONTINUOUS
 62
     7
 10
-0.25
 20
0.22
 30
0.0
 11
-0.29
 21
0.22
 31
0.0
  0
LINE
  5
6B
  8
ASHADE
  6
CONTINUOUS
 62
     7
 10
-0.29
 20
0.1799999999999999
 30
0.0
 11
-0.25
 21
0.1799999999999999
 31
0.0
  0
LINE
  5
6C
  8
ASHADE
  6
CONTINUOUS
 62
     7
 10
-0.29
 20
0.22
 30
0.0
 11
-0.29
 21
0.1799999999999999
 31
0.0
  0
ATTDEF
  5
6D
  8
ASHADE
  6
CONTINUOUS
 62
     7
 10
0.0
 20
-0.24
 30
0.0
 40
0.01
  1
0
  3
Depth Map Size
  2
ZSIZE
 70
     1
  0
ATTDEF
  5
6E
  8
ASHADE
  6
CONTINUOUS
 62
     7
 10
0.0
 20
-0.3300000000000001
 30
0.0
 40
0.01
  1
0,0,0
  3
Look-from XYZ
  2
LFXYZ
 70
     1
  0
ATTDEF
  5
6F
  8
ASHADE
  6
CONTINUOUS
 62
     7
 10
0.0
 20
-0.315
 30
0.0
 40
0.01
  1
0.0
  3
Beam Distribution
  2
BEAMDI
 70
     1
  0
ATTDEF
  5
70
  8
ASHADE
  6
CONTINUOUS
 62
     7
 10
0.0
 20
-0.3
 30
0.0
 40
0.01
  1
0.0
  3
Cone Delta
  2
CONEDE
 70
     1
  0
ATTDEF
  5
71
  8
ASHADE
  6
CONTINUOUS
 62
     7
 10
0.0
 20
-0.2850000000000001
 30
0.0
 40
0.01
  1
10.0
  3
Cone Angle
  2
CONEAN
 70
     1
  0
ATTDEF
  5
72
  8
ASHADE
  6
CONTINUOUS
 62
     7
 10
0.0
 20
-0.27
 30
0.0
 40
0.01
  1
-1
  3
*not used*
  2
BIASMAX
 70
     1
  0
ATTDEF
  5
73
  8
ASHADE
  6
CONTINUOUS
 62
     7
 10
0.0
 20
-0.255
 30
0.0
 40
0.01
  1
-1
  3
*not used*
  2
BIASMIN
 70
     1
  0
ATTDEF
  5
74
  8
ASHADE
  6
CONTINUOUS
 62
     7
 10
0.0
 20
-0.225
 30
0.0
 40
0.01
  1
1,1,1
  3
Light Color (RGB)
  2
COLOR
 70
     1
  0
ATTDEF
  5
75
  8
ASHADE
  6
CONTINUOUS
 62
     7
 10
0.0
 20
-0.21
 30
0.0
 40
0.01
  1
1
  3
Light Intensity
  2
INTENSITY
 70
     1
  0
ATTDEF
  5
76
  8
ASHADE
  6
CONTINUOUS
 62
     7
 10
0.0
 20
-0.15
 30
0.0
 40
0.01
  1

  3

  2
GNAME
 70
     1
  0
ATTDEF
  5
77
  8
ASHADE
  6
CONTINUOUS
 62
     7
 10
0.0
 20
-0.195
 30
0.0
 40
0.01
  1

  3
Look-at Z
  2
LAZ
 70
     1
  0
ATTDEF
  5
78
  8
ASHADE
  6
CONTINUOUS
 62
     7
 10
0.0
 20
-0.18
 30
0.0
 40
0.01
  1

  3
Look-at Y
  2
LAY
 70
     1
  0
ATTDEF
  5
79
  8
ASHADE
  6
CONTINUOUS
 62
     7
 10
0.0
 20
-0.165
 30
0.0
 40
0.01
  1

  3
Look-at X
  2
LAX
 70
     1
  0
LINE
  5
7A
  8
ASHADE
  6
CONTINUOUS
 62
     7
 10
0.25
 20
-0.3399999999999999
 30
0.0
 11
0.25
 21
-0.13
 31
0.0
  0
LINE
  5
7B
  8
ASHADE
  6
CONTINUOUS
 62
     7
 10
0.25
 20
-0.18
 30
0.0
 11
0.29
 21
-0.18
 31
0.0
  0
LINE
  5
7C
  8
ASHADE
  6
CONTINUOUS
 62
     7
 10
0.29
 20
-0.22
 30
0.0
 11
0.25
 21
-0.22
 31
0.0
  0
LINE
  5
7D
  8
ASHADE
  6
CONTINUOUS
 62
     7
 10
0.29
 20
-0.18
 30
0.0
 11
0.29
 21
-0.22
 31
0.0
  0
LINE
  5
7E
  8
ASHADE
  6
CONTINUOUS
 62
     7
 10
0.21
 20
0.26
 30
0.0
 11
0.301304347826087
 21
0.46
 31
0.0
  0
LINE
  5
7F
  8
ASHADE
  6
CONTINUOUS
 62
     7
 10
0.1045454545454545
 20
0.26
 30
0.0
 11
0.15
 21
0.46
 31
0.0
  0
LINE
  5
80
  8
ASHADE
  6
CONTINUOUS
 62
     7
 10
0.0
 20
0.26
 30
0.0
 11
0.0
 21
0.46
 31
0.0
  0
LINE
  5
81
  8
ASHADE
  6
CONTINUOUS
 62
     7
 10
0.25
 20
0.13
 30
0.0
 11
0.25
 21
0.26
 31
0.0
  0
LINE
  5
82
  8
ASHADE
  6
CONTINUOUS
 62
     7
 10
0.25
 20
0.22
 30
0.0
 11
0.29
 21
0.22
 31
0.0
  0
LINE
  5
83
  8
ASHADE
  6
CONTINUOUS
 62
     7
 10
0.29
 20
0.1799999999999999
 30
0.0
 11
0.25
 21
0.1799999999999999
 31
0.0
  0
LINE
  5
84
  8
ASHADE
  6
CONTINUOUS
 62
     7
 10
0.29
 20
0.22
 30
0.0
 11
0.29
 21
0.1799999999999999
 31
0.0
  0
ENDBLK
  5
86
  8
0
  0
BLOCK
  8
ASHADE
  2
AVE_RENDER
 70
     0
 10
0.0
 20
0.0
 30
0.0
  3
AVE_RENDER
  1
AVE_RENDER
  0
ENDBLK
  5
93
  8
0
  0
BLOCK
  8
ASHADE
  2
AVE_GLOBAL
 70
     0
 10
0.0
 20
0.0
 30
0.0
  3
AVE_GLOBAL
  1
AVE_GLOBAL
  0
ENDBLK
  5
A1
  8
0
  0
ENDSEC
  0
SECTION
  2
ENTITIES
  0
INSERT
  5
94
  8
ASHADE
 62
     1
  2
AVE_RENDER
 10
0.0
 20
0.0
 30
0.0
1001
AVE_RENDER
1002
{
1070
     7
1000
Pref
1070
    30
1070
    20
1070
     1
1070
     0
1000

1070
    10
1070
     1
1070
    10
1040
1.0
1070
     1
1040
0.3
1040
0.7
1040
0.0
1040
10.0
1010
-1.0
1020
-1.0
1030
-1.0
1040
0.3
1070
    49
1070
     0
1070
     0
1010
1.0
1020
1.0
1030
1.0
1040
45.0
1070
     1
1070
     0
1000
WCS
1040
0.0
1070
     0
1040
10.0
1002
}
  0
INSERT
  5
95
  8
ASHADE
 62
     3
  2
AVE_RENDER
 10
0.0
 20
0.0
 30
0.0
1001
AVE_RENDER
1002
{
1070
     0
1000
Full Opt
1070
     0
1070
     1
1070
     1
1070
     1
1070
     0
1070
     0
1070
     0
1070
     1
1070
     1
1040
0.0001
1040
0.0001
1002
}
  0
INSERT
  5
96
  8
ASHADE
 62
     4
  2
AVE_RENDER
 10
0.0
 20
0.0
 30
0.0
1001
AVE_RENDER
1002
{
1070
     0
1000
Quick Opt
1070
     0
1070
     1
1070
     1
1070
     1
1070
     0
1070
     0
1070
     1
1002
}
  0
INSERT
  5
97
  8
ASHADE
 62
     5
  2
AVE_RENDER
 10
0.0
 20
0.0
 30
0.0
1001
AVE_RENDER
1002
{
1070
     1
1000
Scanl Opt
1070
     2
1070
     0
1070
     2
1040
2.0
1040
4.0
1070
     0
1070
     1
1070
     0
1040
0.03
1002
}
  0
INSERT
  5
98
  8
ASHADE
 62
     6
  2
AVE_RENDER
 10
0.0
 20
0.0
 30
0.0
1001
AVE_RENDER
1002
{
1070
     2
1000
Raytr Opt
1070
     2
1070
     0
1070
     2
1040
2.0
1040
4.0
1070
     0
1070
     1
1070
     1
1040
0.03
1070
     3
1040
0.03
1002
}
  0
INSERT
  5
99
  8
ASHADE
 62
     7
  2
AVE_RENDER
 10
0.0
 20
0.0
 30
0.0
1001
AVE_RENDER
1002
{
1070
     0
1000
RFile Opt
1070
     1
1070
   640
1070
   480
1070
 10000
1070
     1
1070
     8
1070
     8
1070
     0
1070
     0
1070
     0
1070
     0
1070
     0
1070
     0
1070
     0
1002
}
  0
INSERT
  5
9A
  8
ASHADE
 62
     8
  2
AVE_RENDER
 10
0.0
 20
0.0
 30
0.0
1001
AVE_RENDER
1002
{
1070
     0
1000
Fog Opt
1070
     0
1070
     0
1040
0.0
1040
1.0
1040
0.0
1040
1.0
1010
0.5
1020
0.5
1030
0.5
1002
}
  0
INSERT
  5
9B
  8
ASHADE
 62
     9
  2
AVE_RENDER
 10
0.0
 20
0.0
 30
0.0
1001
AVE_RENDER
1002
{
1070
     0
1000
BG Opt
1070
     0
1070
     1
1010
0.0
1020
0.0
1030
0.0
1010
1.0
1020
0.0
1030
0.0
1010
0.0
1020
1.0
1030
0.0
1010
0.0
1020
0.0
1030
1.0
1040
0.5
1040
0.33
1040
0.0
1000

1070
     1
1000

1070
     1
1070
     1
1040
1.0
1040
1.0
1040
0.0
1040
0.0
1070
     0
1002
}
  0
INSERT
  5
A2
  8
ASHADE
 62
     1
  2
AVE_GLOBAL
 10
0.0
 20
0.0
 30
0.0
1001
AVE_MATERIAL
1002
{
1000
*GLOBAL*
1000
2
1000
Global finish.
1002
{
1002
}
1002
{
1070
    63
1002
{
1002
{
1010
-1.0
1020
-1.0
1030
-1.0
1002
}
1040
0.1000000014901161
1000

1040
0.0
1002
{
1002
}
1040
0.0
1002
{
1002
}
1040
0.0
1002
}
1002
{
1002
{
1010
-1.0
1020
-1.0
1030
-1.0
1002
}
1040
0.699999988079071
1000

1040
0.0
1002
{
1002
}
1040
0.0
1002
{
1002
}
1040
0.0
1002
}
1002
{
1002
{
1010
-1.0
1020
-1.0
1030
-1.0
1002
}
1040
0.2000000029802322
1000

1040
0.0
1002
{
1002
}
1040
0.0
1002
{
1002
}
1040
0.0
1002
}
1002
{
1070
     0
1002
{
1070
     1
1002
{
1040
1.0
1040
1.0
1000

1040
0.0
1002
{
1002
}
1040
0.0
1002
{
1002
}
1040
0.0
1002
}
1002
}
1040
1.0
1040
0.0
1040
0.0
1002
}
1002
{
1040
1.0
1040
1.0
1000

1040
0.0
1002
{
1002
}
1040
0.0
1002
{
1002
}
1040
0.0
1002
}
1002
{
1040
0.5
1040
1.0
1000

1040
0.0
1002
{
1002
}
1040
0.0
1002
{
1002
}
1040
0.0
1002
}
1002
{
1070
     0
1040
0.0
1002
{
1002
}
1040
1.0
1002
{
1002
}
1040
0.0
1002
}
1002
{
1040
0.0
1002
{
1002
{
1010
0.0
1020
0.0
1030
0.0
1002
}
1040
1.0
1000

1040
0.0
1002
{
1002
}
1040
0.0
1002
{
1002
}
1040
0.0
1002
}
1002
}
1002
{
1002
{
1070
     1
1002
{
1040
0.0
1040
1.0
1000

1040
0.0
1002
{
1002
}
1040
0.0
1002
{
1002
}
1040
0.0
1002
}
1002
}
1040
0.0
1002
{
1002
}
1010
1.0
1020
0.0
1030
0.0
1010
0.0
1020
1.0
1030
0.0
1010
0.0
1020
0.0
1030
1.0
1070
     0
1002
}
1002
{
1002
{
1040
1.0
1040
1.0
1002
{
1070
     1
1002
{
1040
1.0
1040
1.0
1000

1040
0.0
1002
{
1002
}
1040
0.0
1002
{
1002
}
1040
0.0
1002
}
1002
}
1002
}
1070
     0
1040
0.0
1002
{
1002
}
1002
}
1002
{
1002
}
1002
}
1002
{
1071
        3
1070
     3
1070
     0
1002
{
1070
     2
1070
     0
1070
     0
1040
0.0
1002
}
1070
     0
1070
     2
1002
{
1002
}
1002
}
1002
{
1040
8030.0
1040
190.30000305175781
1040
0.3050000071525574
1040
228.0
1040
545.0
1040
14.0
1040
17.39999961853027
1040
0.4560000002384186
1002
}
1002
}
  0
POLYLINE
  5
AE
  8
0
 62
   156
 66
     1
 10
0.0
 20
0.0
 30
0.0
 70
    64
 71
   409
 72
   786
  0
VERTEX
  5
AF
  8
0
 62
   156
 10
-0.0000001923354631
 20
1.5626761913299561
 30
0.222383975982666
 70
   192
  0
VERTEX
  5
B0
  8
0
 62
   156
 10
-0.0000001011099187
 20
1.506304025650024
 30
1.182279586791992
 70
   192
  0
VERTEX
  5
B1
  8
0
 62
   156
 10
-0.0000001041179942
 20
1.457643270492553
 30
1.182805061340332
 70
   192
  0
VERTEX
  5
B2
  8
0
 62
   156
 10
-0.0000001041663822
 20
1.4568605422973631
 30
1.3603323698043821
 70
   192
  0
VERTEX
  5
B3
  8
0
 62
   156
 10
-0.0000000767142154
 20
-0.5675733089447022
 30
1.3603323698043821
 70
   192
  0
VERTEX
  5
B4
  8
0
 62
   156
 10
-0.0000000748939755
 20
-0.6177928447723389
 30
1.360349655151367
 70
   192
  0
VERTEX
  5
B5
  8
0
 62
   156
 10
-0.0000000751966169
 20
-0.6587663888931276
 30
1.4012628793716431
 70
   192
  0
VERTEX
  5
B6
  8
0
 62
   156
 10
-0.0000000841457819
 20
-0.6591396331787111
 30
1.606305599212646
 70
   192
  0
VERTEX
  5
B7
  8
0
 62
   156
 10
-0.0000000876370052
 20
-0.6872563362121582
 30
1.709499597549438
 70
   192
  0
VERTEX
  5
B8
  8
0
 62
   156
 10
-0.0000000881788154
 20
-0.7607622146606446
 30
1.7828716039657591
 70
   192
  0
VERTEX
  5
B9
  8
0
 62
   156
 10
-0.00000008565587
 20
-0.8640072345733642
 30
1.8108004331588741
 70
   192
  0
VERTEX
  5
BA
  8
0
 62
   156
 10
0.0000001049361344
 20
-1.817505359649658
 30
1.8108004331588741
 70
   192
  0
VERTEX
  5
BB
  8
0
 62
   156
 10
0.0000000924041075
 20
-1.817505359649658
 30
2.0974998474121089
 70
   192
  0
VERTEX
  5
BC
  8
0
 62
   156
 10
0.5282810926437378
 20
1.5626761913299561
 30
0.2983393669128418
 70
   192
  0
VERTEX
  5
BD
  8
0
 62
   156
 10
0.2578471899032593
 20
1.5063037872314451
 30
1.219352602958679
 70
   192
  0
VERTEX
  5
BE
  8
0
 62
   156
 10
0.2576992511749268
 20
1.457643270492553
 30
1.2198563814163199
 70
   192
  0
VERTEX
  5
BF
  8
0
 62
   156
 10
0.2076840102672577
 20
1.4568605422973631
 30
1.390192747116088
 70
   192
  0
VERTEX
  5
C0
  8
0
 62
   156
 10
0.2076840400695801
 20
-0.5675733089447022
 30
1.390192747116088
 70
   192
  0
VERTEX
  5
C1
  8
0
 62
   156
 10
0.2076791971921921
 20
-0.6177928447723389
 30
1.3902095556259151
 70
   192
  0
VERTEX
  5
C2
  8
0
 62
   156
 10
0.1961526274681091
 20
-0.6587662696838379
 30
1.4294652938842769
 70
   192
  0
VERTEX
  5
C3
  8
0
 62
   156
 10
0.1383854746818542
 20
-0.6591396331787111
 30
1.626202344894409
 70
   192
  0
VERTEX
  5
C4
  8
0
 62
   156
 10
0.1093122512102127
 20
-0.6872560977935791
 30
1.725216269493103
 70
   192
  0
VERTEX
  5
C5
  8
0
 62
   156
 10
0.0886410400271416
 20
-0.7607619762420655
 30
1.7956162691116331
 70
   192
  0
VERTEX
  5
C6
  8
0
 62
   156
 10
0.0807726159691811
 20
-0.8640071153640747
 30
1.8224136829376221
 70
   192
  0
VERTEX
  5
C7
  8
0
 62
   156
 10
0.0807726457715035
 20
-1.817505359649658
 30
1.8224136829376221
 70
   192
  0
VERTEX
  5
C8
  8
0
 62
   156
 10
1.013763904571533
 20
1.5626761913299561
 30
0.5200518369674683
 70
   192
  0
VERTEX
  5
C9
  8
0
 62
   156
 10
0.4948052763938904
 20
1.506304025650024
 30
1.3275675773620601
 70
   192
  0
VERTEX
  5
CA
  8
0
 62
   156
 10
0.4945212006568909
 20
1.457643270492553
 30
1.3280093669891351
 70
   192
  0
VERTEX
  5
CB
  8
0
 62
   156
 10
0.3985427320003509
 20
1.4568605422973631
 30
1.4773550033569329
 70
   192
  0
VERTEX
  5
CC
  8
0
 62
   156
 10
0.3985427618026733
 20
-0.5675734281539917
 30
1.4773550033569329
 70
   192
  0
VERTEX
  5
CD
  8
0
 62
   156
 10
0.3985334038734436
 20
-0.6177928447723389
 30
1.4773696660995479
 70
   192
  0
VERTEX
  5
CE
  8
0
 62
   156
 10
0.376414030790329
 20
-0.6587663888931276
 30
1.5117881298065181
 70
   192
  0
VERTEX
  5
CF
  8
0
 62
   156
 10
0.2655596137046814
 20
-0.6591396331787111
 30
1.6842811107635489
 70
   192
  0
VERTEX
  5
D0
  8
0
 62
   156
 10
0.2097687274217606
 20
-0.6872560977935791
 30
1.771093368530273
 70
   192
  0
VERTEX
  5
D1
  8
0
 62
   156
 10
0.1701008379459381
 20
-0.7607619762420655
 30
1.8328177928924561
 70
   192
  0
VERTEX
  5
D2
  8
0
 62
   156
 10
0.1550013124942779
 20
-0.8640071153640747
 30
1.856312990188598
 70
   192
  0
VERTEX
  5
D3
  8
0
 62
   156
 10
0.1550013571977615
 20
-1.817505359649658
 30
1.856312990188598
 70
   192
  0
VERTEX
  5
D4
  8
0
 62
   156
 10
1.417117476463317
 20
1.5626761913299561
 30
0.86955988407135
 70
   192
  0
VERTEX
  5
D5
  8
0
 62
   156
 10
0.6916770935058594
 20
1.506304025650024
 30
1.49815809726715
 70
   192
  0
VERTEX
  5
D6
  8
0
 62
   156
 10
0.6912801861763001
 20
1.457643270492553
 30
1.498502016067504
 70
   192
  0
VERTEX
  5
D7
  8
0
 62
   156
 10
0.5571137666702271
 20
1.4568605422973631
 30
1.614757657051086
 70
   192
  0
VERTEX
  5
D8
  8
0
 62
   156
 10
0.5571140050888062
 20
-0.5675734281539917
 30
1.6147578954696651
 70
   192
  0
VERTEX
  5
D9
  8
0
 62
   156
 10
0.5571007132530214
 20
-0.6177928447723389
 30
1.614769220352172
 70
   192
  0
VERTEX
  5
DA
  8
0
 62
   156
 10
0.5261807441711426
 20
-0.6587663888931276
 30
1.641561627388
 70
   192
  0
VERTEX
  5
DB
  8
0
 62
   156
 10
0.3712197244167328
 20
-0.6591396331787111
 30
1.775836110115051
 70
   192
  0
VERTEX
  5
DC
  8
0
 62
   156
 10
0.2932308614253998
 20
-0.6872562170028687
 30
1.8434138298034659
 70
   192
  0
VERTEX
  5
DD
  8
0
 62
   156
 10
0.2377799302339554
 20
-0.7607619762420655
 30
1.891462326049804
 70
   192
  0
VERTEX
  5
DE
  8
0
 62
   156
 10
0.2166728079319
 20
-0.8640071153640747
 30
1.909751772880554
 70
   192
  0
VERTEX
  5
DF
  8
0
 62
   156
 10
0.2166728377342224
 20
-1.817505359649658
 30
1.9097518920898431
 70
   192
  0
VERTEX
  5
E0
  8
0
 62
   156
 10
1.7056649923324581
 20
1.5626761913299561
 30
1.3185484409332271
 70
   192
  0
VERTEX
  5
E1
  8
0
 62
   156
 10
0.8325135111808776
 20
1.5063037872314451
 30
1.7173036336898799
 70
   192
  0
VERTEX
  5
E2
  8
0
 62
   156
 10
0.8320356011390686
 20
1.457643270492553
 30
1.717521905899047
 70
   192
  0
VERTEX
  5
E3
  8
0
 62
   156
 10
0.6705510616302491
 20
1.4568605422973631
 30
1.7912694215774529
 70
   192
  0
VERTEX
  5
E4
  8
0
 62
   156
 10
0.6705509424209595
 20
-0.5675734281539917
 30
1.7912695407867429
 70
   192
  0
VERTEX
  5
E5
  8
0
 62
   156
 10
0.6705352067947388
 20
-0.6177928447723389
 30
1.791276693344116
 70
   192
  0
VERTEX
  5
E6
  8
0
 62
   156
 10
0.6333192586898804
 20
-0.6587663888931276
 30
1.80827260017395
 70
   192
  0
VERTEX
  5
E7
  8
0
 62
   156
 10
0.4468057751655579
 20
-0.6591396331787111
 30
1.893450498580932
 70
   192
  0
VERTEX
  5
E8
  8
0
 62
   156
 10
0.3529373109340668
 20
-0.6872562170028687
 30
1.93631887435913
 70
   192
  0
VERTEX
  5
E9
  8
0
 62
   156
 10
0.2861957252025604
 20
-0.760762095451355
 30
1.9667987823486319
 70
   192
  0
VERTEX
  5
EA
  8
0
 62
   156
 10
0.2607907652854919
 20
-0.8640072345733642
 30
1.978400707244873
 70
   192
  0
VERTEX
  5
EB
  8
0
 62
   156
 10
0.2607908248901367
 20
-1.817505359649658
 30
1.9784008264541619
 70
   192
  0
VERTEX
  5
EC
  8
0
 62
   156
 10
1.856029629707336
 20
1.5626761913299561
 30
1.8306428194046021
 70
   192
  0
VERTEX
  5
ED
  8
0
 62
   156
 10
0.9059045314788818
 20
1.5063037872314451
 30
1.9672504663467401
 70
   192
  0
VERTEX
  5
EE
  8
0
 62
   156
 10
0.9053845405578613
 20
1.457643270492553
 30
1.9673252105712891
 70
   192
  0
VERTEX
  5
EF
  8
0
 62
   156
 10
0.729664146900177
 20
1.456860303878784
 30
1.992589831352233
 70
   192
  0
VERTEX
  5
F0
  8
0
 62
   156
 10
0.7296640872955323
 20
-0.5675734281539917
 30
1.9925901889801021
 70
   192
  0
VERTEX
  5
F1
  8
0
 62
   156
 10
0.7296467423439026
 20
-0.6177929639816285
 30
1.9925926923751831
 70
   192
  0
VERTEX
  5
F2
  8
0
 62
   156
 10
0.689150094985962
 20
-0.6587663888931276
 30
1.9984151124954219
 70
   192
  0
VERTEX
  5
F3
  8
0
 62
   156
 10
0.4861944019794464
 20
-0.6591396331787111
 30
2.0275957584381099
 70
   192
  0
VERTEX
  5
F4
  8
0
 62
   156
 10
0.3840507566928863
 20
-0.6872562170028687
 30
2.042281866073608
 70
   192
  0
VERTEX
  5
F5
  8
0
 62
   156
 10
0.3114254474639893
 20
-0.760762095451355
 30
2.0527238845825191
 70
   192
  0
VERTEX
  5
F6
  8
0
 62
   156
 10
0.2837810218334198
 20
-0.8640072345733642
 30
2.0566983222961421
 70
   192
  0
VERTEX
  5
F7
  8
0
 62
   156
 10
0.2837809026241302
 20
-1.817505359649658
 30
2.0566983222961421
 70
   192
  0
VERTEX
  5
F8
  8
0
 62
   156
 10
1.8560293912887571
 20
1.5626761913299561
 30
2.364356517791748
 70
   192
  0
VERTEX
  5
F9
  8
0
 62
   156
 10
0.9059045314788818
 20
1.5063037872314451
 30
2.227749109268188
 70
   192
  0
VERTEX
  5
FA
  8
0
 62
   156
 10
0.9053845405578613
 20
1.457643270492553
 30
2.2276744842529288
 70
   192
  0
VERTEX
  5
FB
  8
0
 62
   156
 10
0.729664146900177
 20
1.456860303878784
 30
2.2024097442626949
 70
   192
  0
VERTEX
  5
FC
  8
0
 62
   156
 10
0.7296639084815979
 20
-0.5675734281539917
 30
2.2024097442626949
 70
   192
  0
VERTEX
  5
FD
  8
0
 62
   156
 10
0.7296467423439026
 20
-0.6177929639816285
 30
2.2024073600769039
 70
   192
  0
VERTEX
  5
FE
  8
0
 62
   156
 10
0.689150094985962
 20
-0.6587663888931276
 30
2.196584701538085
 70
   192
  0
VERTEX
  5
FF
  8
0
 62
   156
 10
0.4861944019794464
 20
-0.6591396331787111
 30
2.1674041748046871
 70
   192
  0
VERTEX
  5
100
  8
0
 62
   156
 10
0.3840507566928863
 20
-0.6872562170028687
 30
2.152718067169189
 70
   192
  0
VERTEX
  5
101
  8
0
 62
   156
 10
0.3114254474639893
 20
-0.760762095451355
 30
2.142276287078857
 70
   192
  0
VERTEX
  5
102
  8
0
 62
   156
 10
0.2837810218334198
 20
-0.8640072345733642
 30
2.1383013725280762
 70
   192
  0
VERTEX
  5
103
  8
0
 62
   156
 10
0.2837809026241302
 20
-1.817505359649658
 30
2.1383016109466548
 70
   192
  0
VERTEX
  5
104
  8
0
 62
   156
 10
1.7056649923324581
 20
1.5626761913299561
 30
2.8764510154724121
 70
   192
  0
VERTEX
  5
105
  8
0
 62
   156
 10
0.8325134515762329
 20
1.5063037872314451
 30
2.4776959419250479
 70
   192
  0
VERTEX
  5
106
  8
0
 62
   156
 10
0.8320357203483582
 20
1.457643270492553
 30
2.4774775505065909
 70
   192
  0
VERTEX
  5
107
  8
0
 62
   156
 10
0.6705511808395386
 20
1.4568605422973631
 30
2.4037303924560538
 70
   192
  0
VERTEX
  5
108
  8
0
 62
   156
 10
0.6705509424209595
 20
-0.5675734281539917
 30
2.4037303924560538
 70
   192
  0
VERTEX
  5
109
  8
0
 62
   156
 10
0.6705350279808046
 20
-0.6177928447723389
 30
2.4037232398986812
 70
   192
  0
VERTEX
  5
10A
  8
0
 62
   156
 10
0.6333192586898804
 20
-0.6587663888931276
 30
2.3867273330688472
 70
   192
  0
VERTEX
  5
10B
  8
0
 62
   156
 10
0.4468057751655579
 20
-0.6591396331787111
 30
2.3015494346618648
 70
   192
  0
VERTEX
  5
10C
  8
0
 62
   156
 10
0.3529371321201324
 20
-0.6872562170028687
 30
2.2586810588836661
 70
   192
  0
VERTEX
  5
10D
  8
0
 62
   156
 10
0.2861955463886261
 20
-0.760762095451355
 30
2.2282013893127441
 70
   192
  0
VERTEX
  5
10E
  8
0
 62
   156
 10
0.2607907652854919
 20
-0.8640072345733642
 30
2.216599464416503
 70
   192
  0
VERTEX
  5
10F
  8
0
 62
   156
 10
0.2607904970645904
 20
-1.817505359649658
 30
2.216599464416503
 70
   192
  0
VERTEX
  5
110
  8
0
 62
   156
 10
1.4171177148818961
 20
1.5626761913299561
 30
3.3254389762878409
 70
   192
  0
VERTEX
  5
111
  8
0
 62
   156
 10
0.6916771531105042
 20
1.506304025650024
 30
2.696841716766357
 70
   192
  0
VERTEX
  5
112
  8
0
 62
   156
 10
0.6912801265716553
 20
1.457643270492553
 30
2.6964979171752921
 70
   192
  0
VERTEX
  5
113
  8
0
 62
   156
 10
0.5571138858795166
 20
1.4568605422973631
 30
2.5802416801452628
 70
   192
  0
VERTEX
  5
114
  8
0
 62
   156
 10
0.5571136474609375
 20
-0.5675734281539917
 30
2.580242156982421
 70
   192
  0
VERTEX
  5
115
  8
0
 62
   156
 10
0.557100534439087
 20
-0.6177928447723389
 30
2.580230712890625
 70
   192
  0
VERTEX
  5
116
  8
0
 62
   156
 10
0.526180386543274
 20
-0.6587663888931276
 30
2.553438663482666
 70
   192
  0
VERTEX
  5
117
  8
0
 62
   156
 10
0.3712195456027985
 20
-0.6591396331787111
 30
2.419163703918457
 70
   192
  0
VERTEX
  5
118
  8
0
 62
   156
 10
0.2932306826114654
 20
-0.6872562170028687
 30
2.3515863418579102
 70
   192
  0
VERTEX
  5
119
  8
0
 62
   156
 10
0.2377797514200211
 20
-0.7607619762420655
 30
2.3035376071929932
 70
   192
  0
VERTEX
  5
11A
  8
0
 62
   156
 10
0.2166726291179657
 20
-0.8640071153640747
 30
2.2852482795715332
 70
   192
  0
VERTEX
  5
11B
  8
0
 62
   156
 10
0.2166723608970642
 20
-1.817505359649658
 30
2.2852482795715332
 70
   192
  0
VERTEX
  5
11C
  8
0
 62
   156
 10
1.0137641429901121
 20
1.5626761913299561
 30
3.6749472618103018
 70
   192
  0
VERTEX
  5
11D
  8
0
 62
   156
 10
0.4948053658008576
 20
1.506304025650024
 30
2.8674321174621582
 70
   192
  0
VERTEX
  5
11E
  8
0
 62
   156
 10
0.4945212602615357
 20
1.457643270492553
 30
2.8669905662536621
 70
   192
  0
VERTEX
  5
11F
  8
0
 62
   156
 10
0.3985428214073181
 20
1.4568605422973631
 30
2.7176446914672852
 70
   192
  0
VERTEX
  5
120
  8
0
 62
   156
 10
0.3985425531864166
 20
-0.5675734281539917
 30
2.7176451683044429
 70
   192
  0
VERTEX
  5
121
  8
0
 62
   156
 10
0.3985330462455749
 20
-0.6177928447723389
 30
2.7176303863525391
 70
   192
  0
VERTEX
  5
122
  8
0
 62
   156
 10
0.3764138221740723
 20
-0.6587663888931276
 30
2.6832118034362789
 70
   192
  0
VERTEX
  5
123
  8
0
 62
   156
 10
0.2655592560768127
 20
-0.6591396331787111
 30
2.5107192993164058
 70
   192
  0
VERTEX
  5
124
  8
0
 62
   156
 10
0.2097683846950531
 20
-0.6872560977935791
 30
2.4239068031311031
 70
   192
  0
VERTEX
  5
125
  8
0
 62
   156
 10
0.1701004952192306
 20
-0.7607619762420655
 30
2.3621821403503409
 70
   192
  0
VERTEX
  5
126
  8
0
 62
   156
 10
0.1550009846687317
 20
-0.8640071153640747
 30
2.3386869430541992
 70
   192
  0
VERTEX
  5
127
  8
0
 62
   156
 10
0.1550008654594421
 20
-1.817505359649658
 30
2.3386871814727779
 70
   192
  0
VERTEX
  5
128
  8
0
 62
   156
 10
0.5282810926437378
 20
1.5626761913299561
 30
3.8966603279113761
 70
   192
  0
VERTEX
  5
129
  8
0
 62
   156
 10
0.2578472793102264
 20
1.5063037872314451
 30
2.97564697265625
 70
   192
  0
VERTEX
  5
12A
  8
0
 62
   156
 10
0.2576992213726044
 20
1.457643270492553
 30
2.9751429557800289
 70
   192
  0
VERTEX
  5
12B
  8
0
 62
   156
 10
0.2076840996742248
 20
1.4568605422973631
 30
2.8048067092895499
 70
   192
  0
VERTEX
  5
12C
  8
0
 62
   156
 10
0.2076836675405502
 20
-0.5675733089447022
 30
2.8048067092895499
 70
   192
  0
VERTEX
  5
12D
  8
0
 62
   156
 10
0.2076786756515503
 20
-0.6177928447723389
 30
2.804790496826171
 70
   192
  0
VERTEX
  5
12E
  8
0
 62
   156
 10
0.1961521059274673
 20
-0.6587662696838379
 30
2.765534400939941
 70
   192
  0
VERTEX
  5
12F
  8
0
 62
   156
 10
0.1383849680423737
 20
-0.6591396331787111
 30
2.5687975883483878
 70
   192
  0
VERTEX
  5
130
  8
0
 62
   156
 10
0.1093119084835052
 20
-0.6872560977935791
 30
2.4697833061218262
 70
   192
  0
VERTEX
  5
131
  8
0
 62
   156
 10
0.0886405408382416
 20
-0.7607619762420655
 30
2.3993830680847159
 70
   192
  0
VERTEX
  5
132
  8
0
 62
   156
 10
0.0807721242308617
 20
-0.8640071153640747
 30
2.3725857734680171
 70
   192
  0
VERTEX
  5
133
  8
0
 62
   156
 10
0.080771841108799
 20
-1.817505359649658
 30
2.3725857734680171
 70
   192
  0
VERTEX
  5
134
  8
0
 62
   156
 10
-0.0000000750652163
 20
1.5626761913299561
 30
3.9726157188415518
 70
   192
  0
VERTEX
  5
135
  8
0
 62
   156
 10
-0.0000000326212941
 20
1.506304025650024
 30
3.0127201080322261
 70
   192
  0
VERTEX
  5
136
  8
0
 62
   156
 10
-0.0000000250926533
 20
1.457643270492553
 30
3.0121946334838858
 70
   192
  0
VERTEX
  5
137
  8
0
 62
   156
 10
0.0000000091032746
 20
1.4568605422973631
 30
2.834667205810546
 70
   192
  0
VERTEX
  5
138
  8
0
 62
   156
 10
-0.0000004531942182
 20
-0.5675734281539917
 30
2.834667205810546
 70
   192
  0
VERTEX
  5
139
  8
0
 62
   156
 10
-0.0000004513724718
 20
-0.6177928447723389
 30
2.8346500396728511
 70
   192
  0
VERTEX
  5
13A
  8
0
 62
   156
 10
-0.0000004480983762
 20
-0.6587663888931276
 30
2.7937369346618648
 70
   192
  0
VERTEX
  5
13B
  8
0
 62
   156
 10
-0.0000004391221466
 20
-0.6591396331787111
 30
2.5886940956115718
 70
   192
  0
VERTEX
  5
13C
  8
0
 62
   156
 10
-0.0000004335918504
 20
-0.6872563362121582
 30
2.4854998588562012
 70
   192
  0
VERTEX
  5
13D
  8
0
 62
   156
 10
-0.0000004277192716
 20
-0.7607622146606446
 30
2.412127971649169
 70
   192
  0
VERTEX
  5
13E
  8
0
 62
   156
 10
-0.0000004227547095
 20
-0.8640072345733642
 30
2.3841991424560538
 70
   192
  0
VERTEX
  5
13F
  8
0
 62
   156
 10
-0.0000007002149118
 20
-1.817505359649658
 30
2.3841991424560538
 70
   192
  0
VERTEX
  5
140
  8
0
 62
   156
 10
-0.5282811522483826
 20
1.562676668167114
 30
3.8966598510742179
 70
   192
  0
VERTEX
  5
141
  8
0
 62
   156
 10
-0.257847249507904
 20
1.506304025650024
 30
2.97564697265625
 70
   192
  0
VERTEX
  5
142
  8
0
 62
   156
 10
-0.2576992511749268
 20
1.4576435089111319
 30
2.9751434326171871
 70
   192
  0
VERTEX
  5
143
  8
0
 62
   156
 10
-0.2076840251684189
 20
1.4568605422973631
 30
2.8048067092895499
 70
   192
  0
VERTEX
  5
144
  8
0
 62
   156
 10
-0.2076844125986099
 20
-0.5675734281539917
 30
2.8048067092895499
 70
   192
  0
VERTEX
  5
145
  8
0
 62
   156
 10
-0.2076795697212219
 20
-0.6177928447723389
 30
2.8047900199890128
 70
   192
  0
VERTEX
  5
146
  8
0
 62
   156
 10
-0.196152999997139
 20
-0.6587663888931276
 30
2.7655339241027832
 70
   192
  0
VERTEX
  5
147
  8
0
 62
   156
 10
-0.1383857578039169
 20
-0.6591396331787111
 30
2.56879711151123
 70
   192
  0
VERTEX
  5
148
  8
0
 62
   156
 10
-0.109312616288662
 20
-0.6872563362121582
 30
2.4697833061218262
 70
   192
  0
VERTEX
  5
149
  8
0
 62
   156
 10
-0.0886413976550102
 20
-0.7607622146606446
 30
2.3993830680847159
 70
   192
  0
VERTEX
  5
14A
  8
0
 62
   156
 10
-0.0807729661464691
 20
-0.8640072345733642
 30
2.3725857734680171
 70
   192
  0
VERTEX
  5
14B
  8
0
 62
   156
 10
-0.0807731673121453
 20
-1.817505359649658
 30
2.3725857734680171
 70
   192
  0
VERTEX
  5
14C
  8
0
 62
   156
 10
-1.013764381408691
 20
1.562676668167114
 30
3.6749472618103018
 70
   192
  0
VERTEX
  5
14D
  8
0
 62
   156
 10
-0.4948054254055024
 20
1.506304025650024
 30
2.8674321174621582
 70
   192
  0
VERTEX
  5
14E
  8
0
 62
   156
 10
-0.49452143907547
 20
1.4576435089111319
 30
2.866990089416503
 70
   192
  0
VERTEX
  5
14F
  8
0
 62
   156
 10
-0.3985429108142853
 20
1.4568605422973631
 30
2.7176442146301261
 70
   192
  0
VERTEX
  5
150
  8
0
 62
   156
 10
-0.3985432982444763
 20
-0.5675733089447022
 30
2.7176442146301261
 70
   192
  0
VERTEX
  5
151
  8
0
 62
   156
 10
-0.3985339403152466
 20
-0.6177928447723389
 30
2.71762990951538
 70
   192
  0
VERTEX
  5
152
  8
0
 62
   156
 10
-0.376414567232132
 20
-0.6587662696838379
 30
2.6832113265991211
 70
   192
  0
VERTEX
  5
153
  8
0
 62
   156
 10
-0.2655600607395172
 20
-0.6591396331787111
 30
2.510718345642089
 70
   192
  0
VERTEX
  5
154
  8
0
 62
   156
 10
-0.2097691744565964
 20
-0.6872563362121582
 30
2.4239058494567871
 70
   192
  0
VERTEX
  5
155
  8
0
 62
   156
 10
-0.1701012700796127
 20
-0.7607622146606446
 30
2.3621816635131831
 70
   192
  0
VERTEX
  5
156
  8
0
 62
   156
 10
-0.1550018340349197
 20
-0.8640073537826538
 30
2.338686466217041
 70
   192
  0
VERTEX
  5
157
  8
0
 62
   156
 10
-0.1550020277500153
 20
-1.817505359649658
 30
2.338686466217041
 70
   192
  0
VERTEX
  5
158
  8
0
 62
   156
 10
-1.4171177148818961
 20
1.562676668167114
 30
3.325439453125
 70
   192
  0
VERTEX
  5
159
  8
0
 62
   156
 10
-0.6916771531105042
 20
1.506304025650024
 30
2.696841716766357
 70
   192
  0
VERTEX
  5
15A
  8
0
 62
   156
 10
-0.6912801861763001
 20
1.4576435089111319
 30
2.6964979171752921
 70
   192
  0
VERTEX
  5
15B
  8
0
 62
   156
 10
-0.557114064693451
 20
1.4568605422973631
 30
2.580242156982421
 70
   192
  0
VERTEX
  5
15C
  8
0
 62
   156
 10
-0.5571143031120301
 20
-0.5675733089447022
 30
2.5802416801452628
 70
   192
  0
VERTEX
  5
15D
  8
0
 62
   156
 10
-0.5571011900901796
 20
-0.6177928447723389
 30
2.5802302360534659
 70
   192
  0
VERTEX
  5
15E
  8
0
 62
   156
 10
-0.5261811017990113
 20
-0.6587662696838379
 30
2.5534377098083492
 70
   192
  0
VERTEX
  5
15F
  8
0
 62
   156
 10
-0.3712201118469238
 20
-0.6591396331787111
 30
2.419163703918457
 70
   192
  0
VERTEX
  5
160
  8
0
 62
   156
 10
-0.2932313084602356
 20
-0.6872560977935791
 30
2.3515858650207511
 70
   192
  0
VERTEX
  5
161
  8
0
 62
   156
 10
-0.2377804517745972
 20
-0.7607622146606446
 30
2.3035373687744141
 70
   192
  0
VERTEX
  5
162
  8
0
 62
   156
 10
-0.2166733145713806
 20
-0.8640073537826538
 30
2.285247802734375
 70
   192
  0
VERTEX
  5
163
  8
0
 62
   156
 10
-0.2166735231876373
 20
-1.817505359649658
 30
2.285247802734375
 70
   192
  0
VERTEX
  5
164
  8
0
 62
   156
 10
-1.7056653499603269
 20
1.562676668167114
 30
2.8764510154724121
 70
   192
  0
VERTEX
  5
165
  8
0
 62
   156
 10
-0.8325135707855224
 20
1.506304025650024
 30
2.4776959419250479
 70
   192
  0
VERTEX
  5
166
  8
0
 62
   156
 10
-0.8320357203483582
 20
1.4576435089111319
 30
2.47747802734375
 70
   192
  0
VERTEX
  5
167
  8
0
 62
   156
 10
-0.6705511808395386
 20
1.4568605422973631
 30
2.4037303924560538
 70
   192
  0
VERTEX
  5
168
  8
0
 62
   156
 10
-0.6705514192581177
 20
-0.5675733089447022
 30
2.403729915618896
 70
   192
  0
VERTEX
  5
169
  8
0
 62
   156
 10
-0.6705356240272522
 20
-0.6177928447723389
 30
2.403722763061523
 70
   192
  0
VERTEX
  5
16A
  8
0
 62
   156
 10
-0.6333197355270386
 20
-0.6587662696838379
 30
2.386726856231689
 70
   192
  0
VERTEX
  5
16B
  8
0
 62
   156
 10
-0.4468063116073609
 20
-0.6591396331787111
 30
2.3015491962432861
 70
   192
  0
VERTEX
  5
16C
  8
0
 62
   156
 10
-0.3529376685619354
 20
-0.6872560977935791
 30
2.258680820465087
 70
   192
  0
VERTEX
  5
16D
  8
0
 62
   156
 10
-0.286196231842041
 20
-0.7607619762420655
 30
2.228200912475585
 70
   192
  0
VERTEX
  5
16E
  8
0
 62
   156
 10
-0.2607913017272949
 20
-0.8640071153640747
 30
2.2165989875793448
 70
   192
  0
VERTEX
  5
16F
  8
0
 62
   156
 10
-0.2607914805412292
 20
-1.817505359649658
 30
2.2165985107421871
 70
   192
  0
VERTEX
  5
170
  8
0
 62
   156
 10
-1.856029629707336
 20
1.562676668167114
 30
2.364356040954589
 70
   192
  0
VERTEX
  5
171
  8
0
 62
   156
 10
-0.9059045910835266
 20
1.506304025650024
 30
2.2277493476867671
 70
   192
  0
VERTEX
  5
172
  8
0
 62
   156
 10
-0.9053846597671508
 20
1.4576435089111319
 30
2.2276744842529288
 70
   192
  0
VERTEX
  5
173
  8
0
 62
   156
 10
-0.7296642661094666
 20
1.4568605422973631
 30
2.2024097442626949
 70
   192
  0
VERTEX
  5
174
  8
0
 62
   156
 10
-0.7296645045280457
 20
-0.5675733089447022
 30
2.2024092674255371
 70
   192
  0
VERTEX
  5
175
  8
0
 62
   156
 10
-0.7296473383903505
 20
-0.6177927255630494
 30
2.2024068832397461
 70
   192
  0
VERTEX
  5
176
  8
0
 62
   156
 10
-0.6891505718231202
 20
-0.6587662696838379
 30
2.1965842247009268
 70
   192
  0
VERTEX
  5
177
  8
0
 62
   156
 10
-0.4861948490142823
 20
-0.6591396331787111
 30
2.1674036979675289
 70
   192
  0
VERTEX
  5
178
  8
0
 62
   156
 10
-0.3840512037277222
 20
-0.6872560977935791
 30
2.1527175903320308
 70
   192
  0
VERTEX
  5
179
  8
0
 62
   156
 10
-0.311426043510437
 20
-0.7607619762420655
 30
2.1422758102416992
 70
   192
  0
VERTEX
  5
17A
  8
0
 62
   156
 10
-0.2837815284729004
 20
-0.8640071153640747
 30
2.1383011341094971
 70
   192
  0
VERTEX
  5
17B
  8
0
 62
   156
 10
-0.2837815880775452
 20
-1.817505359649658
 30
2.1383008956909171
 70
   192
  0
VERTEX
  5
17C
  8
0
 62
   156
 10
-1.8560299873352051
 20
1.562676668167114
 30
1.8306428194046021
 70
   192
  0
VERTEX
  5
17D
  8
0
 62
   156
 10
-0.9059045910835266
 20
1.506304025650024
 30
1.9672503471374509
 70
   192
  0
VERTEX
  5
17E
  8
0
 62
   156
 10
-0.9053845405578613
 20
1.4576435089111319
 30
1.9673250913619991
 70
   192
  0
VERTEX
  5
17F
  8
0
 62
   156
 10
-0.7296642661094666
 20
1.4568605422973631
 30
1.992589950561523
 70
   192
  0
VERTEX
  5
180
  8
0
 62
   156
 10
-0.7296643853187561
 20
-0.5675733089447022
 30
1.9925895929336539
 70
   192
  0
VERTEX
  5
181
  8
0
 62
   156
 10
-0.7296472191810608
 20
-0.6177927255630494
 30
1.9925919771194449
 70
   192
  0
VERTEX
  5
182
  8
0
 62
   156
 10
-0.6891505122184755
 20
-0.6587662696838379
 30
1.9984145164489739
 70
   192
  0
VERTEX
  5
183
  8
0
 62
   156
 10
-0.4861947596073151
 20
-0.6591396331787111
 30
2.0275952816009521
 70
   192
  0
VERTEX
  5
184
  8
0
 62
   156
 10
-0.384051114320755
 20
-0.6872560977935791
 30
2.0422813892364502
 70
   192
  0
VERTEX
  5
185
  8
0
 62
   156
 10
-0.3114259541034698
 20
-0.7607619762420655
 30
2.0527234077453609
 70
   192
  0
VERTEX
  5
186
  8
0
 62
   156
 10
-0.2837814688682556
 20
-0.8640071153640747
 30
2.0566978454589839
 70
   192
  0
VERTEX
  5
187
  8
0
 62
   156
 10
-0.283781498670578
 20
-1.817505359649658
 30
2.0566978454589839
 70
   192
  0
VERTEX
  5
188
  8
0
 62
   156
 10
-1.7056652307510369
 20
1.562676668167114
 30
1.318548202514648
 70
   192
  0
VERTEX
  5
189
  8
0
 62
   156
 10
-0.832513689994812
 20
1.506304025650024
 30
1.7173036336898799
 70
   192
  0
VERTEX
  5
18A
  8
0
 62
   156
 10
-0.8320358395576477
 20
1.4576435089111319
 30
1.717521905899047
 70
   192
  0
VERTEX
  5
18B
  8
0
 62
   156
 10
-0.6705513596534729
 20
1.4568605422973631
 30
1.7912695407867429
 70
   192
  0
VERTEX
  5
18C
  8
0
 62
   156
 10
-0.6705513000488282
 20
-0.5675733089447022
 30
1.7912691831588741
 70
   192
  0
VERTEX
  5
18D
  8
0
 62
   156
 10
-0.6705354452133179
 20
-0.6177928447723389
 30
1.7912763357162469
 70
   192
  0
VERTEX
  5
18E
  8
0
 62
   156
 10
-0.6333196163177491
 20
-0.6587662696838379
 30
1.8082722425460811
 70
   192
  0
VERTEX
  5
18F
  8
0
 62
   156
 10
-0.4468061327934266
 20
-0.6591396331787111
 30
1.8934501409530631
 70
   192
  0
VERTEX
  5
190
  8
0
 62
   156
 10
-0.3529375791549683
 20
-0.6872560977935791
 30
1.936318516731262
 70
   192
  0
VERTEX
  5
191
  8
0
 62
   156
 10
-0.2861960530281067
 20
-0.7607619762420655
 30
1.9667983055114739
 70
   192
  0
VERTEX
  5
192
  8
0
 62
   156
 10
-0.2607911229133606
 20
-0.8640071153640747
 30
1.978400349617004
 70
   192
  0
VERTEX
  5
193
  8
0
 62
   156
 10
-0.260791152715683
 20
-1.817505359649658
 30
1.978400230407714
 70
   192
  0
VERTEX
  5
194
  8
0
 62
   156
 10
-1.4171183109283441
 20
1.562676668167114
 30
0.8695602416992188
 70
   192
  0
VERTEX
  5
195
  8
0
 62
   156
 10
-0.6916773319244385
 20
1.506304025650024
 30
1.49815821647644
 70
   192
  0
VERTEX
  5
196
  8
0
 62
   156
 10
-0.6912803649902344
 20
1.4576435089111319
 30
1.4985022544860831
 70
   192
  0
VERTEX
  5
197
  8
0
 62
   156
 10
-0.5571141839027405
 20
1.4568605422973631
 30
1.6147577762603751
 70
   192
  0
VERTEX
  5
198
  8
0
 62
   156
 10
-0.5571141839027405
 20
-0.5675733089447022
 30
1.614757657051086
 70
   192
  0
VERTEX
  5
199
  8
0
 62
   156
 10
-0.5571010708808899
 20
-0.6177928447723389
 30
1.6147691011428831
 70
   192
  0
VERTEX
  5
19A
  8
0
 62
   156
 10
-0.5261809825897217
 20
-0.6587662696838379
 30
1.6415613889694209
 70
   192
  0
VERTEX
  5
19B
  8
0
 62
   156
 10
-0.3712199926376343
 20
-0.6591396331787111
 30
1.775835752487182
 70
   192
  0
VERTEX
  5
19C
  8
0
 62
   156
 10
-0.2932311296463013
 20
-0.6872560977935791
 30
1.843413591384887
 70
   192
  0
VERTEX
  5
19D
  8
0
 62
   156
 10
-0.2377802729606628
 20
-0.7607622146606446
 30
1.891461968421936
 70
   192
  0
VERTEX
  5
19E
  8
0
 62
   156
 10
-0.2166730612516403
 20
-0.8640073537826538
 30
1.9097514152526851
 70
   192
  0
VERTEX
  5
19F
  8
0
 62
   156
 10
-0.2166731059551239
 20
-1.817505359649658
 30
1.9097512960433951
 70
   192
  0
VERTEX
  5
1A0
  8
0
 62
   156
 10
-1.013763427734375
 20
1.562676668167114
 30
0.5200517177581787
 70
   192
  0
VERTEX
  5
1A1
  8
0
 62
   156
 10
-0.4948052167892456
 20
1.506304025650024
 30
1.3275675773620601
 70
   192
  0
VERTEX
  5
1A2
  8
0
 62
   156
 10
-0.4945211410522461
 20
1.4576435089111319
 30
1.3280093669891351
 70
   192
  0
VERTEX
  5
1A3
  8
0
 62
   156
 10
-0.3985427320003509
 20
1.4568605422973631
 30
1.4773550033569329
 70
   192
  0
VERTEX
  5
1A4
  8
0
 62
   156
 10
-0.3985426127910614
 20
-0.5675733089447022
 30
1.477354884147644
 70
   192
  0
VERTEX
  5
1A5
  8
0
 62
   156
 10
-0.3985332548618317
 20
-0.6177928447723389
 30
1.477369427680969
 70
   192
  0
VERTEX
  5
1A6
  8
0
 62
   156
 10
-0.3764139711856842
 20
-0.6587662696838379
 30
1.511787772178649
 70
   192
  0
VERTEX
  5
1A7
  8
0
 62
   156
 10
-0.2655595541000366
 20
-0.6591396331787111
 30
1.6842807531356809
 70
   192
  0
VERTEX
  5
1A8
  8
0
 62
   156
 10
-0.2097686678171158
 20
-0.6872563362121582
 30
1.7710930109024039
 70
   192
  0
VERTEX
  5
1A9
  8
0
 62
   156
 10
-0.1701007783412933
 20
-0.7607622146606446
 30
1.8328175544738761
 70
   192
  0
VERTEX
  5
1AA
  8
0
 62
   156
 10
-0.1550013422966003
 20
-0.8640073537826538
 30
1.8563127517700191
 70
   192
  0
VERTEX
  5
1AB
  8
0
 62
   156
 10
-0.1550012975931168
 20
-1.817505359649658
 30
1.8563127517700191
 70
   192
  0
VERTEX
  5
1AC
  8
0
 62
   156
 10
-0.5282806754112244
 20
1.562676668167114
 30
0.2983393669128418
 70
   192
  0
VERTEX
  5
1AD
  8
0
 62
   156
 10
-0.2578472197055817
 20
1.506304025650024
 30
1.219352483749389
 70
   192
  0
VERTEX
  5
1AE
  8
0
 62
   156
 10
-0.257699191570282
 20
1.4576435089111319
 30
1.2198565006256099
 70
   192
  0
VERTEX
  5
1AF
  8
0
 62
   156
 10
-0.2076839506626129
 20
1.4568605422973631
 30
1.390192747116088
 70
   192
  0
VERTEX
  5
1B0
  8
0
 62
   156
 10
-0.2076838761568069
 20
-0.5675734281539917
 30
1.3901926279067991
 70
   192
  0
VERTEX
  5
1B1
  8
0
 62
   156
 10
-0.2076790332794189
 20
-0.6177928447723389
 30
1.390209317207336
 70
   192
  0
VERTEX
  5
1B2
  8
0
 62
   156
 10
-0.1961524784564972
 20
-0.6587663888931276
 30
1.4294651746749869
 70
   192
  0
VERTEX
  5
1B3
  8
0
 62
   156
 10
-0.1383853256702423
 20
-0.6591396331787111
 30
1.626202344894409
 70
   192
  0
VERTEX
  5
1B4
  8
0
 62
   156
 10
-0.1093121916055679
 20
-0.6872563362121582
 30
1.725216269493103
 70
   192
  0
VERTEX
  5
1B5
  8
0
 62
   156
 10
-0.0886409804224968
 20
-0.7607622146606446
 30
1.7956161499023431
 70
   192
  0
VERTEX
  5
1B6
  8
0
 62
   156
 10
-0.0807724744081497
 20
-0.8640072345733642
 30
1.8224136829376221
 70
   192
  0
VERTEX
  5
1B7
  8
0
 62
   156
 10
-0.0807724371552468
 20
-1.817505359649658
 30
1.8224135637283321
 70
   192
  0
VERTEX
  5
1B8
  8
0
 62
   156
 10
-0.000000177879059
 20
1.617187976837158
 30
0.1861003637313843
 70
   192
  0
VERTEX
  5
1B9
  8
0
 62
   156
 10
0.5385033488273621
 20
1.617187976837158
 30
0.2635254859924316
 70
   192
  0
VERTEX
  5
1BA
  8
0
 62
   156
 10
1.033380270004272
 20
1.617187976837158
 30
0.4895280599594117
 70
   192
  0
VERTEX
  5
1BB
  8
0
 62
   156
 10
1.444538712501525
 20
1.617187976837158
 30
0.8457990884780883
 70
   192
  0
VERTEX
  5
1BC
  8
0
 62
   156
 10
1.738669633865356
 20
1.617187976837158
 30
1.303475499153137
 70
   192
  0
VERTEX
  5
1BD
  8
0
 62
   156
 10
1.8919438123703001
 20
1.617187976837158
 30
1.82547903060913
 70
   192
  0
VERTEX
  5
1BE
  8
0
 62
   156
 10
1.891943573951721
 20
1.617187976837158
 30
2.3695201873779288
 70
   192
  0
VERTEX
  5
1BF
  8
0
 62
   156
 10
1.738669633865356
 20
1.617187976837158
 30
2.8915233612060538
 70
   192
  0
VERTEX
  5
1C0
  8
0
 62
   156
 10
1.4445389509201041
 20
1.617187976837158
 30
3.3491997718811031
 70
   192
  0
VERTEX
  5
1C1
  8
0
 62
   156
 10
1.0333805084228509
 20
1.617187976837158
 30
3.7054710388183589
 70
   192
  0
VERTEX
  5
1C2
  8
0
 62
   156
 10
0.5385033488273621
 20
1.617187976837158
 30
3.931473731994628
 70
   192
  0
VERTEX
  5
1C3
  8
0
 62
   156
 10
-0.00000005833963
 20
1.617187976837158
 30
4.008899211883544
 70
   192
  0
VERTEX
  5
1C4
  8
0
 62
   156
 10
-0.538503408432007
 20
1.617188453674316
 30
3.931473731994628
 70
   192
  0
VERTEX
  5
1C5
  8
0
 62
   156
 10
-1.03338086605072
 20
1.617188453674316
 30
3.7054710388183589
 70
   192
  0
VERTEX
  5
1C6
  8
0
 62
   156
 10
-1.4445390701293941
 20
1.617188453674316
 30
3.3492002487182608
 70
   192
  0
VERTEX
  5
1C7
  8
0
 62
   156
 10
-1.738670110702514
 20
1.617188453674316
 30
2.891523838043212
 70
   192
  0
VERTEX
  5
1C8
  8
0
 62
   156
 10
-1.891943931579589
 20
1.617188453674316
 30
2.369519710540771
 70
   192
  0
VERTEX
  5
1C9
  8
0
 62
   156
 10
-1.8919442892074581
 20
1.617188453674316
 30
1.82547914981842
 70
   192
  0
VERTEX
  5
1CA
  8
0
 62
   156
 10
-1.7386699914932251
 20
1.617188453674316
 30
1.303475379943847
 70
   192
  0
VERTEX
  5
1CB
  8
0
 62
   156
 10
-1.4445396661758421
 20
1.617188453674316
 30
0.845799446105957
 70
   192
  0
VERTEX
  5
1CC
  8
0
 62
   156
 10
-1.033379793167114
 20
1.617188453674316
 30
0.4895279407501221
 70
   192
  0
VERTEX
  5
1CD
  8
0
 62
   156
 10
-0.5385029315948487
 20
1.617188453674316
 30
0.2635254859924316
 70
   192
  0
VERTEX
  5
1CE
  8
0
 62
   156
 10
-0.0000005473237934
 20
2.0882575511932369
 30
0.1491144895553589
 70
   192
  0
VERTEX
  5
1CF
  8
0
 62
   156
 10
0.5489230751991272
 20
2.0882575511932369
 30
0.2280378341674805
 70
   192
  0
VERTEX
  5
1D0
  8
0
 62
   156
 10
1.0533759593963621
 20
2.0882575511932369
 30
0.4584134817123413
 70
   192
  0
VERTEX
  5
1D1
  8
0
 62
   156
 10
1.4724903106689451
 20
2.0882575511932369
 30
0.8215783834457398
 70
   192
  0
VERTEX
  5
1D2
  8
0
 62
   156
 10
1.7723126411437979
 20
2.0882575511932369
 30
1.288110971450805
 70
   192
  0
VERTEX
  5
1D3
  8
0
 62
   156
 10
1.9285527467727659
 20
2.0882575511932369
 30
1.8202152252197259
 70
   192
  0
VERTEX
  5
1D4
  8
0
 62
   156
 10
1.928552508354187
 20
2.0882575511932369
 30
2.3747835159301749
 70
   192
  0
VERTEX
  5
1D5
  8
0
 62
   156
 10
1.7723126411437979
 20
2.0882575511932369
 30
2.9068875312805171
 70
   192
  0
VERTEX
  5
1D6
  8
0
 62
   156
 10
1.472490549087524
 20
2.0882575511932369
 30
3.373419761657714
 70
   192
  0
VERTEX
  5
1D7
  8
0
 62
   156
 10
1.053376197814941
 20
2.0882575511932369
 30
3.736585140228271
 70
   192
  0
VERTEX
  5
1D8
  8
0
 62
   156
 10
0.5489230751991272
 20
2.0882575511932369
 30
3.966960906982421
 70
   192
  0
VERTEX
  5
1D9
  8
0
 62
   156
 10
-0.0000004254711996
 20
2.0882575511932369
 30
4.0458846092224121
 70
   192
  0
VERTEX
  5
1DA
  8
0
 62
   156
 10
-0.5489238500595093
 20
2.0882580280303951
 30
3.966960906982421
 70
   192
  0
VERTEX
  5
1DB
  8
0
 62
   156
 10
-1.0533771514892569
 20
2.0882580280303951
 30
3.736585140228271
 70
   192
  0
VERTEX
  5
1DC
  8
0
 62
   156
 10
-1.4724912643432611
 20
2.0882580280303951
 30
3.3734207153320308
 70
   192
  0
VERTEX
  5
1DD
  8
0
 62
   156
 10
-1.7723137140274039
 20
2.0882580280303951
 30
2.9068880081176749
 70
   192
  0
VERTEX
  5
1DE
  8
0
 62
   156
 10
-1.928553462028503
 20
2.0882580280303951
 30
2.3747830390930171
 70
   192
  0
VERTEX
  5
1DF
  8
0
 62
   156
 10
-1.9285538196563721
 20
2.0882580280303951
 30
1.8202153444290159
 70
   192
  0
VERTEX
  5
1E0
  8
0
 62
   156
 10
-1.772313594818115
 20
2.0882580280303951
 30
1.2881107330322259
 70
   192
  0
VERTEX
  5
1E1
  8
0
 62
   156
 10
-1.472491860389709
 20
2.0882580280303951
 30
0.8215787410736083
 70
   192
  0
VERTEX
  5
1E2
  8
0
 62
   156
 10
-1.053376078605651
 20
2.0882580280303951
 30
0.4584133625030518
 70
   192
  0
VERTEX
  5
1E3
  8
0
 62
   156
 10
-0.5489233732223511
 20
2.0882580280303951
 30
0.2280378341674805
 70
   192
  0
VERTEX
  5
1E4
  8
0
 62
   156
 10
-0.0000001099487577
 20
-1.8503869771957391
 30
0.4608385264873505
 70
   192
  0
VERTEX
  5
1E5
  8
0
 62
   156
 10
0.3113280236721039
 20
-1.8503869771957391
 30
0.412701427936554
 70
   192
  0
VERTEX
  5
1E6
  8
0
 62
   156
 10
0.2696180045604706
 20
-1.6947228908538809
 30
0.412701427936554
 70
   192
  0
VERTEX
  5
1E7
  8
0
 62
   156
 10
0.1556640565395355
 20
-1.580768823623657
 30
0.412701427936554
 70
   192
  0
VERTEX
  5
1E8
  8
0
 62
   156
 10
-0.0000000907033098
 20
-1.539058804512023
 30
0.412701427936554
 70
   192
  0
VERTEX
  5
1E9
  8
0
 62
   156
 10
-0.155664250254631
 20
-1.580768823623657
 30
0.412701427936554
 70
   192
  0
VERTEX
  5
1EA
  8
0
 62
   156
 10
-0.2696182131767273
 20
-1.6947228908538809
 30
0.412701427936554
 70
   192
  0
VERTEX
  5
1EB
  8
0
 62
   156
 10
-0.311328262090683
 20
-1.8503869771957391
 30
0.412701427936554
 70
   192
  0
VERTEX
  5
1EC
  8
0
 62
   156
 10
-0.2696182131767273
 20
-2.0060510635375972
 30
0.412701427936554
 70
   192
  0
VERTEX
  5
1ED
  8
0
 62
   156
 10
-0.1556642800569534
 20
-2.1200051307678218
 30
0.412701427936554
 70
   192
  0
VERTEX
  5
1EE
  8
0
 62
   156
 10
-0.0000001291942056
 20
-2.161715030670166
 30
0.412701427936554
 70
   192
  0
VERTEX
  5
1EF
  8
0
 62
   156
 10
0.1556640267372131
 20
-2.1200051307678218
 30
0.412701427936554
 70
   192
  0
VERTEX
  5
1F0
  8
0
 62
   156
 10
0.2696179747581482
 20
-2.0060510635375972
 30
0.412701427936554
 70
   192
  0
VERTEX
  5
1F1
  8
0
 62
   156
 10
0.3113280832767487
 20
-1.8503869771957391
 30
3.78229808807373
 70
   192
  0
VERTEX
  5
1F2
  8
0
 62
   156
 10
0.2696180045604706
 20
-1.6947228908538809
 30
3.78229808807373
 70
   192
  0
VERTEX
  5
1F3
  8
0
 62
   156
 10
0.1556639820337295
 20
-1.580768823623657
 30
3.7822976112365718
 70
   192
  0
VERTEX
  5
1F4
  8
0
 62
   156
 10
-0.0000000907033098
 20
-1.539058804512023
 30
3.78229808807373
 70
   192
  0
VERTEX
  5
1F5
  8
0
 62
   156
 10
-0.1556641608476639
 20
-1.580768823623657
 30
3.7822976112365718
 70
   192
  0
VERTEX
  5
1F6
  8
0
 62
   156
 10
-0.2696183621883392
 20
-1.6947228908538809
 30
3.78229808807373
 70
   192
  0
VERTEX
  5
1F7
  8
0
 62
   156
 10
-0.3113282918930054
 20
-1.8503869771957391
 30
3.78229808807373
 70
   192
  0
VERTEX
  5
1F8
  8
0
 62
   156
 10
-0.2696181535720825
 20
-2.0060510635375972
 30
3.7822976112365718
 70
   192
  0
VERTEX
  5
1F9
  8
0
 62
   156
 10
-0.1556642055511475
 20
-2.1200051307678218
 30
3.7822976112365718
 70
   192
  0
VERTEX
  5
1FA
  8
0
 62
   156
 10
-0.0000001291942056
 20
-2.161715030670166
 30
3.78229808807373
 70
   192
  0
VERTEX
  5
1FB
  8
0
 62
   156
 10
0.1556640267372131
 20
-2.1200051307678218
 30
3.78229808807373
 70
   192
  0
VERTEX
  5
1FC
  8
0
 62
   156
 10
0.2696179747581482
 20
-2.0060510635375972
 30
3.78229808807373
 70
   192
  0
VERTEX
  5
1FD
  8
0
 62
   156
 10
-0.0000001099487577
 20
-1.8503869771957391
 30
3.7341609001159659
 70
   192
  0
VERTEX
  5
1FE
  8
0
 62
   156
 10
1.636661052703857
 20
-1.8503869771957391
 30
2.0974998474121089
 70
   192
  0
VERTEX
  5
1FF
  8
0
 62
   156
 10
1.6847982406616211
 20
-1.8503869771957391
 30
2.4088282585144039
 70
   192
  0
VERTEX
  5
200
  8
0
 62
   156
 10
1.6847981214523311
 20
-1.6947228908538809
 30
2.3671178817749019
 70
   192
  0
VERTEX
  5
201
  8
0
 62
   156
 10
1.6847982406616211
 20
-1.580768823623657
 30
2.2531638145446768
 70
   192
  0
VERTEX
  5
202
  8
0
 62
   156
 10
1.6847982406616211
 20
-1.5390586853027339
 30
2.0974996089935298
 70
   192
  0
VERTEX
  5
203
  8
0
 62
   156
 10
1.6847982406616211
 20
-1.580768823623657
 30
1.941835641860961
 70
   192
  0
VERTEX
  5
204
  8
0
 62
   156
 10
1.6847982406616211
 20
-1.6947228908538809
 30
1.8278814554214471
 70
   192
  0
VERTEX
  5
205
  8
0
 62
   156
 10
1.6847981214523311
 20
-1.8503869771957391
 30
1.786171436309814
 70
   192
  0
VERTEX
  5
206
  8
0
 62
   156
 10
1.6847982406616211
 20
-2.0060510635375972
 30
1.827881693840026
 70
   192
  0
VERTEX
  5
207
  8
0
 62
   156
 10
1.6847981214523311
 20
-2.1200051307678218
 30
1.941835641860961
 70
   192
  0
VERTEX
  5
208
  8
0
 62
   156
 10
1.6847981214523311
 20
-2.1617152690887451
 30
2.0974998474121089
 70
   192
  0
VERTEX
  5
209
  8
0
 62
   156
 10
1.6847982406616211
 20
-2.1200051307678218
 30
2.2531638145446768
 70
   192
  0
VERTEX
  5
20A
  8
0
 62
   156
 10
1.6847981214523311
 20
-2.0060510635375972
 30
2.3671178817749019
 70
   192
  0
VERTEX
  5
20B
  8
0
 62
   156
 10
-1.68479835987091
 20
-1.8503869771957391
 30
2.4088277816772461
 70
   192
  0
VERTEX
  5
20C
  8
0
 62
   156
 10
-1.68479835987091
 20
-1.6947228908538809
 30
2.3671174049377441
 70
   192
  0
VERTEX
  5
20D
  8
0
 62
   156
 10
-1.68479835987091
 20
-1.580768823623657
 30
2.2531638145446768
 70
   192
  0
VERTEX
  5
20E
  8
0
 62
   156
 10
-1.68479835987091
 20
-1.539058804512023
 30
2.0974996089935298
 70
   192
  0
VERTEX
  5
20F
  8
0
 62
   156
 10
-1.68479835987091
 20
-1.580768823623657
 30
1.9418354034423819
 70
   192
  0
VERTEX
  5
210
  8
0
 62
   156
 10
-1.68479835987091
 20
-1.6947228908538809
 30
1.8278814554214471
 70
   192
  0
VERTEX
  5
211
  8
0
 62
   156
 10
-1.68479835987091
 20
-1.8503869771957391
 30
1.786171317100524
 70
   192
  0
VERTEX
  5
212
  8
0
 62
   156
 10
-1.68479835987091
 20
-2.0060510635375972
 30
1.8278814554214471
 70
   192
  0
VERTEX
  5
213
  8
0
 62
   156
 10
-1.6847982406616211
 20
-2.1200051307678218
 30
1.9418354034423819
 70
   192
  0
VERTEX
  5
214
  8
0
 62
   156
 10
-1.68479835987091
 20
-2.161715030670166
 30
2.0974993705749512
 70
   192
  0
VERTEX
  5
215
  8
0
 62
   156
 10
-1.6847982406616211
 20
-2.1200051307678218
 30
2.2531638145446768
 70
   192
  0
VERTEX
  5
216
  8
0
 62
   156
 10
-1.6847982406616211
 20
-2.0060510635375972
 30
2.3671174049377441
 70
   192
  0
VERTEX
  5
217
  8
0
 62
   156
 10
-1.6366614103317261
 20
-1.8503869771957391
 30
2.0974998474121089
 70
   192
  0
VERTEX
  5
218
  8
0
 62
   156
 10
0.1618225425481796
 20
-1.8503869771957391
 30
0.4608385264873505
 70
   192
  0
VERTEX
  5
219
  8
0
 62
   156
 10
0.1401425451040268
 20
-1.7694755792617789
 30
0.4608385264873505
 70
   192
  0
VERTEX
  5
21A
  8
0
 62
   156
 10
0.0809111446142197
 20
-1.7102444171905511
 30
0.4608384370803833
 70
   192
  0
VERTEX
  5
21B
  8
0
 62
   156
 10
-0.0000000156516364
 20
-1.6885643005371089
 30
0.4608386158943177
 70
   192
  0
VERTEX
  5
21C
  8
0
 62
   156
 10
-0.0809115096926689
 20
-1.7102444171905511
 30
0.4608384370803833
 70
   192
  0
VERTEX
  5
21D
  8
0
 62
   156
 10
-0.1401427537202835
 20
-1.7694756984710689
 30
0.4608385264873505
 70
   192
  0
VERTEX
  5
21E
  8
0
 62
   156
 10
-0.1618227660655975
 20
-1.85038685798645
 30
0.4608385264873505
 70
   192
  0
VERTEX
  5
21F
  8
0
 62
   156
 10
-0.1401426792144775
 20
-1.9312982559204099
 30
0.4608386158943177
 70
   192
  0
VERTEX
  5
220
  8
0
 62
   156
 10
-0.080911360681057
 20
-1.9905295372009271
 30
0.4608384370803833
 70
   192
  0
VERTEX
  5
221
  8
0
 62
   156
 10
-0.0000001199521904
 20
-2.0122096538543701
 30
0.4608385264873505
 70
   192
  0
VERTEX
  5
222
  8
0
 62
   156
 10
0.0809112936258316
 20
-1.9905295372009271
 30
0.4608384370803833
 70
   192
  0
VERTEX
  5
223
  8
0
 62
   156
 10
0.1401425302028656
 20
-1.9312981367111199
 30
0.4608385264873505
 70
   192
  0
VERTEX
  5
224
  8
0
 62
   156
 10
0.1618224531412125
 20
-1.8503869771957391
 30
3.7341609001159659
 70
   192
  0
VERTEX
  5
225
  8
0
 62
   156
 10
0.1401423811912537
 20
-1.7694755792617789
 30
3.7341609001159659
 70
   192
  0
VERTEX
  5
226
  8
0
 62
   156
 10
0.0809110552072525
 20
-1.7102444171905511
 30
3.7341609001159659
 70
   192
  0
VERTEX
  5
227
  8
0
 62
   156
 10
-0.0000000156516364
 20
-1.6885643005371089
 30
3.7341609001159659
 70
   192
  0
VERTEX
  5
228
  8
0
 62
   156
 10
-0.0809114277362824
 20
-1.7102444171905511
 30
3.7341609001159659
 70
   192
  0
VERTEX
  5
229
  8
0
 62
   156
 10
-0.1401425898075104
 20
-1.7694756984710689
 30
3.7341609001159659
 70
   192
  0
VERTEX
  5
22A
  8
0
 62
   156
 10
-0.1618227660655975
 20
-1.85038685798645
 30
3.7341609001159659
 70
   192
  0
VERTEX
  5
22B
  8
0
 62
   156
 10
-0.1401426047086716
 20
-1.9312982559204099
 30
3.7341609001159659
 70
   192
  0
VERTEX
  5
22C
  8
0
 62
   156
 10
-0.0809114426374436
 20
-1.9905295372009271
 30
3.7341609001159659
 70
   192
  0
VERTEX
  5
22D
  8
0
 62
   156
 10
-0.0000000356584877
 20
-2.0122096538543701
 30
3.7341609001159659
 70
   192
  0
VERTEX
  5
22E
  8
0
 62
   156
 10
0.0809112116694451
 20
-1.9905295372009271
 30
3.7341609001159659
 70
   192
  0
VERTEX
  5
22F
  8
0
 62
   156
 10
0.1401423662900925
 20
-1.9312981367111199
 30
3.7341609001159659
 70
   192
  0
VERTEX
  5
230
  8
0
 62
   156
 10
1.6366611719131461
 20
-1.85038685798645
 30
2.2593226432800289
 70
   192
  0
VERTEX
  5
231
  8
0
 62
   156
 10
1.6366611719131461
 20
-1.7694756984710689
 30
2.2376418113708492
 70
   192
  0
VERTEX
  5
232
  8
0
 62
   156
 10
1.636661052703857
 20
-1.7102445363998411
 30
2.1784117221832271
 70
   192
  0
VERTEX
  5
233
  8
0
 62
   156
 10
1.636661052703857
 20
-1.6885643005371089
 30
2.0974998474121089
 70
   192
  0
VERTEX
  5
234
  8
0
 62
   156
 10
1.636661052703857
 20
-1.71024465560913
 30
2.0165877342224121
 70
   192
  0
VERTEX
  5
235
  8
0
 62
   156
 10
1.636661052703857
 20
-1.7694755792617789
 30
1.95735764503479
 70
   192
  0
VERTEX
  5
236
  8
0
 62
   156
 10
1.6366611719131461
 20
-1.8503860235214229
 30
1.9356768131256099
 70
   192
  0
VERTEX
  5
237
  8
0
 62
   156
 10
1.636661052703857
 20
-1.931298971176147
 30
1.95735740661621
 70
   192
  0
VERTEX
  5
238
  8
0
 62
   156
 10
1.6366611719131461
 20
-1.9905296564102171
 30
2.0165891647338858
 70
   192
  0
VERTEX
  5
239
  8
0
 62
   156
 10
1.636661052703857
 20
-2.0122096538543701
 30
2.0974993705749512
 70
   192
  0
VERTEX
  5
23A
  8
0
 62
   156
 10
1.6366611719131461
 20
-1.990529298782348
 30
2.1784119606018062
 70
   192
  0
VERTEX
  5
23B
  8
0
 62
   156
 10
1.636661052703857
 20
-1.9312980175018311
 30
2.2376418113708492
 70
   192
  0
VERTEX
  5
23C
  8
0
 62
   156
 10
-1.6366612911224361
 20
-1.8503869771957391
 30
2.2593224048614502
 70
   192
  0
VERTEX
  5
23D
  8
0
 62
   156
 10
-1.6366614103317261
 20
-1.769475817680358
 30
2.2376418113708492
 70
   192
  0
VERTEX
  5
23E
  8
0
 62
   156
 10
-1.6366612911224361
 20
-1.7102445363998411
 30
2.178411483764648
 70
   192
  0
VERTEX
  5
23F
  8
0
 62
   156
 10
-1.6366614103317261
 20
-1.6885643005371089
 30
2.0974998474121089
 70
   192
  0
VERTEX
  5
240
  8
0
 62
   156
 10
-1.6366612911224361
 20
-1.7102445363998411
 30
2.0165879726409912
 70
   192
  0
VERTEX
  5
241
  8
0
 62
   156
 10
-1.6366612911224361
 20
-1.7694762945175171
 30
1.9573565721511841
 70
   192
  0
VERTEX
  5
242
  8
0
 62
   156
 10
-1.6366612911224361
 20
-1.8503869771957391
 30
1.935677051544189
 70
   192
  0
VERTEX
  5
243
  8
0
 62
   156
 10
-1.6366614103317261
 20
-1.9312978982925411
 30
1.957356691360473
 70
   192
  0
VERTEX
  5
244
  8
0
 62
   156
 10
-1.6366612911224361
 20
-1.9905295372009271
 30
2.0165882110595699
 70
   192
  0
VERTEX
  5
245
  8
0
 62
   156
 10
-1.6366614103317261
 20
-2.012209415435791
 30
2.0974998474121089
 70
   192
  0
VERTEX
  5
246
  8
0
 62
   156
 10
-1.6366612911224361
 20
-1.990529417991638
 30
2.1784117221832271
 70
   192
  0
VERTEX
  5
247
  8
0
 62
   156
 10
-1.6366614103317261
 20
-1.9312978982925411
 30
2.2376418113708492
 70
   192
  0
VERTEX
  5
248
  8
0
 62
   156
 10
0.0
 20
0.0
 30
0.0
 70
   128
 71
    -1
 72
    15
 73
     2
 74
    -1
  0
VERTEX
  5
249
  8
0
 62
   156
 10
0.0
 20
0.0
 30
0.0
 70
   128
 71
     1
 72
    14
 73
   -15
 74
    -1
  0
VERTEX
  5
24A
  8
0
 62
   156
 10
0.0
 20
0.0
 30
0.0
 70
   128
 71
    -2
 72
    16
 73
     3
 74
    -2
  0
VERTEX
  5
24B
  8
0
 62
   156
 10
0.0
 20
0.0
 30
0.0
 70
   128
 71
     2
 72
    15
 73
   -16
 74
    -2
  0
VERTEX
  5
24C
  8
0
 62
   156
 10
0.0
 20
0.0
 30
0.0
 70
   128
 71
    -3
 72
    17
 73
     4
 74
    -3
  0
VERTEX
  5
24D
  8
0
 62
   156
 10
0.0
 20
0.0
 30
0.0
 70
   128
 71
     3
 72
    16
 73
   -17
 74
    -3
  0
VERTEX
  5
24E
  8
0
 62
   156
 10
0.0
 20
0.0
 30
0.0
 70
   128
 71
    -4
 72
    18
 73
     5
 74
    -4
  0
VERTEX
  5
24F
  8
0
 62
   156
 10
0.0
 20
0.0
 30
0.0
 70
   128
 71
     4
 72
    17
 73
   -18
 74
    -4
  0
VERTEX
  5
250
  8
0
 62
   156
 10
0.0
 20
0.0
 30
0.0
 70
   128
 71
    -5
 72
    19
 73
     6
 74
    -5
  0
VERTEX
  5
251
  8
0
 62
   156
 10
0.0
 20
0.0
 30
0.0
 70
   128
 71
     5
 72
    18
 73
   -19
 74
    -5
  0
VERTEX
  5
252
  8
0
 62
   156
 10
0.0
 20
0.0
 30
0.0
 70
   128
 71
    -6
 72
    20
 73
     7
 74
    -6
  0
VERTEX
  5
253
  8
0
 62
   156
 10
0.0
 20
0.0
 30
0.0
 70
   128
 71
     6
 72
    19
 73
   -20
 74
    -6
  0
VERTEX
  5
254
  8
0
 62
   156
 10
0.0
 20
0.0
 30
0.0
 70
   128
 71
    -7
 72
    21
 73
     8
 74
    -7
  0
VERTEX
  5
255
  8
0
 62
   156
 10
0.0
 20
0.0
 30
0.0
 70
   128
 71
     7
 72
    20
 73
   -21
 74
    -7
  0
VERTEX
  5
256
  8
0
 62
   156
 10
0.0
 20
0.0
 30
0.0
 70
   128
 71
    -8
 72
    22
 73
     9
 74
    -8
  0
VERTEX
  5
257
  8
0
 62
   156
 10
0.0
 20
0.0
 30
0.0
 70
   128
 71
     8
 72
    21
 73
   -22
 74
    -8
  0
VERTEX
  5
258
  8
0
 62
   156
 10
0.0
 20
0.0
 30
0.0
 70
   128
 71
    -9
 72
    23
 73
    10
 74
    -9
  0
VERTEX
  5
259
  8
0
 62
   156
 10
0.0
 20
0.0
 30
0.0
 70
   128
 71
     9
 72
    22
 73
   -23
 74
    -9
  0
VERTEX
  5
25A
  8
0
 62
   156
 10
0.0
 20
0.0
 30
0.0
 70
   128
 71
   -10
 72
    24
 73
    11
 74
   -10
  0
VERTEX
  5
25B
  8
0
 62
   156
 10
0.0
 20
0.0
 30
0.0
 70
   128
 71
    10
 72
    23
 73
   -24
 74
   -10
  0
VERTEX
  5
25C
  8
0
 62
   156
 10
0.0
 20
0.0
 30
0.0
 70
   128
 71
   -11
 72
    25
 73
    12
 74
   -11
  0
VERTEX
  5
25D
  8
0
 62
   156
 10
0.0
 20
0.0
 30
0.0
 70
   128
 71
    11
 72
    24
 73
   -25
 74
   -11
  0
VERTEX
  5
25E
  8
0
 62
   156
 10
0.0
 20
0.0
 30
0.0
 70
   128
 71
    12
 72
    25
 73
   -13
 74
   -12
  0
VERTEX
  5
25F
  8
0
 62
   156
 10
0.0
 20
0.0
 30
0.0
 70
   128
 71
   -14
 72
    27
 73
    15
 74
   -14
  0
VERTEX
  5
260
  8
0
 62
   156
 10
0.0
 20
0.0
 30
0.0
 70
   128
 71
    14
 72
    26
 73
   -27
 74
   -14
  0
VERTEX
  5
261
  8
0
 62
   156
 10
0.0
 20
0.0
 30
0.0
 70
   128
 71
   -15
 72
    28
 73
    16
 74
   -15
  0
VERTEX
  5
262
  8
0
 62
   156
 10
0.0
 20
0.0
 30
0.0
 70
   128
 71
    15
 72
    27
 73
   -28
 74
   -15
  0
VERTEX
  5
263
  8
0
 62
   156
 10
0.0
 20
0.0
 30
0.0
 70
   128
 71
   -16
 72
    29
 73
    17
 74
   -16
  0
VERTEX
  5
264
  8
0
 62
   156
 10
0.0
 20
0.0
 30
0.0
 70
   128
 71
    16
 72
    28
 73
   -29
 74
   -16
  0
VERTEX
  5
265
  8
0
 62
   156
 10
0.0
 20
0.0
 30
0.0
 70
   128
 71
   -17
 72
    30
 73
    18
 74
   -17
  0
VERTEX
  5
266
  8
0
 62
   156
 10
0.0
 20
0.0
 30
0.0
 70
   128
 71
    17
 72
    29
 73
   -30
 74
   -17
  0
VERTEX
  5
267
  8
0
 62
   156
 10
0.0
 20
0.0
 30
0.0
 70
   128
 71
   -18
 72
    31
 73
    19
 74
   -18
  0
VERTEX
  5
268
  8
0
 62
   156
 10
0.0
 20
0.0
 30
0.0
 70
   128
 71
    18
 72
    30
 73
   -31
 74
   -18
  0
VERTEX
  5
269
  8
0
 62
   156
 10
0.0
 20
0.0
 30
0.0
 70
   128
 71
   -19
 72
    32
 73
    20
 74
   -19
  0
VERTEX
  5
26A
  8
0
 62
   156
 10
0.0
 20
0.0
 30
0.0
 70
   128
 71
    19
 72
    31
 73
   -32
 74
   -19
  0
VERTEX
  5
26B
  8
0
 62
   156
 10
0.0
 20
0.0
 30
0.0
 70
   128
 71
   -20
 72
    33
 73
    21
 74
   -20
  0
VERTEX
  5
26C
  8
0
 62
   156
 10
0.0
 20
0.0
 30
0.0
 70
   128
 71
    20
 72
    32
 73
   -33
 74
   -20
  0
VERTEX
  5
26D
  8
0
 62
   156
 10
0.0
 20
0.0
 30
0.0
 70
   128
 71
   -21
 72
    34
 73
    22
 74
   -21
  0
VERTEX
  5
26E
  8
0
 62
   156
 10
0.0
 20
0.0
 30
0.0
 70
   128
 71
    21
 72
    33
 73
   -34
 74
   -21
  0
VERTEX
  5
26F
  8
0
 62
   156
 10
0.0
 20
0.0
 30
0.0
 70
   128
 71
   -22
 72
    35
 73
    23
 74
   -22
  0
VERTEX
  5
270
  8
0
 62
   156
 10
0.0
 20
0.0
 30
0.0
 70
   128
 71
    22
 72
    34
 73
   -35
 74
   -22
  0
VERTEX
  5
271
  8
0
 62
   156
 10
0.0
 20
0.0
 30
0.0
 70
   128
 71
   -23
 72
    36
 73
    24
 74
   -23
  0
VERTEX
  5
272
  8
0
 62
   156
 10
0.0
 20
0.0
 30
0.0
 70
   128
 71
    23
 72
    35
 73
   -36
 74
   -23
  0
VERTEX
  5
273
  8
0
 62
   156
 10
0.0
 20
0.0
 30
0.0
 70
   128
 71
   -24
 72
    37
 73
    25
 74
   -24
  0
VERTEX
  5
274
  8
0
 62
   156
 10
0.0
 20
0.0
 30
0.0
 70
   128
 71
    24
 72
    36
 73
   -37
 74
   -24
  0
VERTEX
  5
275
  8
0
 62
   156
 10
0.0
 20
0.0
 30
0.0
 70
   128
 71
    25
 72
    37
 73
   -13
 74
   -25
  0
VERTEX
  5
276
  8
0
 62
   156
 10
0.0
 20
0.0
 30
0.0
 70
   128
 71
   -26
 72
    39
 73
    27
 74
   -26
  0
VERTEX
  5
277
  8
0
 62
   156
 10
0.0
 20
0.0
 30
0.0
 70
   128
 71
    26
 72
    38
 73
   -39
 74
   -26
  0
VERTEX
  5
278
  8
0
 62
   156
 10
0.0
 20
0.0
 30
0.0
 70
   128
 71
   -27
 72
    40
 73
    28
 74
   -27
  0
VERTEX
  5
279
  8
0
 62
   156
 10
0.0
 20
0.0
 30
0.0
 70
   128
 71
    27
 72
    39
 73
   -40
 74
   -27
  0
VERTEX
  5
27A
  8
0
 62
   156
 10
0.0
 20
0.0
 30
0.0
 70
   128
 71
   -28
 72
    41
 73
    29
 74
   -28
  0
VERTEX
  5
27B
  8
0
 62
   156
 10
0.0
 20
0.0
 30
0.0
 70
   128
 71
    28
 72
    40
 73
   -41
 74
   -28
  0
VERTEX
  5
27C
  8
0
 62
   156
 10
0.0
 20
0.0
 30
0.0
 70
   128
 71
   -29
 72
    42
 73
    30
 74
   -29
  0
VERTEX
  5
27D
  8
0
 62
   156
 10
0.0
 20
0.0
 30
0.0
 70
   128
 71
    29
 72
    41
 73
   -42
 74
   -29
  0
VERTEX
  5
27E
  8
0
 62
   156
 10
0.0
 20
0.0
 30
0.0
 70
   128
 71
   -30
 72
    43
 73
    31
 74
   -30
  0
VERTEX
  5
27F
  8
0
 62
   156
 10
0.0
 20
0.0
 30
0.0
 70
   128
 71
    30
 72
    42
 73
   -43
 74
   -30
  0
VERTEX
  5
280
  8
0
 62
   156
 10
0.0
 20
0.0
 30
0.0
 70
   128
 71
   -31
 72
    44
 73
    32
 74
   -31
  0
VERTEX
  5
281
  8
0
 62
   156
 10
0.0
 20
0.0
 30
0.0
 70
   128
 71
    31
 72
    43
 73
   -44
 74
   -31
  0
VERTEX
  5
282
  8
0
 62
   156
 10
0.0
 20
0.0
 30
0.0
 70
   128
 71
   -32
 72
    45
 73
    33
 74
   -32
  0
VERTEX
  5
283
  8
0
 62
   156
 10
0.0
 20
0.0
 30
0.0
 70
   128
 71
    32
 72
    44
 73
   -45
 74
   -32
  0
VERTEX
  5
284
  8
0
 62
   156
 10
0.0
 20
0.0
 30
0.0
 70
   128
 71
   -33
 72
    46
 73
    34
 74
   -33
  0
VERTEX
  5
285
  8
0
 62
   156
 10
0.0
 20
0.0
 30
0.0
 70
   128
 71
    33
 72
    45
 73
   -46
 74
   -33
  0
VERTEX
  5
286
  8
0
 62
   156
 10
0.0
 20
0.0
 30
0.0
 70
   128
 71
   -34
 72
    47
 73
    35
 74
   -34
  0
VERTEX
  5
287
  8
0
 62
   156
 10
0.0
 20
0.0
 30
0.0
 70
   128
 71
    34
 72
    46
 73
   -47
 74
   -34
  0
VERTEX
  5
288
  8
0
 62
   156
 10
0.0
 20
0.0
 30
0.0
 70
   128
 71
   -35
 72
    48
 73
    36
 74
   -35
  0
VERTEX
  5
289
  8
0
 62
   156
 10
0.0
 20
0.0
 30
0.0
 70
   128
 71
    35
 72
    47
 73
   -48
 74
   -35
  0
VERTEX
  5
28A
  8
0
 62
   156
 10
0.0
 20
0.0
 30
0.0
 70
   128
 71
   -36
 72
    49
 73
    37
 74
   -36
  0
VERTEX
  5
28B
  8
0
 62
   156
 10
0.0
 20
0.0
 30
0.0
 70
   128
 71
    36
 72
    48
 73
   -49
 74
   -36
  0
VERTEX
  5
28C
  8
0
 62
   156
 10
0.0
 20
0.0
 30
0.0
 70
   128
 71
    37
 72
    49
 73
   -13
 74
   -37
  0
VERTEX
  5
28D
  8
0
 62
   156
 10
0.0
 20
0.0
 30
0.0
 70
   128
 71
   -38
 72
    51
 73
    39
 74
   -38
  0
VERTEX
  5
28E
  8
0
 62
   156
 10
0.0
 20
0.0
 30
0.0
 70
   128
 71
    38
 72
    50
 73
   -51
 74
   -38
  0
VERTEX
  5
28F
  8
0
 62
   156
 10
0.0
 20
0.0
 30
0.0
 70
   128
 71
   -39
 72
    52
 73
    40
 74
   -39
  0
VERTEX
  5
290
  8
0
 62
   156
 10
0.0
 20
0.0
 30
0.0
 70
   128
 71
    39
 72
    51
 73
   -52
 74
   -39
  0
VERTEX
  5
291
  8
0
 62
   156
 10
0.0
 20
0.0
 30
0.0
 70
   128
 71
   -40
 72
    53
 73
    41
 74
   -40
  0
VERTEX
  5
292
  8
0
 62
   156
 10
0.0
 20
0.0
 30
0.0
 70
   128
 71
    40
 72
    52
 73
   -53
 74
   -40
  0
VERTEX
  5
293
  8
0
 62
   156
 10
0.0
 20
0.0
 30
0.0
 70
   128
 71
   -41
 72
    54
 73
    42
 74
   -41
  0
VERTEX
  5
294
  8
0
 62
   156
 10
0.0
 20
0.0
 30
0.0
 70
   128
 71
    41
 72
    53
 73
   -54
 74
   -41
  0
VERTEX
  5
295
  8
0
 62
   156
 10
0.0
 20
0.0
 30
0.0
 70
   128
 71
   -42
 72
    55
 73
    43
 74
   -42
  0
VERTEX
  5
296
  8
0
 62
   156
 10
0.0
 20
0.0
 30
0.0
 70
   128
 71
    42
 72
    54
 73
   -55
 74
   -42
  0
VERTEX
  5
297
  8
0
 62
   156
 10
0.0
 20
0.0
 30
0.0
 70
   128
 71
   -43
 72
    56
 73
    44
 74
   -43
  0
VERTEX
  5
298
  8
0
 62
   156
 10
0.0
 20
0.0
 30
0.0
 70
   128
 71
    43
 72
    55
 73
   -56
 74
   -43
  0
VERTEX
  5
299
  8
0
 62
   156
 10
0.0
 20
0.0
 30
0.0
 70
   128
 71
   -44
 72
    57
 73
    45
 74
   -44
  0
VERTEX
  5
29A
  8
0
 62
   156
 10
0.0
 20
0.0
 30
0.0
 70
   128
 71
    44
 72
    56
 73
   -57
 74
   -44
  0
VERTEX
  5
29B
  8
0
 62
   156
 10
0.0
 20
0.0
 30
0.0
 70
   128
 71
   -45
 72
    58
 73
    46
 74
   -45
  0
VERTEX
  5
29C
  8
0
 62
   156
 10
0.0
 20
0.0
 30
0.0
 70
   128
 71
    45
 72
    57
 73
   -58
 74
   -45
  0
VERTEX
  5
29D
  8
0
 62
   156
 10
0.0
 20
0.0
 30
0.0
 70
   128
 71
   -46
 72
    59
 73
    47
 74
   -46
  0
VERTEX
  5
29E
  8
0
 62
   156
 10
0.0
 20
0.0
 30
0.0
 70
   128
 71
    46
 72
    58
 73
   -59
 74
   -46
  0
VERTEX
  5
29F
  8
0
 62
   156
 10
0.0
 20
0.0
 30
0.0
 70
   128
 71
   -47
 72
    60
 73
    48
 74
   -47
  0
VERTEX
  5
2A0
  8
0
 62
   156
 10
0.0
 20
0.0
 30
0.0
 70
   128
 71
    47
 72
    59
 73
   -60
 74
   -47
  0
VERTEX
  5
2A1
  8
0
 62
   156
 10
0.0
 20
0.0
 30
0.0
 70
   128
 71
   -48
 72
    61
 73
    49
 74
   -48
  0
VERTEX
  5
2A2
  8
0
 62
   156
 10
0.0
 20
0.0
 30
0.0
 70
   128
 71
    48
 72
    60
 73
   -61
 74
   -48
  0
VERTEX
  5
2A3
  8
0
 62
   156
 10
0.0
 20
0.0
 30
0.0
 70
   128
 71
    49
 72
    61
 73
   -13
 74
   -49
  0
VERTEX
  5
2A4
  8
0
 62
   156
 10
0.0
 20
0.0
 30
0.0
 70
   128
 71
   -50
 72
    63
 73
    51
 74
   -50
  0
VERTEX
  5
2A5
  8
0
 62
   156
 10
0.0
 20
0.0
 30
0.0
 70
   128
 71
    50
 72
    62
 73
   -63
 74
   -50
  0
VERTEX
  5
2A6
  8
0
 62
   156
 10
0.0
 20
0.0
 30
0.0
 70
   128
 71
   -51
 72
    64
 73
    52
 74
   -51
  0
VERTEX
  5
2A7
  8
0
 62
   156
 10
0.0
 20
0.0
 30
0.0
 70
   128
 71
    51
 72
    63
 73
   -64
 74
   -51
  0
VERTEX
  5
2A8
  8
0
 62
   156
 10
0.0
 20
0.0
 30
0.0
 70
   128
 71
   -52
 72
    65
 73
    53
 74
   -52
  0
VERTEX
  5
2A9
  8
0
 62
   156
 10
0.0
 20
0.0
 30
0.0
 70
   128
 71
    52
 72
    64
 73
   -65
 74
   -52
  0
VERTEX
  5
2AA
  8
0
 62
   156
 10
0.0
 20
0.0
 30
0.0
 70
   128
 71
   -53
 72
    66
 73
    54
 74
   -53
  0
VERTEX
  5
2AB
  8
0
 62
   156
 10
0.0
 20
0.0
 30
0.0
 70
   128
 71
    53
 72
    65
 73
   -66
 74
   -53
  0
VERTEX
  5
2AC
  8
0
 62
   156
 10
0.0
 20
0.0
 30
0.0
 70
   128
 71
   -54
 72
    67
 73
    55
 74
   -54
  0
VERTEX
  5
2AD
  8
0
 62
   156
 10
0.0
 20
0.0
 30
0.0
 70
   128
 71
    54
 72
    66
 73
   -67
 74
   -54
  0
VERTEX
  5
2AE
  8
0
 62
   156
 10
0.0
 20
0.0
 30
0.0
 70
   128
 71
   -55
 72
    68
 73
    56
 74
   -55
  0
VERTEX
  5
2AF
  8
0
 62
   156
 10
0.0
 20
0.0
 30
0.0
 70
   128
 71
    55
 72
    67
 73
   -68
 74
   -55
  0
VERTEX
  5
2B0
  8
0
 62
   156
 10
0.0
 20
0.0
 30
0.0
 70
   128
 71
   -56
 72
    69
 73
    57
 74
   -56
  0
VERTEX
  5
2B1
  8
0
 62
   156
 10
0.0
 20
0.0
 30
0.0
 70
   128
 71
    56
 72
    68
 73
   -69
 74
   -56
  0
VERTEX
  5
2B2
  8
0
 62
   156
 10
0.0
 20
0.0
 30
0.0
 70
   128
 71
   -57
 72
    70
 73
    58
 74
   -57
  0
VERTEX
  5
2B3
  8
0
 62
   156
 10
0.0
 20
0.0
 30
0.0
 70
   128
 71
    57
 72
    69
 73
   -70
 74
   -57
  0
VERTEX
  5
2B4
  8
0
 62
   156
 10
0.0
 20
0.0
 30
0.0
 70
   128
 71
   -58
 72
    71
 73
    59
 74
   -58
  0
VERTEX
  5
2B5
  8
0
 62
   156
 10
0.0
 20
0.0
 30
0.0
 70
   128
 71
    58
 72
    70
 73
   -71
 74
   -58
  0
VERTEX
  5
2B6
  8
0
 62
   156
 10
0.0
 20
0.0
 30
0.0
 70
   128
 71
   -59
 72
    72
 73
    60
 74
   -59
  0
VERTEX
  5
2B7
  8
0
 62
   156
 10
0.0
 20
0.0
 30
0.0
 70
   128
 71
    59
 72
    71
 73
   -72
 74
   -59
  0
VERTEX
  5
2B8
  8
0
 62
   156
 10
0.0
 20
0.0
 30
0.0
 70
   128
 71
   -60
 72
    73
 73
    61
 74
   -60
  0
VERTEX
  5
2B9
  8
0
 62
   156
 10
0.0
 20
0.0
 30
0.0
 70
   128
 71
    60
 72
    72
 73
   -73
 74
   -60
  0
VERTEX
  5
2BA
  8
0
 62
   156
 10
0.0
 20
0.0
 30
0.0
 70
   128
 71
    61
 72
    73
 73
   -13
 74
   -61
  0
VERTEX
  5
2BB
  8
0
 62
   156
 10
0.0
 20
0.0
 30
0.0
 70
   128
 71
   -62
 72
    75
 73
    63
 74
   -62
  0
VERTEX
  5
2BC
  8
0
 62
   156
 10
0.0
 20
0.0
 30
0.0
 70
   128
 71
    62
 72
    74
 73
   -75
 74
   -62
  0
VERTEX
  5
2BD
  8
0
 62
   156
 10
0.0
 20
0.0
 30
0.0
 70
   128
 71
   -63
 72
    76
 73
    64
 74
   -63
  0
VERTEX
  5
2BE
  8
0
 62
   156
 10
0.0
 20
0.0
 30
0.0
 70
   128
 71
    63
 72
    75
 73
   -76
 74
   -63
  0
VERTEX
  5
2BF
  8
0
 62
   156
 10
0.0
 20
0.0
 30
0.0
 70
   128
 71
   -64
 72
    77
 73
    65
 74
   -64
  0
VERTEX
  5
2C0
  8
0
 62
   156
 10
0.0
 20
0.0
 30
0.0
 70
   128
 71
    64
 72
    76
 73
   -77
 74
   -64
  0
VERTEX
  5
2C1
  8
0
 62
   156
 10
0.0
 20
0.0
 30
0.0
 70
   128
 71
   -65
 72
    78
 73
    66
 74
   -65
  0
VERTEX
  5
2C2
  8
0
 62
   156
 10
0.0
 20
0.0
 30
0.0
 70
   128
 71
    65
 72
    77
 73
   -78
 74
   -65
  0
VERTEX
  5
2C3
  8
0
 62
   156
 10
0.0
 20
0.0
 30
0.0
 70
   128
 71
   -66
 72
    79
 73
    67
 74
   -66
  0
VERTEX
  5
2C4
  8
0
 62
   156
 10
0.0
 20
0.0
 30
0.0
 70
   128
 71
    66
 72
    78
 73
   -79
 74
   -66
  0
VERTEX
  5
2C5
  8
0
 62
   156
 10
0.0
 20
0.0
 30
0.0
 70
   128
 71
   -67
 72
    80
 73
    68
 74
   -67
  0
VERTEX
  5
2C6
  8
0
 62
   156
 10
0.0
 20
0.0
 30
0.0
 70
   128
 71
    67
 72
    79
 73
   -80
 74
   -67
  0
VERTEX
  5
2C7
  8
0
 62
   156
 10
0.0
 20
0.0
 30
0.0
 70
   128
 71
   -68
 72
    81
 73
    69
 74
   -68
  0
VERTEX
  5
2C8
  8
0
 62
   156
 10
0.0
 20
0.0
 30
0.0
 70
   128
 71
    68
 72
    80
 73
   -81
 74
   -68
  0
VERTEX
  5
2C9
  8
0
 62
   156
 10
0.0
 20
0.0
 30
0.0
 70
   128
 71
   -69
 72
    82
 73
    70
 74
   -69
  0
VERTEX
  5
2CA
  8
0
 62
   156
 10
0.0
 20
0.0
 30
0.0
 70
   128
 71
    69
 72
    81
 73
   -82
 74
   -69
  0
VERTEX
  5
2CB
  8
0
 62
   156
 10
0.0
 20
0.0
 30
0.0
 70
   128
 71
   -70
 72
    83
 73
    71
 74
   -70
  0
VERTEX
  5
2CC
  8
0
 62
   156
 10
0.0
 20
0.0
 30
0.0
 70
   128
 71
    70
 72
    82
 73
   -83
 74
   -70
  0
VERTEX
  5
2CD
  8
0
 62
   156
 10
0.0
 20
0.0
 30
0.0
 70
   128
 71
   -71
 72
    84
 73
    72
 74
   -71
  0
VERTEX
  5
2CE
  8
0
 62
   156
 10
0.0
 20
0.0
 30
0.0
 70
   128
 71
    71
 72
    83
 73
   -84
 74
   -71
  0
VERTEX
  5
2CF
  8
0
 62
   156
 10
0.0
 20
0.0
 30
0.0
 70
   128
 71
   -72
 72
    85
 73
    73
 74
   -72
  0
VERTEX
  5
2D0
  8
0
 62
   156
 10
0.0
 20
0.0
 30
0.0
 70
   128
 71
    72
 72
    84
 73
   -85
 74
   -72
  0
VERTEX
  5
2D1
  8
0
 62
   156
 10
0.0
 20
0.0
 30
0.0
 70
   128
 71
    73
 72
    85
 73
   -13
 74
   -73
  0
VERTEX
  5
2D2
  8
0
 62
   156
 10
0.0
 20
0.0
 30
0.0
 70
   128
 71
   -74
 72
    87
 73
    75
 74
   -74
  0
VERTEX
  5
2D3
  8
0
 62
   156
 10
0.0
 20
0.0
 30
0.0
 70
   128
 71
    74
 72
    86
 73
   -87
 74
   -74
  0
VERTEX
  5
2D4
  8
0
 62
   156
 10
0.0
 20
0.0
 30
0.0
 70
   128
 71
   -75
 72
    88
 73
    76
 74
   -75
  0
VERTEX
  5
2D5
  8
0
 62
   156
 10
0.0
 20
0.0
 30
0.0
 70
   128
 71
    75
 72
    87
 73
   -88
 74
   -75
  0
VERTEX
  5
2D6
  8
0
 62
   156
 10
0.0
 20
0.0
 30
0.0
 70
   128
 71
   -76
 72
    89
 73
    77
 74
   -76
  0
VERTEX
  5
2D7
  8
0
 62
   156
 10
0.0
 20
0.0
 30
0.0
 70
   128
 71
    76
 72
    88
 73
   -89
 74
   -76
  0
VERTEX
  5
2D8
  8
0
 62
   156
 10
0.0
 20
0.0
 30
0.0
 70
   128
 71
   -77
 72
    90
 73
    78
 74
   -77
  0
VERTEX
  5
2D9
  8
0
 62
   156
 10
0.0
 20
0.0
 30
0.0
 70
   128
 71
    77
 72
    89
 73
   -90
 74
   -77
  0
VERTEX
  5
2DA
  8
0
 62
   156
 10
0.0
 20
0.0
 30
0.0
 70
   128
 71
   -78
 72
    91
 73
    79
 74
   -78
  0
VERTEX
  5
2DB
  8
0
 62
   156
 10
0.0
 20
0.0
 30
0.0
 70
   128
 71
    78
 72
    90
 73
   -91
 74
   -78
  0
VERTEX
  5
2DC
  8
0
 62
   156
 10
0.0
 20
0.0
 30
0.0
 70
   128
 71
   -79
 72
    92
 73
    80
 74
   -79
  0
VERTEX
  5
2DD
  8
0
 62
   156
 10
0.0
 20
0.0
 30
0.0
 70
   128
 71
    79
 72
    91
 73
   -92
 74
   -79
  0
VERTEX
  5
2DE
  8
0
 62
   156
 10
0.0
 20
0.0
 30
0.0
 70
   128
 71
   -80
 72
    93
 73
    81
 74
   -80
  0
VERTEX
  5
2DF
  8
0
 62
   156
 10
0.0
 20
0.0
 30
0.0
 70
   128
 71
    80
 72
    92
 73
   -93
 74
   -80
  0
VERTEX
  5
2E0
  8
0
 62
   156
 10
0.0
 20
0.0
 30
0.0
 70
   128
 71
   -81
 72
    94
 73
    82
 74
   -81
  0
VERTEX
  5
2E1
  8
0
 62
   156
 10
0.0
 20
0.0
 30
0.0
 70
   128
 71
    81
 72
    93
 73
   -94
 74
   -81
  0
VERTEX
  5
2E2
  8
0
 62
   156
 10
0.0
 20
0.0
 30
0.0
 70
   128
 71
   -82
 72
    95
 73
    83
 74
   -82
  0
VERTEX
  5
2E3
  8
0
 62
   156
 10
0.0
 20
0.0
 30
0.0
 70
   128
 71
    82
 72
    94
 73
   -95
 74
   -82
  0
VERTEX
  5
2E4
  8
0
 62
   156
 10
0.0
 20
0.0
 30
0.0
 70
   128
 71
   -83
 72
    96
 73
    84
 74
   -83
  0
VERTEX
  5
2E5
  8
0
 62
   156
 10
0.0
 20
0.0
 30
0.0
 70
   128
 71
    83
 72
    95
 73
   -96
 74
   -83
  0
VERTEX
  5
2E6
  8
0
 62
   156
 10
0.0
 20
0.0
 30
0.0
 70
   128
 71
   -84
 72
    97
 73
    85
 74
   -84
  0
VERTEX
  5
2E7
  8
0
 62
   156
 10
0.0
 20
0.0
 30
0.0
 70
   128
 71
    84
 72
    96
 73
   -97
 74
   -84
  0
VERTEX
  5
2E8
  8
0
 62
   156
 10
0.0
 20
0.0
 30
0.0
 70
   128
 71
    85
 72
    97
 73
   -13
 74
   -85
  0
VERTEX
  5
2E9
  8
0
 62
   156
 10
0.0
 20
0.0
 30
0.0
 70
   128
 71
   -86
 72
    99
 73
    87
 74
   -86
  0
VERTEX
  5
2EA
  8
0
 62
   156
 10
0.0
 20
0.0
 30
0.0
 70
   128
 71
    86
 72
    98
 73
   -99
 74
   -86
  0
VERTEX
  5
2EB
  8
0
 62
   156
 10
0.0
 20
0.0
 30
0.0
 70
   128
 71
   -87
 72
   100
 73
    88
 74
   -87
  0
VERTEX
  5
2EC
  8
0
 62
   156
 10
0.0
 20
0.0
 30
0.0
 70
   128
 71
    87
 72
    99
 73
  -100
 74
   -87
  0
VERTEX
  5
2ED
  8
0
 62
   156
 10
0.0
 20
0.0
 30
0.0
 70
   128
 71
   -88
 72
   101
 73
    89
 74
   -88
  0
VERTEX
  5
2EE
  8
0
 62
   156
 10
0.0
 20
0.0
 30
0.0
 70
   128
 71
    88
 72
   100
 73
  -101
 74
   -88
  0
VERTEX
  5
2EF
  8
0
 62
   156
 10
0.0
 20
0.0
 30
0.0
 70
   128
 71
   -89
 72
   102
 73
    90
 74
   -89
  0
VERTEX
  5
2F0
  8
0
 62
   156
 10
0.0
 20
0.0
 30
0.0
 70
   128
 71
    89
 72
   101
 73
  -102
 74
   -89
  0
VERTEX
  5
2F1
  8
0
 62
   156
 10
0.0
 20
0.0
 30
0.0
 70
   128
 71
   -90
 72
   103
 73
    91
 74
   -90
  0
VERTEX
  5
2F2
  8
0
 62
   156
 10
0.0
 20
0.0
 30
0.0
 70
   128
 71
    90
 72
   102
 73
  -103
 74
   -90
  0
VERTEX
  5
2F3
  8
0
 62
   156
 10
0.0
 20
0.0
 30
0.0
 70
   128
 71
   -91
 72
   104
 73
    92
 74
   -91
  0
VERTEX
  5
2F4
  8
0
 62
   156
 10
0.0
 20
0.0
 30
0.0
 70
   128
 71
    91
 72
   103
 73
  -104
 74
   -91
  0
VERTEX
  5
2F5
  8
0
 62
   156
 10
0.0
 20
0.0
 30
0.0
 70
   128
 71
   -92
 72
   105
 73
    93
 74
   -92
  0
VERTEX
  5
2F6
  8
0
 62
   156
 10
0.0
 20
0.0
 30
0.0
 70
   128
 71
    92
 72
   104
 73
  -105
 74
   -92
  0
VERTEX
  5
2F7
  8
0
 62
   156
 10
0.0
 20
0.0
 30
0.0
 70
   128
 71
   -93
 72
   106
 73
    94
 74
   -93
  0
VERTEX
  5
2F8
  8
0
 62
   156
 10
0.0
 20
0.0
 30
0.0
 70
   128
 71
    93
 72
   105
 73
  -106
 74
   -93
  0
VERTEX
  5
2F9
  8
0
 62
   156
 10
0.0
 20
0.0
 30
0.0
 70
   128
 71
   -94
 72
   107
 73
    95
 74
   -94
  0
VERTEX
  5
2FA
  8
0
 62
   156
 10
0.0
 20
0.0
 30
0.0
 70
   128
 71
    94
 72
   106
 73
  -107
 74
   -94
  0
VERTEX
  5
2FB
  8
0
 62
   156
 10
0.0
 20
0.0
 30
0.0
 70
   128
 71
   -95
 72
   108
 73
    96
 74
   -95
  0
VERTEX
  5
2FC
  8
0
 62
   156
 10
0.0
 20
0.0
 30
0.0
 70
   128
 71
    95
 72
   107
 73
  -108
 74
   -95
  0
VERTEX
  5
2FD
  8
0
 62
   156
 10
0.0
 20
0.0
 30
0.0
 70
   128
 71
   -96
 72
   109
 73
    97
 74
   -96
  0
VERTEX
  5
2FE
  8
0
 62
   156
 10
0.0
 20
0.0
 30
0.0
 70
   128
 71
    96
 72
   108
 73
  -109
 74
   -96
  0
VERTEX
  5
2FF
  8
0
 62
   156
 10
0.0
 20
0.0
 30
0.0
 70
   128
 71
    97
 72
   109
 73
   -13
 74
   -97
  0
VERTEX
  5
300
  8
0
 62
   156
 10
0.0
 20
0.0
 30
0.0
 70
   128
 71
   -98
 72
   111
 73
    99
 74
   -98
  0
VERTEX
  5
301
  8
0
 62
   156
 10
0.0
 20
0.0
 30
0.0
 70
   128
 71
    98
 72
   110
 73
  -111
 74
   -98
  0
VERTEX
  5
302
  8
0
 62
   156
 10
0.0
 20
0.0
 30
0.0
 70
   128
 71
   -99
 72
   112
 73
   100
 74
   -99
  0
VERTEX
  5
303
  8
0
 62
   156
 10
0.0
 20
0.0
 30
0.0
 70
   128
 71
    99
 72
   111
 73
  -112
 74
   -99
  0
VERTEX
  5
304
  8
0
 62
   156
 10
0.0
 20
0.0
 30
0.0
 70
   128
 71
  -100
 72
   113
 73
   101
 74
  -100
  0
VERTEX
  5
305
  8
0
 62
   156
 10
0.0
 20
0.0
 30
0.0
 70
   128
 71
   100
 72
   112
 73
  -113
 74
  -100
  0
VERTEX
  5
306
  8
0
 62
   156
 10
0.0
 20
0.0
 30
0.0
 70
   128
 71
  -101
 72
   114
 73
   102
 74
  -101
  0
VERTEX
  5
307
  8
0
 62
   156
 10
0.0
 20
0.0
 30
0.0
 70
   128
 71
   101
 72
   113
 73
  -114
 74
  -101
  0
VERTEX
  5
308
  8
0
 62
   156
 10
0.0
 20
0.0
 30
0.0
 70
   128
 71
  -102
 72
   115
 73
   103
 74
  -102
  0
VERTEX
  5
309
  8
0
 62
   156
 10
0.0
 20
0.0
 30
0.0
 70
   128
 71
   102
 72
   114
 73
  -115
 74
  -102
  0
VERTEX
  5
30A
  8
0
 62
   156
 10
0.0
 20
0.0
 30
0.0
 70
   128
 71
  -103
 72
   116
 73
   104
 74
  -103
  0
VERTEX
  5
30B
  8
0
 62
   156
 10
0.0
 20
0.0
 30
0.0
 70
   128
 71
   103
 72
   115
 73
  -116
 74
  -103
  0
VERTEX
  5
30C
  8
0
 62
   156
 10
0.0
 20
0.0
 30
0.0
 70
   128
 71
  -104
 72
   117
 73
   105
 74
  -104
  0
VERTEX
  5
30D
  8
0
 62
   156
 10
0.0
 20
0.0
 30
0.0
 70
   128
 71
   104
 72
   116
 73
  -117
 74
  -104
  0
VERTEX
  5
30E
  8
0
 62
   156
 10
0.0
 20
0.0
 30
0.0
 70
   128
 71
  -105
 72
   118
 73
   106
 74
  -105
  0
VERTEX
  5
30F
  8
0
 62
   156
 10
0.0
 20
0.0
 30
0.0
 70
   128
 71
   105
 72
   117
 73
  -118
 74
  -105
  0
VERTEX
  5
310
  8
0
 62
   156
 10
0.0
 20
0.0
 30
0.0
 70
   128
 71
  -106
 72
   119
 73
   107
 74
  -106
  0
VERTEX
  5
311
  8
0
 62
   156
 10
0.0
 20
0.0
 30
0.0
 70
   128
 71
   106
 72
   118
 73
  -119
 74
  -106
  0
VERTEX
  5
312
  8
0
 62
   156
 10
0.0
 20
0.0
 30
0.0
 70
   128
 71
  -107
 72
   120
 73
   108
 74
  -107
  0
VERTEX
  5
313
  8
0
 62
   156
 10
0.0
 20
0.0
 30
0.0
 70
   128
 71
   107
 72
   119
 73
  -120
 74
  -107
  0
VERTEX
  5
314
  8
0
 62
   156
 10
0.0
 20
0.0
 30
0.0
 70
   128
 71
  -108
 72
   121
 73
   109
 74
  -108
  0
VERTEX
  5
315
  8
0
 62
   156
 10
0.0
 20
0.0
 30
0.0
 70
   128
 71
   108
 72
   120
 73
  -121
 74
  -108
  0
VERTEX
  5
316
  8
0
 62
   156
 10
0.0
 20
0.0
 30
0.0
 70
   128
 71
   109
 72
   121
 73
   -13
 74
  -109
  0
VERTEX
  5
317
  8
0
 62
   156
 10
0.0
 20
0.0
 30
0.0
 70
   128
 71
  -110
 72
   123
 73
   111
 74
  -110
  0
VERTEX
  5
318
  8
0
 62
   156
 10
0.0
 20
0.0
 30
0.0
 70
   128
 71
   110
 72
   122
 73
  -123
 74
  -110
  0
VERTEX
  5
319
  8
0
 62
   156
 10
0.0
 20
0.0
 30
0.0
 70
   128
 71
  -111
 72
   124
 73
   112
 74
  -111
  0
VERTEX
  5
31A
  8
0
 62
   156
 10
0.0
 20
0.0
 30
0.0
 70
   128
 71
   111
 72
   123
 73
  -124
 74
  -111
  0
VERTEX
  5
31B
  8
0
 62
   156
 10
0.0
 20
0.0
 30
0.0
 70
   128
 71
  -112
 72
   125
 73
   113
 74
  -112
  0
VERTEX
  5
31C
  8
0
 62
   156
 10
0.0
 20
0.0
 30
0.0
 70
   128
 71
   112
 72
   124
 73
  -125
 74
  -112
  0
VERTEX
  5
31D
  8
0
 62
   156
 10
0.0
 20
0.0
 30
0.0
 70
   128
 71
  -113
 72
   126
 73
   114
 74
  -113
  0
VERTEX
  5
31E
  8
0
 62
   156
 10
0.0
 20
0.0
 30
0.0
 70
   128
 71
   113
 72
   125
 73
  -126
 74
  -113
  0
VERTEX
  5
31F
  8
0
 62
   156
 10
0.0
 20
0.0
 30
0.0
 70
   128
 71
  -114
 72
   127
 73
   115
 74
  -114
  0
VERTEX
  5
320
  8
0
 62
   156
 10
0.0
 20
0.0
 30
0.0
 70
   128
 71
   114
 72
   126
 73
  -127
 74
  -114
  0
VERTEX
  5
321
  8
0
 62
   156
 10
0.0
 20
0.0
 30
0.0
 70
   128
 71
  -115
 72
   128
 73
   116
 74
  -115
  0
VERTEX
  5
322
  8
0
 62
   156
 10
0.0
 20
0.0
 30
0.0
 70
   128
 71
   115
 72
   127
 73
  -128
 74
  -115
  0
VERTEX
  5
323
  8
0
 62
   156
 10
0.0
 20
0.0
 30
0.0
 70
   128
 71
  -116
 72
   129
 73
   117
 74
  -116
  0
VERTEX
  5
324
  8
0
 62
   156
 10
0.0
 20
0.0
 30
0.0
 70
   128
 71
   116
 72
   128
 73
  -129
 74
  -116
  0
VERTEX
  5
325
  8
0
 62
   156
 10
0.0
 20
0.0
 30
0.0
 70
   128
 71
  -117
 72
   130
 73
   118
 74
  -117
  0
VERTEX
  5
326
  8
0
 62
   156
 10
0.0
 20
0.0
 30
0.0
 70
   128
 71
   117
 72
   129
 73
  -130
 74
  -117
  0
VERTEX
  5
327
  8
0
 62
   156
 10
0.0
 20
0.0
 30
0.0
 70
   128
 71
  -118
 72
   131
 73
   119
 74
  -118
  0
VERTEX
  5
328
  8
0
 62
   156
 10
0.0
 20
0.0
 30
0.0
 70
   128
 71
   118
 72
   130
 73
  -131
 74
  -118
  0
VERTEX
  5
329
  8
0
 62
   156
 10
0.0
 20
0.0
 30
0.0
 70
   128
 71
  -119
 72
   132
 73
   120
 74
  -119
  0
VERTEX
  5
32A
  8
0
 62
   156
 10
0.0
 20
0.0
 30
0.0
 70
   128
 71
   119
 72
   131
 73
  -132
 74
  -119
  0
VERTEX
  5
32B
  8
0
 62
   156
 10
0.0
 20
0.0
 30
0.0
 70
   128
 71
  -120
 72
   133
 73
   121
 74
  -120
  0
VERTEX
  5
32C
  8
0
 62
   156
 10
0.0
 20
0.0
 30
0.0
 70
   128
 71
   120
 72
   132
 73
  -133
 74
  -120
  0
VERTEX
  5
32D
  8
0
 62
   156
 10
0.0
 20
0.0
 30
0.0
 70
   128
 71
   121
 72
   133
 73
   -13
 74
  -121
  0
VERTEX
  5
32E
  8
0
 62
   156
 10
0.0
 20
0.0
 30
0.0
 70
   128
 71
  -122
 72
   135
 73
   123
 74
  -122
  0
VERTEX
  5
32F
  8
0
 62
   156
 10
0.0
 20
0.0
 30
0.0
 70
   128
 71
   122
 72
   134
 73
  -135
 74
  -122
  0
VERTEX
  5
330
  8
0
 62
   156
 10
0.0
 20
0.0
 30
0.0
 70
   128
 71
  -123
 72
   136
 73
   124
 74
  -123
  0
VERTEX
  5
331
  8
0
 62
   156
 10
0.0
 20
0.0
 30
0.0
 70
   128
 71
   123
 72
   135
 73
  -136
 74
  -123
  0
VERTEX
  5
332
  8
0
 62
   156
 10
0.0
 20
0.0
 30
0.0
 70
   128
 71
  -124
 72
   137
 73
   125
 74
  -124
  0
VERTEX
  5
333
  8
0
 62
   156
 10
0.0
 20
0.0
 30
0.0
 70
   128
 71
   124
 72
   136
 73
  -137
 74
  -124
  0
VERTEX
  5
334
  8
0
 62
   156
 10
0.0
 20
0.0
 30
0.0
 70
   128
 71
  -125
 72
   138
 73
   126
 74
  -125
  0
VERTEX
  5
335
  8
0
 62
   156
 10
0.0
 20
0.0
 30
0.0
 70
   128
 71
   125
 72
   137
 73
  -138
 74
  -125
  0
VERTEX
  5
336
  8
0
 62
   156
 10
0.0
 20
0.0
 30
0.0
 70
   128
 71
  -126
 72
   139
 73
   127
 74
  -126
  0
VERTEX
  5
337
  8
0
 62
   156
 10
0.0
 20
0.0
 30
0.0
 70
   128
 71
   126
 72
   138
 73
  -139
 74
  -126
  0
VERTEX
  5
338
  8
0
 62
   156
 10
0.0
 20
0.0
 30
0.0
 70
   128
 71
  -127
 72
   140
 73
   128
 74
  -127
  0
VERTEX
  5
339
  8
0
 62
   156
 10
0.0
 20
0.0
 30
0.0
 70
   128
 71
   127
 72
   139
 73
  -140
 74
  -127
  0
VERTEX
  5
33A
  8
0
 62
   156
 10
0.0
 20
0.0
 30
0.0
 70
   128
 71
  -128
 72
   141
 73
   129
 74
  -128
  0
VERTEX
  5
33B
  8
0
 62
   156
 10
0.0
 20
0.0
 30
0.0
 70
   128
 71
   128
 72
   140
 73
  -141
 74
  -128
  0
VERTEX
  5
33C
  8
0
 62
   156
 10
0.0
 20
0.0
 30
0.0
 70
   128
 71
  -129
 72
   142
 73
   130
 74
  -129
  0
VERTEX
  5
33D
  8
0
 62
   156
 10
0.0
 20
0.0
 30
0.0
 70
   128
 71
   129
 72
   141
 73
  -142
 74
  -129
  0
VERTEX
  5
33E
  8
0
 62
   156
 10
0.0
 20
0.0
 30
0.0
 70
   128
 71
  -130
 72
   143
 73
   131
 74
  -130
  0
VERTEX
  5
33F
  8
0
 62
   156
 10
0.0
 20
0.0
 30
0.0
 70
   128
 71
   130
 72
   142
 73
  -143
 74
  -130
  0
VERTEX
  5
340
  8
0
 62
   156
 10
0.0
 20
0.0
 30
0.0
 70
   128
 71
  -131
 72
   144
 73
   132
 74
  -131
  0
VERTEX
  5
341
  8
0
 62
   156
 10
0.0
 20
0.0
 30
0.0
 70
   128
 71
   131
 72
   143
 73
  -144
 74
  -131
  0
VERTEX
  5
342
  8
0
 62
   156
 10
0.0
 20
0.0
 30
0.0
 70
   128
 71
  -132
 72
   145
 73
   133
 74
  -132
  0
VERTEX
  5
343
  8
0
 62
   156
 10
0.0
 20
0.0
 30
0.0
 70
   128
 71
   132
 72
   144
 73
  -145
 74
  -132
  0
VERTEX
  5
344
  8
0
 62
   156
 10
0.0
 20
0.0
 30
0.0
 70
   128
 71
   133
 72
   145
 73
   -13
 74
  -133
  0
VERTEX
  5
345
  8
0
 62
   156
 10
0.0
 20
0.0
 30
0.0
 70
   128
 71
  -134
 72
   147
 73
   135
 74
  -134
  0
VERTEX
  5
346
  8
0
 62
   156
 10
0.0
 20
0.0
 30
0.0
 70
   128
 71
   134
 72
   146
 73
  -147
 74
  -134
  0
VERTEX
  5
347
  8
0
 62
   156
 10
0.0
 20
0.0
 30
0.0
 70
   128
 71
  -135
 72
   148
 73
   136
 74
  -135
  0
VERTEX
  5
348
  8
0
 62
   156
 10
0.0
 20
0.0
 30
0.0
 70
   128
 71
   135
 72
   147
 73
  -148
 74
  -135
  0
VERTEX
  5
349
  8
0
 62
   156
 10
0.0
 20
0.0
 30
0.0
 70
   128
 71
  -136
 72
   149
 73
   137
 74
  -136
  0
VERTEX
  5
34A
  8
0
 62
   156
 10
0.0
 20
0.0
 30
0.0
 70
   128
 71
   136
 72
   148
 73
  -149
 74
  -136
  0
VERTEX
  5
34B
  8
0
 62
   156
 10
0.0
 20
0.0
 30
0.0
 70
   128
 71
  -137
 72
   150
 73
   138
 74
  -137
  0
VERTEX
  5
34C
  8
0
 62
   156
 10
0.0
 20
0.0
 30
0.0
 70
   128
 71
   137
 72
   149
 73
  -150
 74
  -137
  0
VERTEX
  5
34D
  8
0
 62
   156
 10
0.0
 20
0.0
 30
0.0
 70
   128
 71
  -138
 72
   151
 73
   139
 74
  -138
  0
VERTEX
  5
34E
  8
0
 62
   156
 10
0.0
 20
0.0
 30
0.0
 70
   128
 71
   138
 72
   150
 73
  -151
 74
  -138
  0
VERTEX
  5
34F
  8
0
 62
   156
 10
0.0
 20
0.0
 30
0.0
 70
   128
 71
  -139
 72
   152
 73
   140
 74
  -139
  0
VERTEX
  5
350
  8
0
 62
   156
 10
0.0
 20
0.0
 30
0.0
 70
   128
 71
   139
 72
   151
 73
  -152
 74
  -139
  0
VERTEX
  5
351
  8
0
 62
   156
 10
0.0
 20
0.0
 30
0.0
 70
   128
 71
  -140
 72
   153
 73
   141
 74
  -140
  0
VERTEX
  5
352
  8
0
 62
   156
 10
0.0
 20
0.0
 30
0.0
 70
   128
 71
   140
 72
   152
 73
  -153
 74
  -140
  0
VERTEX
  5
353
  8
0
 62
   156
 10
0.0
 20
0.0
 30
0.0
 70
   128
 71
  -141
 72
   154
 73
   142
 74
  -141
  0
VERTEX
  5
354
  8
0
 62
   156
 10
0.0
 20
0.0
 30
0.0
 70
   128
 71
   141
 72
   153
 73
  -154
 74
  -141
  0
VERTEX
  5
355
  8
0
 62
   156
 10
0.0
 20
0.0
 30
0.0
 70
   128
 71
  -142
 72
   155
 73
   143
 74
  -142
  0
VERTEX
  5
356
  8
0
 62
   156
 10
0.0
 20
0.0
 30
0.0
 70
   128
 71
   142
 72
   154
 73
  -155
 74
  -142
  0
VERTEX
  5
357
  8
0
 62
   156
 10
0.0
 20
0.0
 30
0.0
 70
   128
 71
  -143
 72
   156
 73
   144
 74
  -143
  0
VERTEX
  5
358
  8
0
 62
   156
 10
0.0
 20
0.0
 30
0.0
 70
   128
 71
   143
 72
   155
 73
  -156
 74
  -143
  0
VERTEX
  5
359
  8
0
 62
   156
 10
0.0
 20
0.0
 30
0.0
 70
   128
 71
  -144
 72
   157
 73
   145
 74
  -144
  0
VERTEX
  5
35A
  8
0
 62
   156
 10
0.0
 20
0.0
 30
0.0
 70
   128
 71
   144
 72
   156
 73
  -157
 74
  -144
  0
VERTEX
  5
35B
  8
0
 62
   156
 10
0.0
 20
0.0
 30
0.0
 70
   128
 71
   145
 72
   157
 73
   -13
 74
  -145
  0
VERTEX
  5
35C
  8
0
 62
   156
 10
0.0
 20
0.0
 30
0.0
 70
   128
 71
  -146
 72
   159
 73
   147
 74
  -146
  0
VERTEX
  5
35D
  8
0
 62
   156
 10
0.0
 20
0.0
 30
0.0
 70
   128
 71
   146
 72
   158
 73
  -159
 74
  -146
  0
VERTEX
  5
35E
  8
0
 62
   156
 10
0.0
 20
0.0
 30
0.0
 70
   128
 71
  -147
 72
   160
 73
   148
 74
  -147
  0
VERTEX
  5
35F
  8
0
 62
   156
 10
0.0
 20
0.0
 30
0.0
 70
   128
 71
   147
 72
   159
 73
  -160
 74
  -147
  0
VERTEX
  5
360
  8
0
 62
   156
 10
0.0
 20
0.0
 30
0.0
 70
   128
 71
  -148
 72
   161
 73
   149
 74
  -148
  0
VERTEX
  5
361
  8
0
 62
   156
 10
0.0
 20
0.0
 30
0.0
 70
   128
 71
   148
 72
   160
 73
  -161
 74
  -148
  0
VERTEX
  5
362
  8
0
 62
   156
 10
0.0
 20
0.0
 30
0.0
 70
   128
 71
  -149
 72
   162
 73
   150
 74
  -149
  0
VERTEX
  5
363
  8
0
 62
   156
 10
0.0
 20
0.0
 30
0.0
 70
   128
 71
   149
 72
   161
 73
  -162
 74
  -149
  0
VERTEX
  5
364
  8
0
 62
   156
 10
0.0
 20
0.0
 30
0.0
 70
   128
 71
  -150
 72
   163
 73
   151
 74
  -150
  0
VERTEX
  5
365
  8
0
 62
   156
 10
0.0
 20
0.0
 30
0.0
 70
   128
 71
   150
 72
   162
 73
  -163
 74
  -150
  0
VERTEX
  5
366
  8
0
 62
   156
 10
0.0
 20
0.0
 30
0.0
 70
   128
 71
  -151
 72
   164
 73
   152
 74
  -151
  0
VERTEX
  5
367
  8
0
 62
   156
 10
0.0
 20
0.0
 30
0.0
 70
   128
 71
   151
 72
   163
 73
  -164
 74
  -151
  0
VERTEX
  5
368
  8
0
 62
   156
 10
0.0
 20
0.0
 30
0.0
 70
   128
 71
  -152
 72
   165
 73
   153
 74
  -152
  0
VERTEX
  5
369
  8
0
 62
   156
 10
0.0
 20
0.0
 30
0.0
 70
   128
 71
   152
 72
   164
 73
  -165
 74
  -152
  0
VERTEX
  5
36A
  8
0
 62
   156
 10
0.0
 20
0.0
 30
0.0
 70
   128
 71
  -153
 72
   166
 73
   154
 74
  -153
  0
VERTEX
  5
36B
  8
0
 62
   156
 10
0.0
 20
0.0
 30
0.0
 70
   128
 71
   153
 72
   165
 73
  -166
 74
  -153
  0
VERTEX
  5
36C
  8
0
 62
   156
 10
0.0
 20
0.0
 30
0.0
 70
   128
 71
  -154
 72
   167
 73
   155
 74
  -154
  0
VERTEX
  5
36D
  8
0
 62
   156
 10
0.0
 20
0.0
 30
0.0
 70
   128
 71
   154
 72
   166
 73
  -167
 74
  -154
  0
VERTEX
  5
36E
  8
0
 62
   156
 10
0.0
 20
0.0
 30
0.0
 70
   128
 71
  -155
 72
   168
 73
   156
 74
  -155
  0
VERTEX
  5
36F
  8
0
 62
   156
 10
0.0
 20
0.0
 30
0.0
 70
   128
 71
   155
 72
   167
 73
  -168
 74
  -155
  0
VERTEX
  5
370
  8
0
 62
   156
 10
0.0
 20
0.0
 30
0.0
 70
   128
 71
  -156
 72
   169
 73
   157
 74
  -156
  0
VERTEX
  5
371
  8
0
 62
   156
 10
0.0
 20
0.0
 30
0.0
 70
   128
 71
   156
 72
   168
 73
  -169
 74
  -156
  0
VERTEX
  5
372
  8
0
 62
   156
 10
0.0
 20
0.0
 30
0.0
 70
   128
 71
   157
 72
   169
 73
   -13
 74
  -157
  0
VERTEX
  5
373
  8
0
 62
   156
 10
0.0
 20
0.0
 30
0.0
 70
   128
 71
  -158
 72
   171
 73
   159
 74
  -158
  0
VERTEX
  5
374
  8
0
 62
   156
 10
0.0
 20
0.0
 30
0.0
 70
   128
 71
   158
 72
   170
 73
  -171
 74
  -158
  0
VERTEX
  5
375
  8
0
 62
   156
 10
0.0
 20
0.0
 30
0.0
 70
   128
 71
  -159
 72
   172
 73
   160
 74
  -159
  0
VERTEX
  5
376
  8
0
 62
   156
 10
0.0
 20
0.0
 30
0.0
 70
   128
 71
   159
 72
   171
 73
  -172
 74
  -159
  0
VERTEX
  5
377
  8
0
 62
   156
 10
0.0
 20
0.0
 30
0.0
 70
   128
 71
  -160
 72
   173
 73
   161
 74
  -160
  0
VERTEX
  5
378
  8
0
 62
   156
 10
0.0
 20
0.0
 30
0.0
 70
   128
 71
   160
 72
   172
 73
  -173
 74
  -160
  0
VERTEX
  5
379
  8
0
 62
   156
 10
0.0
 20
0.0
 30
0.0
 70
   128
 71
  -161
 72
   174
 73
   162
 74
  -161
  0
VERTEX
  5
37A
  8
0
 62
   156
 10
0.0
 20
0.0
 30
0.0
 70
   128
 71
   161
 72
   173
 73
  -174
 74
  -161
  0
VERTEX
  5
37B
  8
0
 62
   156
 10
0.0
 20
0.0
 30
0.0
 70
   128
 71
  -162
 72
   175
 73
   163
 74
  -162
  0
VERTEX
  5
37C
  8
0
 62
   156
 10
0.0
 20
0.0
 30
0.0
 70
   128
 71
   162
 72
   174
 73
  -175
 74
  -162
  0
VERTEX
  5
37D
  8
0
 62
   156
 10
0.0
 20
0.0
 30
0.0
 70
   128
 71
  -163
 72
   176
 73
   164
 74
  -163
  0
VERTEX
  5
37E
  8
0
 62
   156
 10
0.0
 20
0.0
 30
0.0
 70
   128
 71
   163
 72
   175
 73
  -176
 74
  -163
  0
VERTEX
  5
37F
  8
0
 62
   156
 10
0.0
 20
0.0
 30
0.0
 70
   128
 71
  -164
 72
   177
 73
   165
 74
  -164
  0
VERTEX
  5
380
  8
0
 62
   156
 10
0.0
 20
0.0
 30
0.0
 70
   128
 71
   164
 72
   176
 73
  -177
 74
  -164
  0
VERTEX
  5
381
  8
0
 62
   156
 10
0.0
 20
0.0
 30
0.0
 70
   128
 71
  -165
 72
   178
 73
   166
 74
  -165
  0
VERTEX
  5
382
  8
0
 62
   156
 10
0.0
 20
0.0
 30
0.0
 70
   128
 71
   165
 72
   177
 73
  -178
 74
  -165
  0
VERTEX
  5
383
  8
0
 62
   156
 10
0.0
 20
0.0
 30
0.0
 70
   128
 71
  -166
 72
   179
 73
   167
 74
  -166
  0
VERTEX
  5
384
  8
0
 62
   156
 10
0.0
 20
0.0
 30
0.0
 70
   128
 71
   166
 72
   178
 73
  -179
 74
  -166
  0
VERTEX
  5
385
  8
0
 62
   156
 10
0.0
 20
0.0
 30
0.0
 70
   128
 71
  -167
 72
   180
 73
   168
 74
  -167
  0
VERTEX
  5
386
  8
0
 62
   156
 10
0.0
 20
0.0
 30
0.0
 70
   128
 71
   167
 72
   179
 73
  -180
 74
  -167
  0
VERTEX
  5
387
  8
0
 62
   156
 10
0.0
 20
0.0
 30
0.0
 70
   128
 71
  -168
 72
   181
 73
   169
 74
  -168
  0
VERTEX
  5
388
  8
0
 62
   156
 10
0.0
 20
0.0
 30
0.0
 70
   128
 71
   168
 72
   180
 73
  -181
 74
  -168
  0
VERTEX
  5
389
  8
0
 62
   156
 10
0.0
 20
0.0
 30
0.0
 70
   128
 71
   169
 72
   181
 73
   -13
 74
  -169
  0
VERTEX
  5
38A
  8
0
 62
   156
 10
0.0
 20
0.0
 30
0.0
 70
   128
 71
  -170
 72
   183
 73
   171
 74
  -170
  0
VERTEX
  5
38B
  8
0
 62
   156
 10
0.0
 20
0.0
 30
0.0
 70
   128
 71
   170
 72
   182
 73
  -183
 74
  -170
  0
VERTEX
  5
38C
  8
0
 62
   156
 10
0.0
 20
0.0
 30
0.0
 70
   128
 71
  -171
 72
   184
 73
   172
 74
  -171
  0
VERTEX
  5
38D
  8
0
 62
   156
 10
0.0
 20
0.0
 30
0.0
 70
   128
 71
   171
 72
   183
 73
  -184
 74
  -171
  0
VERTEX
  5
38E
  8
0
 62
   156
 10
0.0
 20
0.0
 30
0.0
 70
   128
 71
  -172
 72
   185
 73
   173
 74
  -172
  0
VERTEX
  5
38F
  8
0
 62
   156
 10
0.0
 20
0.0
 30
0.0
 70
   128
 71
   172
 72
   184
 73
  -185
 74
  -172
  0
VERTEX
  5
390
  8
0
 62
   156
 10
0.0
 20
0.0
 30
0.0
 70
   128
 71
  -173
 72
   186
 73
   174
 74
  -173
  0
VERTEX
  5
391
  8
0
 62
   156
 10
0.0
 20
0.0
 30
0.0
 70
   128
 71
   173
 72
   185
 73
  -186
 74
  -173
  0
VERTEX
  5
392
  8
0
 62
   156
 10
0.0
 20
0.0
 30
0.0
 70
   128
 71
  -174
 72
   187
 73
   175
 74
  -174
  0
VERTEX
  5
393
  8
0
 62
   156
 10
0.0
 20
0.0
 30
0.0
 70
   128
 71
   174
 72
   186
 73
  -187
 74
  -174
  0
VERTEX
  5
394
  8
0
 62
   156
 10
0.0
 20
0.0
 30
0.0
 70
   128
 71
  -175
 72
   188
 73
   176
 74
  -175
  0
VERTEX
  5
395
  8
0
 62
   156
 10
0.0
 20
0.0
 30
0.0
 70
   128
 71
   175
 72
   187
 73
  -188
 74
  -175
  0
VERTEX
  5
396
  8
0
 62
   156
 10
0.0
 20
0.0
 30
0.0
 70
   128
 71
  -176
 72
   189
 73
   177
 74
  -176
  0
VERTEX
  5
397
  8
0
 62
   156
 10
0.0
 20
0.0
 30
0.0
 70
   128
 71
   176
 72
   188
 73
  -189
 74
  -176
  0
VERTEX
  5
398
  8
0
 62
   156
 10
0.0
 20
0.0
 30
0.0
 70
   128
 71
  -177
 72
   190
 73
   178
 74
  -177
  0
VERTEX
  5
399
  8
0
 62
   156
 10
0.0
 20
0.0
 30
0.0
 70
   128
 71
   177
 72
   189
 73
  -190
 74
  -177
  0
VERTEX
  5
39A
  8
0
 62
   156
 10
0.0
 20
0.0
 30
0.0
 70
   128
 71
  -178
 72
   191
 73
   179
 74
  -178
  0
VERTEX
  5
39B
  8
0
 62
   156
 10
0.0
 20
0.0
 30
0.0
 70
   128
 71
   178
 72
   190
 73
  -191
 74
  -178
  0
VERTEX
  5
39C
  8
0
 62
   156
 10
0.0
 20
0.0
 30
0.0
 70
   128
 71
  -179
 72
   192
 73
   180
 74
  -179
  0
VERTEX
  5
39D
  8
0
 62
   156
 10
0.0
 20
0.0
 30
0.0
 70
   128
 71
   179
 72
   191
 73
  -192
 74
  -179
  0
VERTEX
  5
39E
  8
0
 62
   156
 10
0.0
 20
0.0
 30
0.0
 70
   128
 71
  -180
 72
   193
 73
   181
 74
  -180
  0
VERTEX
  5
39F
  8
0
 62
   156
 10
0.0
 20
0.0
 30
0.0
 70
   128
 71
   180
 72
   192
 73
  -193
 74
  -180
  0
VERTEX
  5
3A0
  8
0
 62
   156
 10
0.0
 20
0.0
 30
0.0
 70
   128
 71
   181
 72
   193
 73
   -13
 74
  -181
  0
VERTEX
  5
3A1
  8
0
 62
   156
 10
0.0
 20
0.0
 30
0.0
 70
   128
 71
  -182
 72
   195
 73
   183
 74
  -182
  0
VERTEX
  5
3A2
  8
0
 62
   156
 10
0.0
 20
0.0
 30
0.0
 70
   128
 71
   182
 72
   194
 73
  -195
 74
  -182
  0
VERTEX
  5
3A3
  8
0
 62
   156
 10
0.0
 20
0.0
 30
0.0
 70
   128
 71
  -183
 72
   196
 73
   184
 74
  -183
  0
VERTEX
  5
3A4
  8
0
 62
   156
 10
0.0
 20
0.0
 30
0.0
 70
   128
 71
   183
 72
   195
 73
  -196
 74
  -183
  0
VERTEX
  5
3A5
  8
0
 62
   156
 10
0.0
 20
0.0
 30
0.0
 70
   128
 71
  -184
 72
   197
 73
   185
 74
  -184
  0
VERTEX
  5
3A6
  8
0
 62
   156
 10
0.0
 20
0.0
 30
0.0
 70
   128
 71
   184
 72
   196
 73
  -197
 74
  -184
  0
VERTEX
  5
3A7
  8
0
 62
   156
 10
0.0
 20
0.0
 30
0.0
 70
   128
 71
  -185
 72
   198
 73
   186
 74
  -185
  0
VERTEX
  5
3A8
  8
0
 62
   156
 10
0.0
 20
0.0
 30
0.0
 70
   128
 71
   185
 72
   197
 73
  -198
 74
  -185
  0
VERTEX
  5
3A9
  8
0
 62
   156
 10
0.0
 20
0.0
 30
0.0
 70
   128
 71
  -186
 72
   199
 73
   187
 74
  -186
  0
VERTEX
  5
3AA
  8
0
 62
   156
 10
0.0
 20
0.0
 30
0.0
 70
   128
 71
   186
 72
   198
 73
  -199
 74
  -186
  0
VERTEX
  5
3AB
  8
0
 62
   156
 10
0.0
 20
0.0
 30
0.0
 70
   128
 71
  -187
 72
   200
 73
   188
 74
  -187
  0
VERTEX
  5
3AC
  8
0
 62
   156
 10
0.0
 20
0.0
 30
0.0
 70
   128
 71
   187
 72
   199
 73
  -200
 74
  -187
  0
VERTEX
  5
3AD
  8
0
 62
   156
 10
0.0
 20
0.0
 30
0.0
 70
   128
 71
  -188
 72
   201
 73
   189
 74
  -188
  0
VERTEX
  5
3AE
  8
0
 62
   156
 10
0.0
 20
0.0
 30
0.0
 70
   128
 71
   188
 72
   200
 73
  -201
 74
  -188
  0
VERTEX
  5
3AF
  8
0
 62
   156
 10
0.0
 20
0.0
 30
0.0
 70
   128
 71
  -189
 72
   202
 73
   190
 74
  -189
  0
VERTEX
  5
3B0
  8
0
 62
   156
 10
0.0
 20
0.0
 30
0.0
 70
   128
 71
   189
 72
   201
 73
  -202
 74
  -189
  0
VERTEX
  5
3B1
  8
0
 62
   156
 10
0.0
 20
0.0
 30
0.0
 70
   128
 71
  -190
 72
   203
 73
   191
 74
  -190
  0
VERTEX
  5
3B2
  8
0
 62
   156
 10
0.0
 20
0.0
 30
0.0
 70
   128
 71
   190
 72
   202
 73
  -203
 74
  -190
  0
VERTEX
  5
3B3
  8
0
 62
   156
 10
0.0
 20
0.0
 30
0.0
 70
   128
 71
  -191
 72
   204
 73
   192
 74
  -191
  0
VERTEX
  5
3B4
  8
0
 62
   156
 10
0.0
 20
0.0
 30
0.0
 70
   128
 71
   191
 72
   203
 73
  -204
 74
  -191
  0
VERTEX
  5
3B5
  8
0
 62
   156
 10
0.0
 20
0.0
 30
0.0
 70
   128
 71
  -192
 72
   205
 73
   193
 74
  -192
  0
VERTEX
  5
3B6
  8
0
 62
   156
 10
0.0
 20
0.0
 30
0.0
 70
   128
 71
   192
 72
   204
 73
  -205
 74
  -192
  0
VERTEX
  5
3B7
  8
0
 62
   156
 10
0.0
 20
0.0
 30
0.0
 70
   128
 71
   193
 72
   205
 73
   -13
 74
  -193
  0
VERTEX
  5
3B8
  8
0
 62
   156
 10
0.0
 20
0.0
 30
0.0
 70
   128
 71
  -194
 72
   207
 73
   195
 74
  -194
  0
VERTEX
  5
3B9
  8
0
 62
   156
 10
0.0
 20
0.0
 30
0.0
 70
   128
 71
   194
 72
   206
 73
  -207
 74
  -194
  0
VERTEX
  5
3BA
  8
0
 62
   156
 10
0.0
 20
0.0
 30
0.0
 70
   128
 71
  -195
 72
   208
 73
   196
 74
  -195
  0
VERTEX
  5
3BB
  8
0
 62
   156
 10
0.0
 20
0.0
 30
0.0
 70
   128
 71
   195
 72
   207
 73
  -208
 74
  -195
  0
VERTEX
  5
3BC
  8
0
 62
   156
 10
0.0
 20
0.0
 30
0.0
 70
   128
 71
  -196
 72
   209
 73
   197
 74
  -196
  0
VERTEX
  5
3BD
  8
0
 62
   156
 10
0.0
 20
0.0
 30
0.0
 70
   128
 71
   196
 72
   208
 73
  -209
 74
  -196
  0
VERTEX
  5
3BE
  8
0
 62
   156
 10
0.0
 20
0.0
 30
0.0
 70
   128
 71
  -197
 72
   210
 73
   198
 74
  -197
  0
VERTEX
  5
3BF
  8
0
 62
   156
 10
0.0
 20
0.0
 30
0.0
 70
   128
 71
   197
 72
   209
 73
  -210
 74
  -197
  0
VERTEX
  5
3C0
  8
0
 62
   156
 10
0.0
 20
0.0
 30
0.0
 70
   128
 71
  -198
 72
   211
 73
   199
 74
  -198
  0
VERTEX
  5
3C1
  8
0
 62
   156
 10
0.0
 20
0.0
 30
0.0
 70
   128
 71
   198
 72
   210
 73
  -211
 74
  -198
  0
VERTEX
  5
3C2
  8
0
 62
   156
 10
0.0
 20
0.0
 30
0.0
 70
   128
 71
  -199
 72
   212
 73
   200
 74
  -199
  0
VERTEX
  5
3C3
  8
0
 62
   156
 10
0.0
 20
0.0
 30
0.0
 70
   128
 71
   199
 72
   211
 73
  -212
 74
  -199
  0
VERTEX
  5
3C4
  8
0
 62
   156
 10
0.0
 20
0.0
 30
0.0
 70
   128
 71
  -200
 72
   213
 73
   201
 74
  -200
  0
VERTEX
  5
3C5
  8
0
 62
   156
 10
0.0
 20
0.0
 30
0.0
 70
   128
 71
   200
 72
   212
 73
  -213
 74
  -200
  0
VERTEX
  5
3C6
  8
0
 62
   156
 10
0.0
 20
0.0
 30
0.0
 70
   128
 71
  -201
 72
   214
 73
   202
 74
  -201
  0
VERTEX
  5
3C7
  8
0
 62
   156
 10
0.0
 20
0.0
 30
0.0
 70
   128
 71
   201
 72
   213
 73
  -214
 74
  -201
  0
VERTEX
  5
3C8
  8
0
 62
   156
 10
0.0
 20
0.0
 30
0.0
 70
   128
 71
  -202
 72
   215
 73
   203
 74
  -202
  0
VERTEX
  5
3C9
  8
0
 62
   156
 10
0.0
 20
0.0
 30
0.0
 70
   128
 71
   202
 72
   214
 73
  -215
 74
  -202
  0
VERTEX
  5
3CA
  8
0
 62
   156
 10
0.0
 20
0.0
 30
0.0
 70
   128
 71
  -203
 72
   216
 73
   204
 74
  -203
  0
VERTEX
  5
3CB
  8
0
 62
   156
 10
0.0
 20
0.0
 30
0.0
 70
   128
 71
   203
 72
   215
 73
  -216
 74
  -203
  0
VERTEX
  5
3CC
  8
0
 62
   156
 10
0.0
 20
0.0
 30
0.0
 70
   128
 71
  -204
 72
   217
 73
   205
 74
  -204
  0
VERTEX
  5
3CD
  8
0
 62
   156
 10
0.0
 20
0.0
 30
0.0
 70
   128
 71
   204
 72
   216
 73
  -217
 74
  -204
  0
VERTEX
  5
3CE
  8
0
 62
   156
 10
0.0
 20
0.0
 30
0.0
 70
   128
 71
   205
 72
   217
 73
   -13
 74
  -205
  0
VERTEX
  5
3CF
  8
0
 62
   156
 10
0.0
 20
0.0
 30
0.0
 70
   128
 71
  -206
 72
   219
 73
   207
 74
  -206
  0
VERTEX
  5
3D0
  8
0
 62
   156
 10
0.0
 20
0.0
 30
0.0
 70
   128
 71
   206
 72
   218
 73
  -219
 74
  -206
  0
VERTEX
  5
3D1
  8
0
 62
   156
 10
0.0
 20
0.0
 30
0.0
 70
   128
 71
  -207
 72
   220
 73
   208
 74
  -207
  0
VERTEX
  5
3D2
  8
0
 62
   156
 10
0.0
 20
0.0
 30
0.0
 70
   128
 71
   207
 72
   219
 73
  -220
 74
  -207
  0
VERTEX
  5
3D3
  8
0
 62
   156
 10
0.0
 20
0.0
 30
0.0
 70
   128
 71
  -208
 72
   221
 73
   209
 74
  -208
  0
VERTEX
  5
3D4
  8
0
 62
   156
 10
0.0
 20
0.0
 30
0.0
 70
   128
 71
   208
 72
   220
 73
  -221
 74
  -208
  0
VERTEX
  5
3D5
  8
0
 62
   156
 10
0.0
 20
0.0
 30
0.0
 70
   128
 71
  -209
 72
   222
 73
   210
 74
  -209
  0
VERTEX
  5
3D6
  8
0
 62
   156
 10
0.0
 20
0.0
 30
0.0
 70
   128
 71
   209
 72
   221
 73
  -222
 74
  -209
  0
VERTEX
  5
3D7
  8
0
 62
   156
 10
0.0
 20
0.0
 30
0.0
 70
   128
 71
  -210
 72
   223
 73
   211
 74
  -210
  0
VERTEX
  5
3D8
  8
0
 62
   156
 10
0.0
 20
0.0
 30
0.0
 70
   128
 71
   210
 72
   222
 73
  -223
 74
  -210
  0
VERTEX
  5
3D9
  8
0
 62
   156
 10
0.0
 20
0.0
 30
0.0
 70
   128
 71
  -211
 72
   224
 73
   212
 74
  -211
  0
VERTEX
  5
3DA
  8
0
 62
   156
 10
0.0
 20
0.0
 30
0.0
 70
   128
 71
   211
 72
   223
 73
  -224
 74
  -211
  0
VERTEX
  5
3DB
  8
0
 62
   156
 10
0.0
 20
0.0
 30
0.0
 70
   128
 71
  -212
 72
   225
 73
   213
 74
  -212
  0
VERTEX
  5
3DC
  8
0
 62
   156
 10
0.0
 20
0.0
 30
0.0
 70
   128
 71
   212
 72
   224
 73
  -225
 74
  -212
  0
VERTEX
  5
3DD
  8
0
 62
   156
 10
0.0
 20
0.0
 30
0.0
 70
   128
 71
  -213
 72
   226
 73
   214
 74
  -213
  0
VERTEX
  5
3DE
  8
0
 62
   156
 10
0.0
 20
0.0
 30
0.0
 70
   128
 71
   213
 72
   225
 73
  -226
 74
  -213
  0
VERTEX
  5
3DF
  8
0
 62
   156
 10
0.0
 20
0.0
 30
0.0
 70
   128
 71
  -214
 72
   227
 73
   215
 74
  -214
  0
VERTEX
  5
3E0
  8
0
 62
   156
 10
0.0
 20
0.0
 30
0.0
 70
   128
 71
   214
 72
   226
 73
  -227
 74
  -214
  0
VERTEX
  5
3E1
  8
0
 62
   156
 10
0.0
 20
0.0
 30
0.0
 70
   128
 71
  -215
 72
   228
 73
   216
 74
  -215
  0
VERTEX
  5
3E2
  8
0
 62
   156
 10
0.0
 20
0.0
 30
0.0
 70
   128
 71
   215
 72
   227
 73
  -228
 74
  -215
  0
VERTEX
  5
3E3
  8
0
 62
   156
 10
0.0
 20
0.0
 30
0.0
 70
   128
 71
  -216
 72
   229
 73
   217
 74
  -216
  0
VERTEX
  5
3E4
  8
0
 62
   156
 10
0.0
 20
0.0
 30
0.0
 70
   128
 71
   216
 72
   228
 73
  -229
 74
  -216
  0
VERTEX
  5
3E5
  8
0
 62
   156
 10
0.0
 20
0.0
 30
0.0
 70
   128
 71
   217
 72
   229
 73
   -13
 74
  -217
  0
VERTEX
  5
3E6
  8
0
 62
   156
 10
0.0
 20
0.0
 30
0.0
 70
   128
 71
  -218
 72
   231
 73
   219
 74
  -218
  0
VERTEX
  5
3E7
  8
0
 62
   156
 10
0.0
 20
0.0
 30
0.0
 70
   128
 71
   218
 72
   230
 73
  -231
 74
  -218
  0
VERTEX
  5
3E8
  8
0
 62
   156
 10
0.0
 20
0.0
 30
0.0
 70
   128
 71
  -219
 72
   232
 73
   220
 74
  -219
  0
VERTEX
  5
3E9
  8
0
 62
   156
 10
0.0
 20
0.0
 30
0.0
 70
   128
 71
   219
 72
   231
 73
  -232
 74
  -219
  0
VERTEX
  5
3EA
  8
0
 62
   156
 10
0.0
 20
0.0
 30
0.0
 70
   128
 71
  -220
 72
   233
 73
   221
 74
  -220
  0
VERTEX
  5
3EB
  8
0
 62
   156
 10
0.0
 20
0.0
 30
0.0
 70
   128
 71
   220
 72
   232
 73
  -233
 74
  -220
  0
VERTEX
  5
3EC
  8
0
 62
   156
 10
0.0
 20
0.0
 30
0.0
 70
   128
 71
  -221
 72
   234
 73
   222
 74
  -221
  0
VERTEX
  5
3ED
  8
0
 62
   156
 10
0.0
 20
0.0
 30
0.0
 70
   128
 71
   221
 72
   233
 73
  -234
 74
  -221
  0
VERTEX
  5
3EE
  8
0
 62
   156
 10
0.0
 20
0.0
 30
0.0
 70
   128
 71
  -222
 72
   235
 73
   223
 74
  -222
  0
VERTEX
  5
3EF
  8
0
 62
   156
 10
0.0
 20
0.0
 30
0.0
 70
   128
 71
   222
 72
   234
 73
  -235
 74
  -222
  0
VERTEX
  5
3F0
  8
0
 62
   156
 10
0.0
 20
0.0
 30
0.0
 70
   128
 71
  -223
 72
   236
 73
   224
 74
  -223
  0
VERTEX
  5
3F1
  8
0
 62
   156
 10
0.0
 20
0.0
 30
0.0
 70
   128
 71
   223
 72
   235
 73
  -236
 74
  -223
  0
VERTEX
  5
3F2
  8
0
 62
   156
 10
0.0
 20
0.0
 30
0.0
 70
   128
 71
  -224
 72
   237
 73
   225
 74
  -224
  0
VERTEX
  5
3F3
  8
0
 62
   156
 10
0.0
 20
0.0
 30
0.0
 70
   128
 71
   224
 72
   236
 73
  -237
 74
  -224
  0
VERTEX
  5
3F4
  8
0
 62
   156
 10
0.0
 20
0.0
 30
0.0
 70
   128
 71
  -225
 72
   238
 73
   226
 74
  -225
  0
VERTEX
  5
3F5
  8
0
 62
   156
 10
0.0
 20
0.0
 30
0.0
 70
   128
 71
   225
 72
   237
 73
  -238
 74
  -225
  0
VERTEX
  5
3F6
  8
0
 62
   156
 10
0.0
 20
0.0
 30
0.0
 70
   128
 71
  -226
 72
   239
 73
   227
 74
  -226
  0
VERTEX
  5
3F7
  8
0
 62
   156
 10
0.0
 20
0.0
 30
0.0
 70
   128
 71
   226
 72
   238
 73
  -239
 74
  -226
  0
VERTEX
  5
3F8
  8
0
 62
   156
 10
0.0
 20
0.0
 30
0.0
 70
   128
 71
  -227
 72
   240
 73
   228
 74
  -227
  0
VERTEX
  5
3F9
  8
0
 62
   156
 10
0.0
 20
0.0
 30
0.0
 70
   128
 71
   227
 72
   239
 73
  -240
 74
  -227
  0
VERTEX
  5
3FA
  8
0
 62
   156
 10
0.0
 20
0.0
 30
0.0
 70
   128
 71
  -228
 72
   241
 73
   229
 74
  -228
  0
VERTEX
  5
3FB
  8
0
 62
   156
 10
0.0
 20
0.0
 30
0.0
 70
   128
 71
   228
 72
   240
 73
  -241
 74
  -228
  0
VERTEX
  5
3FC
  8
0
 62
   156
 10
0.0
 20
0.0
 30
0.0
 70
   128
 71
   229
 72
   241
 73
   -13
 74
  -229
  0
VERTEX
  5
3FD
  8
0
 62
   156
 10
0.0
 20
0.0
 30
0.0
 70
   128
 71
  -230
 72
   243
 73
   231
 74
  -230
  0
VERTEX
  5
3FE
  8
0
 62
   156
 10
0.0
 20
0.0
 30
0.0
 70
   128
 71
   230
 72
   242
 73
  -243
 74
  -230
  0
VERTEX
  5
3FF
  8
0
 62
   156
 10
0.0
 20
0.0
 30
0.0
 70
   128
 71
  -231
 72
   244
 73
   232
 74
  -231
  0
VERTEX
  5
400
  8
0
 62
   156
 10
0.0
 20
0.0
 30
0.0
 70
   128
 71
   231
 72
   243
 73
  -244
 74
  -231
  0
VERTEX
  5
401
  8
0
 62
   156
 10
0.0
 20
0.0
 30
0.0
 70
   128
 71
  -232
 72
   245
 73
   233
 74
  -232
  0
VERTEX
  5
402
  8
0
 62
   156
 10
0.0
 20
0.0
 30
0.0
 70
   128
 71
   232
 72
   244
 73
  -245
 74
  -232
  0
VERTEX
  5
403
  8
0
 62
   156
 10
0.0
 20
0.0
 30
0.0
 70
   128
 71
  -233
 72
   246
 73
   234
 74
  -233
  0
VERTEX
  5
404
  8
0
 62
   156
 10
0.0
 20
0.0
 30
0.0
 70
   128
 71
   233
 72
   245
 73
  -246
 74
  -233
  0
VERTEX
  5
405
  8
0
 62
   156
 10
0.0
 20
0.0
 30
0.0
 70
   128
 71
  -234
 72
   247
 73
   235
 74
  -234
  0
VERTEX
  5
406
  8
0
 62
   156
 10
0.0
 20
0.0
 30
0.0
 70
   128
 71
   234
 72
   246
 73
  -247
 74
  -234
  0
VERTEX
  5
407
  8
0
 62
   156
 10
0.0
 20
0.0
 30
0.0
 70
   128
 71
  -235
 72
   248
 73
   236
 74
  -235
  0
VERTEX
  5
408
  8
0
 62
   156
 10
0.0
 20
0.0
 30
0.0
 70
   128
 71
   235
 72
   247
 73
  -248
 74
  -235
  0
VERTEX
  5
409
  8
0
 62
   156
 10
0.0
 20
0.0
 30
0.0
 70
   128
 71
  -236
 72
   249
 73
   237
 74
  -236
  0
VERTEX
  5
40A
  8
0
 62
   156
 10
0.0
 20
0.0
 30
0.0
 70
   128
 71
   236
 72
   248
 73
  -249
 74
  -236
  0
VERTEX
  5
40B
  8
0
 62
   156
 10
0.0
 20
0.0
 30
0.0
 70
   128
 71
  -237
 72
   250
 73
   238
 74
  -237
  0
VERTEX
  5
40C
  8
0
 62
   156
 10
0.0
 20
0.0
 30
0.0
 70
   128
 71
   237
 72
   249
 73
  -250
 74
  -237
  0
VERTEX
  5
40D
  8
0
 62
   156
 10
0.0
 20
0.0
 30
0.0
 70
   128
 71
  -238
 72
   251
 73
   239
 74
  -238
  0
VERTEX
  5
40E
  8
0
 62
   156
 10
0.0
 20
0.0
 30
0.0
 70
   128
 71
   238
 72
   250
 73
  -251
 74
  -238
  0
VERTEX
  5
40F
  8
0
 62
   156
 10
0.0
 20
0.0
 30
0.0
 70
   128
 71
  -239
 72
   252
 73
   240
 74
  -239
  0
VERTEX
  5
410
  8
0
 62
   156
 10
0.0
 20
0.0
 30
0.0
 70
   128
 71
   239
 72
   251
 73
  -252
 74
  -239
  0
VERTEX
  5
411
  8
0
 62
   156
 10
0.0
 20
0.0
 30
0.0
 70
   128
 71
  -240
 72
   253
 73
   241
 74
  -240
  0
VERTEX
  5
412
  8
0
 62
   156
 10
0.0
 20
0.0
 30
0.0
 70
   128
 71
   240
 72
   252
 73
  -253
 74
  -240
  0
VERTEX
  5
413
  8
0
 62
   156
 10
0.0
 20
0.0
 30
0.0
 70
   128
 71
   241
 72
   253
 73
   -13
 74
  -241
  0
VERTEX
  5
414
  8
0
 62
   156
 10
0.0
 20
0.0
 30
0.0
 70
   128
 71
  -242
 72
   255
 73
   243
 74
  -242
  0
VERTEX
  5
415
  8
0
 62
   156
 10
0.0
 20
0.0
 30
0.0
 70
   128
 71
   242
 72
   254
 73
  -255
 74
  -242
  0
VERTEX
  5
416
  8
0
 62
   156
 10
0.0
 20
0.0
 30
0.0
 70
   128
 71
  -243
 72
   256
 73
   244
 74
  -243
  0
VERTEX
  5
417
  8
0
 62
   156
 10
0.0
 20
0.0
 30
0.0
 70
   128
 71
   243
 72
   255
 73
  -256
 74
  -243
  0
VERTEX
  5
418
  8
0
 62
   156
 10
0.0
 20
0.0
 30
0.0
 70
   128
 71
  -244
 72
   257
 73
   245
 74
  -244
  0
VERTEX
  5
419
  8
0
 62
   156
 10
0.0
 20
0.0
 30
0.0
 70
   128
 71
   244
 72
   256
 73
  -257
 74
  -244
  0
VERTEX
  5
41A
  8
0
 62
   156
 10
0.0
 20
0.0
 30
0.0
 70
   128
 71
  -245
 72
   258
 73
   246
 74
  -245
  0
VERTEX
  5
41B
  8
0
 62
   156
 10
0.0
 20
0.0
 30
0.0
 70
   128
 71
   245
 72
   257
 73
  -258
 74
  -245
  0
VERTEX
  5
41C
  8
0
 62
   156
 10
0.0
 20
0.0
 30
0.0
 70
   128
 71
  -246
 72
   259
 73
   247
 74
  -246
  0
VERTEX
  5
41D
  8
0
 62
   156
 10
0.0
 20
0.0
 30
0.0
 70
   128
 71
   246
 72
   258
 73
  -259
 74
  -246
  0
VERTEX
  5
41E
  8
0
 62
   156
 10
0.0
 20
0.0
 30
0.0
 70
   128
 71
  -247
 72
   260
 73
   248
 74
  -247
  0
VERTEX
  5
41F
  8
0
 62
   156
 10
0.0
 20
0.0
 30
0.0
 70
   128
 71
   247
 72
   259
 73
  -260
 74
  -247
  0
VERTEX
  5
420
  8
0
 62
   156
 10
0.0
 20
0.0
 30
0.0
 70
   128
 71
  -248
 72
   261
 73
   249
 74
  -248
  0
VERTEX
  5
421
  8
0
 62
   156
 10
0.0
 20
0.0
 30
0.0
 70
   128
 71
   248
 72
   260
 73
  -261
 74
  -248
  0
VERTEX
  5
422
  8
0
 62
   156
 10
0.0
 20
0.0
 30
0.0
 70
   128
 71
  -249
 72
   262
 73
   250
 74
  -249
  0
VERTEX
  5
423
  8
0
 62
   156
 10
0.0
 20
0.0
 30
0.0
 70
   128
 71
   249
 72
   261
 73
  -262
 74
  -249
  0
VERTEX
  5
424
  8
0
 62
   156
 10
0.0
 20
0.0
 30
0.0
 70
   128
 71
  -250
 72
   263
 73
   251
 74
  -250
  0
VERTEX
  5
425
  8
0
 62
   156
 10
0.0
 20
0.0
 30
0.0
 70
   128
 71
   250
 72
   262
 73
  -263
 74
  -250
  0
VERTEX
  5
426
  8
0
 62
   156
 10
0.0
 20
0.0
 30
0.0
 70
   128
 71
  -251
 72
   264
 73
   252
 74
  -251
  0
VERTEX
  5
427
  8
0
 62
   156
 10
0.0
 20
0.0
 30
0.0
 70
   128
 71
   251
 72
   263
 73
  -264
 74
  -251
  0
VERTEX
  5
428
  8
0
 62
   156
 10
0.0
 20
0.0
 30
0.0
 70
   128
 71
  -252
 72
   265
 73
   253
 74
  -252
  0
VERTEX
  5
429
  8
0
 62
   156
 10
0.0
 20
0.0
 30
0.0
 70
   128
 71
   252
 72
   264
 73
  -265
 74
  -252
  0
VERTEX
  5
42A
  8
0
 62
   156
 10
0.0
 20
0.0
 30
0.0
 70
   128
 71
   253
 72
   265
 73
   -13
 74
  -253
  0
VERTEX
  5
42B
  8
0
 62
   156
 10
0.0
 20
0.0
 30
0.0
 70
   128
 71
  -254
 72
     2
 73
   255
 74
  -254
  0
VERTEX
  5
42C
  8
0
 62
   156
 10
0.0
 20
0.0
 30
0.0
 70
   128
 71
   254
 72
     1
 73
    -2
 74
  -254
  0
VERTEX
  5
42D
  8
0
 62
   156
 10
0.0
 20
0.0
 30
0.0
 70
   128
 71
  -255
 72
     3
 73
   256
 74
  -255
  0
VERTEX
  5
42E
  8
0
 62
   156
 10
0.0
 20
0.0
 30
0.0
 70
   128
 71
   255
 72
     2
 73
    -3
 74
  -255
  0
VERTEX
  5
42F
  8
0
 62
   156
 10
0.0
 20
0.0
 30
0.0
 70
   128
 71
  -256
 72
     4
 73
   257
 74
  -256
  0
VERTEX
  5
430
  8
0
 62
   156
 10
0.0
 20
0.0
 30
0.0
 70
   128
 71
   256
 72
     3
 73
    -4
 74
  -256
  0
VERTEX
  5
431
  8
0
 62
   156
 10
0.0
 20
0.0
 30
0.0
 70
   128
 71
  -257
 72
     5
 73
   258
 74
  -257
  0
VERTEX
  5
432
  8
0
 62
   156
 10
0.0
 20
0.0
 30
0.0
 70
   128
 71
   257
 72
     4
 73
    -5
 74
  -257
  0
VERTEX
  5
433
  8
0
 62
   156
 10
0.0
 20
0.0
 30
0.0
 70
   128
 71
  -258
 72
     6
 73
   259
 74
  -258
  0
VERTEX
  5
434
  8
0
 62
   156
 10
0.0
 20
0.0
 30
0.0
 70
   128
 71
   258
 72
     5
 73
    -6
 74
  -258
  0
VERTEX
  5
435
  8
0
 62
   156
 10
0.0
 20
0.0
 30
0.0
 70
   128
 71
  -259
 72
     7
 73
   260
 74
  -259
  0
VERTEX
  5
436
  8
0
 62
   156
 10
0.0
 20
0.0
 30
0.0
 70
   128
 71
   259
 72
     6
 73
    -7
 74
  -259
  0
VERTEX
  5
437
  8
0
 62
   156
 10
0.0
 20
0.0
 30
0.0
 70
   128
 71
  -260
 72
     8
 73
   261
 74
  -260
  0
VERTEX
  5
438
  8
0
 62
   156
 10
0.0
 20
0.0
 30
0.0
 70
   128
 71
   260
 72
     7
 73
    -8
 74
  -260
  0
VERTEX
  5
439
  8
0
 62
   156
 10
0.0
 20
0.0
 30
0.0
 70
   128
 71
  -261
 72
     9
 73
   262
 74
  -261
  0
VERTEX
  5
43A
  8
0
 62
   156
 10
0.0
 20
0.0
 30
0.0
 70
   128
 71
   261
 72
     8
 73
    -9
 74
  -261
  0
VERTEX
  5
43B
  8
0
 62
   156
 10
0.0
 20
0.0
 30
0.0
 70
   128
 71
  -262
 72
    10
 73
   263
 74
  -262
  0
VERTEX
  5
43C
  8
0
 62
   156
 10
0.0
 20
0.0
 30
0.0
 70
   128
 71
   262
 72
     9
 73
   -10
 74
  -262
  0
VERTEX
  5
43D
  8
0
 62
   156
 10
0.0
 20
0.0
 30
0.0
 70
   128
 71
  -263
 72
    11
 73
   264
 74
  -263
  0
VERTEX
  5
43E
  8
0
 62
   156
 10
0.0
 20
0.0
 30
0.0
 70
   128
 71
   263
 72
    10
 73
   -11
 74
  -263
  0
VERTEX
  5
43F
  8
0
 62
   156
 10
0.0
 20
0.0
 30
0.0
 70
   128
 71
  -264
 72
    12
 73
   265
 74
  -264
  0
VERTEX
  5
440
  8
0
 62
   156
 10
0.0
 20
0.0
 30
0.0
 70
   128
 71
   264
 72
    11
 73
   -12
 74
  -264
  0
VERTEX
  5
441
  8
0
 62
   156
 10
0.0
 20
0.0
 30
0.0
 70
   128
 71
   265
 72
    12
 73
   -13
 74
  -265
  0
VERTEX
  5
442
  8
0
 62
   156
 10
0.0
 20
0.0
 30
0.0
 70
   128
 71
   266
 72
   267
 73
   -14
 74
  -266
  0
VERTEX
  5
443
  8
0
 62
   156
 10
0.0
 20
0.0
 30
0.0
 70
   128
 71
    14
 72
     1
 73
  -266
 74
   -14
  0
VERTEX
  5
444
  8
0
 62
   156
 10
0.0
 20
0.0
 30
0.0
 70
   128
 71
   267
 72
   268
 73
   -26
 74
  -267
  0
VERTEX
  5
445
  8
0
 62
   156
 10
0.0
 20
0.0
 30
0.0
 70
   128
 71
    26
 72
    14
 73
  -267
 74
   -26
  0
VERTEX
  5
446
  8
0
 62
   156
 10
0.0
 20
0.0
 30
0.0
 70
   128
 71
   268
 72
   269
 73
   -38
 74
  -268
  0
VERTEX
  5
447
  8
0
 62
   156
 10
0.0
 20
0.0
 30
0.0
 70
   128
 71
    38
 72
    26
 73
  -268
 74
   -38
  0
VERTEX
  5
448
  8
0
 62
   156
 10
0.0
 20
0.0
 30
0.0
 70
   128
 71
   269
 72
   270
 73
   -50
 74
  -269
  0
VERTEX
  5
449
  8
0
 62
   156
 10
0.0
 20
0.0
 30
0.0
 70
   128
 71
    50
 72
    38
 73
  -269
 74
   -50
  0
VERTEX
  5
44A
  8
0
 62
   156
 10
0.0
 20
0.0
 30
0.0
 70
   128
 71
   270
 72
   271
 73
   -62
 74
  -270
  0
VERTEX
  5
44B
  8
0
 62
   156
 10
0.0
 20
0.0
 30
0.0
 70
   128
 71
    62
 72
    50
 73
  -270
 74
   -62
  0
VERTEX
  5
44C
  8
0
 62
   156
 10
0.0
 20
0.0
 30
0.0
 70
   128
 71
   271
 72
   272
 73
   -74
 74
  -271
  0
VERTEX
  5
44D
  8
0
 62
   156
 10
0.0
 20
0.0
 30
0.0
 70
   128
 71
    74
 72
    62
 73
  -271
 74
   -74
  0
VERTEX
  5
44E
  8
0
 62
   156
 10
0.0
 20
0.0
 30
0.0
 70
   128
 71
   272
 72
   273
 73
   -86
 74
  -272
  0
VERTEX
  5
44F
  8
0
 62
   156
 10
0.0
 20
0.0
 30
0.0
 70
   128
 71
    86
 72
    74
 73
  -272
 74
   -86
  0
VERTEX
  5
450
  8
0
 62
   156
 10
0.0
 20
0.0
 30
0.0
 70
   128
 71
   273
 72
   274
 73
   -98
 74
  -273
  0
VERTEX
  5
451
  8
0
 62
   156
 10
0.0
 20
0.0
 30
0.0
 70
   128
 71
    98
 72
    86
 73
  -273
 74
   -98
  0
VERTEX
  5
452
  8
0
 62
   156
 10
0.0
 20
0.0
 30
0.0
 70
   128
 71
   274
 72
   275
 73
  -110
 74
  -274
  0
VERTEX
  5
453
  8
0
 62
   156
 10
0.0
 20
0.0
 30
0.0
 70
   128
 71
   110
 72
    98
 73
  -274
 74
  -110
  0
VERTEX
  5
454
  8
0
 62
   156
 10
0.0
 20
0.0
 30
0.0
 70
   128
 71
   275
 72
   276
 73
  -122
 74
  -275
  0
VERTEX
  5
455
  8
0
 62
   156
 10
0.0
 20
0.0
 30
0.0
 70
   128
 71
   122
 72
   110
 73
  -275
 74
  -122
  0
VERTEX
  5
456
  8
0
 62
   156
 10
0.0
 20
0.0
 30
0.0
 70
   128
 71
   276
 72
   277
 73
  -134
 74
  -276
  0
VERTEX
  5
457
  8
0
 62
   156
 10
0.0
 20
0.0
 30
0.0
 70
   128
 71
   134
 72
   122
 73
  -276
 74
  -134
  0
VERTEX
  5
458
  8
0
 62
   156
 10
0.0
 20
0.0
 30
0.0
 70
   128
 71
   277
 72
   278
 73
  -146
 74
  -277
  0
VERTEX
  5
459
  8
0
 62
   156
 10
0.0
 20
0.0
 30
0.0
 70
   128
 71
   146
 72
   134
 73
  -277
 74
  -146
  0
VERTEX
  5
45A
  8
0
 62
   156
 10
0.0
 20
0.0
 30
0.0
 70
   128
 71
   278
 72
   279
 73
  -158
 74
  -278
  0
VERTEX
  5
45B
  8
0
 62
   156
 10
0.0
 20
0.0
 30
0.0
 70
   128
 71
   158
 72
   146
 73
  -278
 74
  -158
  0
VERTEX
  5
45C
  8
0
 62
   156
 10
0.0
 20
0.0
 30
0.0
 70
   128
 71
   279
 72
   280
 73
  -170
 74
  -279
  0
VERTEX
  5
45D
  8
0
 62
   156
 10
0.0
 20
0.0
 30
0.0
 70
   128
 71
   170
 72
   158
 73
  -279
 74
  -170
  0
VERTEX
  5
45E
  8
0
 62
   156
 10
0.0
 20
0.0
 30
0.0
 70
   128
 71
   280
 72
   281
 73
  -182
 74
  -280
  0
VERTEX
  5
45F
  8
0
 62
   156
 10
0.0
 20
0.0
 30
0.0
 70
   128
 71
   182
 72
   170
 73
  -280
 74
  -182
  0
VERTEX
  5
460
  8
0
 62
   156
 10
0.0
 20
0.0
 30
0.0
 70
   128
 71
   281
 72
   282
 73
  -194
 74
  -281
  0
VERTEX
  5
461
  8
0
 62
   156
 10
0.0
 20
0.0
 30
0.0
 70
   128
 71
   194
 72
   182
 73
  -281
 74
  -194
  0
VERTEX
  5
462
  8
0
 62
   156
 10
0.0
 20
0.0
 30
0.0
 70
   128
 71
   282
 72
   283
 73
  -206
 74
  -282
  0
VERTEX
  5
463
  8
0
 62
   156
 10
0.0
 20
0.0
 30
0.0
 70
   128
 71
   206
 72
   194
 73
  -282
 74
  -206
  0
VERTEX
  5
464
  8
0
 62
   156
 10
0.0
 20
0.0
 30
0.0
 70
   128
 71
   283
 72
   284
 73
  -218
 74
  -283
  0
VERTEX
  5
465
  8
0
 62
   156
 10
0.0
 20
0.0
 30
0.0
 70
   128
 71
   218
 72
   206
 73
  -283
 74
  -218
  0
VERTEX
  5
466
  8
0
 62
   156
 10
0.0
 20
0.0
 30
0.0
 70
   128
 71
   284
 72
   285
 73
  -230
 74
  -284
  0
VERTEX
  5
467
  8
0
 62
   156
 10
0.0
 20
0.0
 30
0.0
 70
   128
 71
   230
 72
   218
 73
  -284
 74
  -230
  0
VERTEX
  5
468
  8
0
 62
   156
 10
0.0
 20
0.0
 30
0.0
 70
   128
 71
   285
 72
   286
 73
  -242
 74
  -285
  0
VERTEX
  5
469
  8
0
 62
   156
 10
0.0
 20
0.0
 30
0.0
 70
   128
 71
   242
 72
   230
 73
  -285
 74
  -242
  0
VERTEX
  5
46A
  8
0
 62
   156
 10
0.0
 20
0.0
 30
0.0
 70
   128
 71
   286
 72
   287
 73
  -254
 74
  -286
  0
VERTEX
  5
46B
  8
0
 62
   156
 10
0.0
 20
0.0
 30
0.0
 70
   128
 71
   254
 72
   242
 73
  -286
 74
  -254
  0
VERTEX
  5
46C
  8
0
 62
   156
 10
0.0
 20
0.0
 30
0.0
 70
   128
 71
   287
 72
   266
 73
    -1
 74
  -287
  0
VERTEX
  5
46D
  8
0
 62
   156
 10
0.0
 20
0.0
 30
0.0
 70
   128
 71
     1
 72
   254
 73
  -287
 74
    -1
  0
VERTEX
  5
46E
  8
0
 62
   156
 10
0.0
 20
0.0
 30
0.0
 70
   128
 71
   288
 72
   289
 73
  -267
 74
  -288
  0
VERTEX
  5
46F
  8
0
 62
   156
 10
0.0
 20
0.0
 30
0.0
 70
   128
 71
   267
 72
   266
 73
  -288
 74
  -267
  0
VERTEX
  5
470
  8
0
 62
   156
 10
0.0
 20
0.0
 30
0.0
 70
   128
 71
   289
 72
   290
 73
  -268
 74
  -289
  0
VERTEX
  5
471
  8
0
 62
   156
 10
0.0
 20
0.0
 30
0.0
 70
   128
 71
   268
 72
   267
 73
  -289
 74
  -268
  0
VERTEX
  5
472
  8
0
 62
   156
 10
0.0
 20
0.0
 30
0.0
 70
   128
 71
   290
 72
   291
 73
  -269
 74
  -290
  0
VERTEX
  5
473
  8
0
 62
   156
 10
0.0
 20
0.0
 30
0.0
 70
   128
 71
   269
 72
   268
 73
  -290
 74
  -269
  0
VERTEX
  5
474
  8
0
 62
   156
 10
0.0
 20
0.0
 30
0.0
 70
   128
 71
   291
 72
   292
 73
  -270
 74
  -291
  0
VERTEX
  5
475
  8
0
 62
   156
 10
0.0
 20
0.0
 30
0.0
 70
   128
 71
   270
 72
   269
 73
  -291
 74
  -270
  0
VERTEX
  5
476
  8
0
 62
   156
 10
0.0
 20
0.0
 30
0.0
 70
   128
 71
   292
 72
   293
 73
  -271
 74
  -292
  0
VERTEX
  5
477
  8
0
 62
   156
 10
0.0
 20
0.0
 30
0.0
 70
   128
 71
   271
 72
   270
 73
  -292
 74
  -271
  0
VERTEX
  5
478
  8
0
 62
   156
 10
0.0
 20
0.0
 30
0.0
 70
   128
 71
   293
 72
   294
 73
  -272
 74
  -293
  0
VERTEX
  5
479
  8
0
 62
   156
 10
0.0
 20
0.0
 30
0.0
 70
   128
 71
   272
 72
   271
 73
  -293
 74
  -272
  0
VERTEX
  5
47A
  8
0
 62
   156
 10
0.0
 20
0.0
 30
0.0
 70
   128
 71
   294
 72
   295
 73
  -273
 74
  -294
  0
VERTEX
  5
47B
  8
0
 62
   156
 10
0.0
 20
0.0
 30
0.0
 70
   128
 71
   273
 72
   272
 73
  -294
 74
  -273
  0
VERTEX
  5
47C
  8
0
 62
   156
 10
0.0
 20
0.0
 30
0.0
 70
   128
 71
   295
 72
   296
 73
  -274
 74
  -295
  0
VERTEX
  5
47D
  8
0
 62
   156
 10
0.0
 20
0.0
 30
0.0
 70
   128
 71
   274
 72
   273
 73
  -295
 74
  -274
  0
VERTEX
  5
47E
  8
0
 62
   156
 10
0.0
 20
0.0
 30
0.0
 70
   128
 71
   296
 72
   297
 73
  -275
 74
  -296
  0
VERTEX
  5
47F
  8
0
 62
   156
 10
0.0
 20
0.0
 30
0.0
 70
   128
 71
   275
 72
   274
 73
  -296
 74
  -275
  0
VERTEX
  5
480
  8
0
 62
   156
 10
0.0
 20
0.0
 30
0.0
 70
   128
 71
   297
 72
   298
 73
  -276
 74
  -297
  0
VERTEX
  5
481
  8
0
 62
   156
 10
0.0
 20
0.0
 30
0.0
 70
   128
 71
   276
 72
   275
 73
  -297
 74
  -276
  0
VERTEX
  5
482
  8
0
 62
   156
 10
0.0
 20
0.0
 30
0.0
 70
   128
 71
   298
 72
   299
 73
  -277
 74
  -298
  0
VERTEX
  5
483
  8
0
 62
   156
 10
0.0
 20
0.0
 30
0.0
 70
   128
 71
   277
 72
   276
 73
  -298
 74
  -277
  0
VERTEX
  5
484
  8
0
 62
   156
 10
0.0
 20
0.0
 30
0.0
 70
   128
 71
   299
 72
   300
 73
  -278
 74
  -299
  0
VERTEX
  5
485
  8
0
 62
   156
 10
0.0
 20
0.0
 30
0.0
 70
   128
 71
   278
 72
   277
 73
  -299
 74
  -278
  0
VERTEX
  5
486
  8
0
 62
   156
 10
0.0
 20
0.0
 30
0.0
 70
   128
 71
   300
 72
   301
 73
  -279
 74
  -300
  0
VERTEX
  5
487
  8
0
 62
   156
 10
0.0
 20
0.0
 30
0.0
 70
   128
 71
   279
 72
   278
 73
  -300
 74
  -279
  0
VERTEX
  5
488
  8
0
 62
   156
 10
0.0
 20
0.0
 30
0.0
 70
   128
 71
   301
 72
   302
 73
  -280
 74
  -301
  0
VERTEX
  5
489
  8
0
 62
   156
 10
0.0
 20
0.0
 30
0.0
 70
   128
 71
   280
 72
   279
 73
  -301
 74
  -280
  0
VERTEX
  5
48A
  8
0
 62
   156
 10
0.0
 20
0.0
 30
0.0
 70
   128
 71
   302
 72
   303
 73
  -281
 74
  -302
  0
VERTEX
  5
48B
  8
0
 62
   156
 10
0.0
 20
0.0
 30
0.0
 70
   128
 71
   281
 72
   280
 73
  -302
 74
  -281
  0
VERTEX
  5
48C
  8
0
 62
   156
 10
0.0
 20
0.0
 30
0.0
 70
   128
 71
   303
 72
   304
 73
  -282
 74
  -303
  0
VERTEX
  5
48D
  8
0
 62
   156
 10
0.0
 20
0.0
 30
0.0
 70
   128
 71
   282
 72
   281
 73
  -303
 74
  -282
  0
VERTEX
  5
48E
  8
0
 62
   156
 10
0.0
 20
0.0
 30
0.0
 70
   128
 71
   304
 72
   305
 73
  -283
 74
  -304
  0
VERTEX
  5
48F
  8
0
 62
   156
 10
0.0
 20
0.0
 30
0.0
 70
   128
 71
   283
 72
   282
 73
  -304
 74
  -283
  0
VERTEX
  5
490
  8
0
 62
   156
 10
0.0
 20
0.0
 30
0.0
 70
   128
 71
   305
 72
   306
 73
  -284
 74
  -305
  0
VERTEX
  5
491
  8
0
 62
   156
 10
0.0
 20
0.0
 30
0.0
 70
   128
 71
   284
 72
   283
 73
  -305
 74
  -284
  0
VERTEX
  5
492
  8
0
 62
   156
 10
0.0
 20
0.0
 30
0.0
 70
   128
 71
   306
 72
   307
 73
  -285
 74
  -306
  0
VERTEX
  5
493
  8
0
 62
   156
 10
0.0
 20
0.0
 30
0.0
 70
   128
 71
   285
 72
   284
 73
  -306
 74
  -285
  0
VERTEX
  5
494
  8
0
 62
   156
 10
0.0
 20
0.0
 30
0.0
 70
   128
 71
   307
 72
   308
 73
  -286
 74
  -307
  0
VERTEX
  5
495
  8
0
 62
   156
 10
0.0
 20
0.0
 30
0.0
 70
   128
 71
   286
 72
   285
 73
  -307
 74
  -286
  0
VERTEX
  5
496
  8
0
 62
   156
 10
0.0
 20
0.0
 30
0.0
 70
   128
 71
   308
 72
   309
 73
  -287
 74
  -308
  0
VERTEX
  5
497
  8
0
 62
   156
 10
0.0
 20
0.0
 30
0.0
 70
   128
 71
   287
 72
   286
 73
  -308
 74
  -287
  0
VERTEX
  5
498
  8
0
 62
   156
 10
0.0
 20
0.0
 30
0.0
 70
   128
 71
   309
 72
   288
 73
  -266
 74
  -309
  0
VERTEX
  5
499
  8
0
 62
   156
 10
0.0
 20
0.0
 30
0.0
 70
   128
 71
   266
 72
   287
 73
  -309
 74
  -266
  0
VERTEX
  5
49A
  8
0
 62
   156
 10
0.0
 20
0.0
 30
0.0
 70
   128
 71
  -310
 72
   363
 73
  -362
 74
  -310
  0
VERTEX
  5
49B
  8
0
 62
   156
 10
0.0
 20
0.0
 30
0.0
 70
   128
 71
  -310
 72
   364
 73
  -363
 74
  -310
  0
VERTEX
  5
49C
  8
0
 62
   156
 10
0.0
 20
0.0
 30
0.0
 70
   128
 71
  -310
 72
   365
 73
  -364
 74
  -310
  0
VERTEX
  5
49D
  8
0
 62
   156
 10
0.0
 20
0.0
 30
0.0
 70
   128
 71
  -310
 72
   366
 73
  -365
 74
  -310
  0
VERTEX
  5
49E
  8
0
 62
   156
 10
0.0
 20
0.0
 30
0.0
 70
   128
 71
  -310
 72
   367
 73
  -366
 74
  -310
  0
VERTEX
  5
49F
  8
0
 62
   156
 10
0.0
 20
0.0
 30
0.0
 70
   128
 71
  -310
 72
   368
 73
  -367
 74
  -310
  0
VERTEX
  5
4A0
  8
0
 62
   156
 10
0.0
 20
0.0
 30
0.0
 70
   128
 71
  -310
 72
   369
 73
  -368
 74
  -310
  0
VERTEX
  5
4A1
  8
0
 62
   156
 10
0.0
 20
0.0
 30
0.0
 70
   128
 71
  -310
 72
   370
 73
  -369
 74
  -310
  0
VERTEX
  5
4A2
  8
0
 62
   156
 10
0.0
 20
0.0
 30
0.0
 70
   128
 71
  -310
 72
   371
 73
  -370
 74
  -310
  0
VERTEX
  5
4A3
  8
0
 62
   156
 10
0.0
 20
0.0
 30
0.0
 70
   128
 71
  -310
 72
   372
 73
  -371
 74
  -310
  0
VERTEX
  5
4A4
  8
0
 62
   156
 10
0.0
 20
0.0
 30
0.0
 70
   128
 71
  -310
 72
   373
 73
  -372
 74
  -310
  0
VERTEX
  5
4A5
  8
0
 62
   156
 10
0.0
 20
0.0
 30
0.0
 70
   128
 71
  -310
 72
   362
 73
  -373
 74
  -310
  0
VERTEX
  5
4A6
  8
0
 62
   156
 10
0.0
 20
0.0
 30
0.0
 70
   128
 71
  -311
 72
   324
 73
   323
 74
  -311
  0
VERTEX
  5
4A7
  8
0
 62
   156
 10
0.0
 20
0.0
 30
0.0
 70
   128
 71
   311
 72
   312
 73
  -324
 74
  -311
  0
VERTEX
  5
4A8
  8
0
 62
   156
 10
0.0
 20
0.0
 30
0.0
 70
   128
 71
  -312
 72
   325
 73
   324
 74
  -312
  0
VERTEX
  5
4A9
  8
0
 62
   156
 10
0.0
 20
0.0
 30
0.0
 70
   128
 71
   312
 72
   313
 73
  -325
 74
  -312
  0
VERTEX
  5
4AA
  8
0
 62
   156
 10
0.0
 20
0.0
 30
0.0
 70
   128
 71
  -313
 72
   326
 73
   325
 74
  -313
  0
VERTEX
  5
4AB
  8
0
 62
   156
 10
0.0
 20
0.0
 30
0.0
 70
   128
 71
   313
 72
   314
 73
  -326
 74
  -313
  0
VERTEX
  5
4AC
  8
0
 62
   156
 10
0.0
 20
0.0
 30
0.0
 70
   128
 71
  -314
 72
   327
 73
   326
 74
  -314
  0
VERTEX
  5
4AD
  8
0
 62
   156
 10
0.0
 20
0.0
 30
0.0
 70
   128
 71
   314
 72
   315
 73
  -327
 74
  -314
  0
VERTEX
  5
4AE
  8
0
 62
   156
 10
0.0
 20
0.0
 30
0.0
 70
   128
 71
  -315
 72
   328
 73
   327
 74
  -315
  0
VERTEX
  5
4AF
  8
0
 62
   156
 10
0.0
 20
0.0
 30
0.0
 70
   128
 71
   315
 72
   316
 73
  -328
 74
  -315
  0
VERTEX
  5
4B0
  8
0
 62
   156
 10
0.0
 20
0.0
 30
0.0
 70
   128
 71
  -316
 72
   329
 73
   328
 74
  -316
  0
VERTEX
  5
4B1
  8
0
 62
   156
 10
0.0
 20
0.0
 30
0.0
 70
   128
 71
   316
 72
   317
 73
  -329
 74
  -316
  0
VERTEX
  5
4B2
  8
0
 62
   156
 10
0.0
 20
0.0
 30
0.0
 70
   128
 71
  -317
 72
   330
 73
   329
 74
  -317
  0
VERTEX
  5
4B3
  8
0
 62
   156
 10
0.0
 20
0.0
 30
0.0
 70
   128
 71
   317
 72
   318
 73
  -330
 74
  -317
  0
VERTEX
  5
4B4
  8
0
 62
   156
 10
0.0
 20
0.0
 30
0.0
 70
   128
 71
  -318
 72
   331
 73
   330
 74
  -318
  0
VERTEX
  5
4B5
  8
0
 62
   156
 10
0.0
 20
0.0
 30
0.0
 70
   128
 71
   318
 72
   319
 73
  -331
 74
  -318
  0
VERTEX
  5
4B6
  8
0
 62
   156
 10
0.0
 20
0.0
 30
0.0
 70
   128
 71
  -319
 72
   332
 73
   331
 74
  -319
  0
VERTEX
  5
4B7
  8
0
 62
   156
 10
0.0
 20
0.0
 30
0.0
 70
   128
 71
   319
 72
   320
 73
  -332
 74
  -319
  0
VERTEX
  5
4B8
  8
0
 62
   156
 10
0.0
 20
0.0
 30
0.0
 70
   128
 71
  -320
 72
   333
 73
   332
 74
  -320
  0
VERTEX
  5
4B9
  8
0
 62
   156
 10
0.0
 20
0.0
 30
0.0
 70
   128
 71
   320
 72
   321
 73
  -333
 74
  -320
  0
VERTEX
  5
4BA
  8
0
 62
   156
 10
0.0
 20
0.0
 30
0.0
 70
   128
 71
  -321
 72
   334
 73
   333
 74
  -321
  0
VERTEX
  5
4BB
  8
0
 62
   156
 10
0.0
 20
0.0
 30
0.0
 70
   128
 71
   321
 72
   322
 73
  -334
 74
  -321
  0
VERTEX
  5
4BC
  8
0
 62
   156
 10
0.0
 20
0.0
 30
0.0
 70
   128
 71
  -322
 72
   323
 73
   334
 74
  -322
  0
VERTEX
  5
4BD
  8
0
 62
   156
 10
0.0
 20
0.0
 30
0.0
 70
   128
 71
   322
 72
   311
 73
  -323
 74
  -322
  0
VERTEX
  5
4BE
  8
0
 62
   156
 10
0.0
 20
0.0
 30
0.0
 70
   128
 71
  -335
 72
   374
 73
  -375
 74
  -335
  0
VERTEX
  5
4BF
  8
0
 62
   156
 10
0.0
 20
0.0
 30
0.0
 70
   128
 71
  -335
 72
   375
 73
  -376
 74
  -335
  0
VERTEX
  5
4C0
  8
0
 62
   156
 10
0.0
 20
0.0
 30
0.0
 70
   128
 71
  -335
 72
   376
 73
  -377
 74
  -335
  0
VERTEX
  5
4C1
  8
0
 62
   156
 10
0.0
 20
0.0
 30
0.0
 70
   128
 71
  -335
 72
   377
 73
  -378
 74
  -335
  0
VERTEX
  5
4C2
  8
0
 62
   156
 10
0.0
 20
0.0
 30
0.0
 70
   128
 71
  -335
 72
   378
 73
  -379
 74
  -335
  0
VERTEX
  5
4C3
  8
0
 62
   156
 10
0.0
 20
0.0
 30
0.0
 70
   128
 71
  -335
 72
   379
 73
  -380
 74
  -335
  0
VERTEX
  5
4C4
  8
0
 62
   156
 10
0.0
 20
0.0
 30
0.0
 70
   128
 71
  -335
 72
   380
 73
  -381
 74
  -335
  0
VERTEX
  5
4C5
  8
0
 62
   156
 10
0.0
 20
0.0
 30
0.0
 70
   128
 71
  -335
 72
   381
 73
  -382
 74
  -335
  0
VERTEX
  5
4C6
  8
0
 62
   156
 10
0.0
 20
0.0
 30
0.0
 70
   128
 71
  -335
 72
   382
 73
  -383
 74
  -335
  0
VERTEX
  5
4C7
  8
0
 62
   156
 10
0.0
 20
0.0
 30
0.0
 70
   128
 71
  -335
 72
   383
 73
  -384
 74
  -335
  0
VERTEX
  5
4C8
  8
0
 62
   156
 10
0.0
 20
0.0
 30
0.0
 70
   128
 71
  -335
 72
   384
 73
  -385
 74
  -335
  0
VERTEX
  5
4C9
  8
0
 62
   156
 10
0.0
 20
0.0
 30
0.0
 70
   128
 71
  -335
 72
   385
 73
  -374
 74
  -335
  0
VERTEX
  5
4CA
  8
0
 62
   156
 10
0.0
 20
0.0
 30
0.0
 70
   128
 71
  -336
 72
   387
 73
  -386
 74
  -336
  0
VERTEX
  5
4CB
  8
0
 62
   156
 10
0.0
 20
0.0
 30
0.0
 70
   128
 71
  -336
 72
   388
 73
  -387
 74
  -336
  0
VERTEX
  5
4CC
  8
0
 62
   156
 10
0.0
 20
0.0
 30
0.0
 70
   128
 71
  -336
 72
   389
 73
  -388
 74
  -336
  0
VERTEX
  5
4CD
  8
0
 62
   156
 10
0.0
 20
0.0
 30
0.0
 70
   128
 71
  -336
 72
   390
 73
  -389
 74
  -336
  0
VERTEX
  5
4CE
  8
0
 62
   156
 10
0.0
 20
0.0
 30
0.0
 70
   128
 71
  -336
 72
   391
 73
  -390
 74
  -336
  0
VERTEX
  5
4CF
  8
0
 62
   156
 10
0.0
 20
0.0
 30
0.0
 70
   128
 71
  -336
 72
   392
 73
  -391
 74
  -336
  0
VERTEX
  5
4D0
  8
0
 62
   156
 10
0.0
 20
0.0
 30
0.0
 70
   128
 71
  -336
 72
   393
 73
  -392
 74
  -336
  0
VERTEX
  5
4D1
  8
0
 62
   156
 10
0.0
 20
0.0
 30
0.0
 70
   128
 71
  -336
 72
   394
 73
  -393
 74
  -336
  0
VERTEX
  5
4D2
  8
0
 62
   156
 10
0.0
 20
0.0
 30
0.0
 70
   128
 71
  -336
 72
   395
 73
  -394
 74
  -336
  0
VERTEX
  5
4D3
  8
0
 62
   156
 10
0.0
 20
0.0
 30
0.0
 70
   128
 71
  -336
 72
   396
 73
  -395
 74
  -336
  0
VERTEX
  5
4D4
  8
0
 62
   156
 10
0.0
 20
0.0
 30
0.0
 70
   128
 71
  -336
 72
   397
 73
  -396
 74
  -336
  0
VERTEX
  5
4D5
  8
0
 62
   156
 10
0.0
 20
0.0
 30
0.0
 70
   128
 71
  -336
 72
   386
 73
  -397
 74
  -336
  0
VERTEX
  5
4D6
  8
0
 62
   156
 10
0.0
 20
0.0
 30
0.0
 70
   128
 71
  -337
 72
   350
 73
   349
 74
  -337
  0
VERTEX
  5
4D7
  8
0
 62
   156
 10
0.0
 20
0.0
 30
0.0
 70
   128
 71
   337
 72
   338
 73
  -350
 74
  -337
  0
VERTEX
  5
4D8
  8
0
 62
   156
 10
0.0
 20
0.0
 30
0.0
 70
   128
 71
  -338
 72
   351
 73
   350
 74
  -338
  0
VERTEX
  5
4D9
  8
0
 62
   156
 10
0.0
 20
0.0
 30
0.0
 70
   128
 71
   338
 72
   339
 73
  -351
 74
  -338
  0
VERTEX
  5
4DA
  8
0
 62
   156
 10
0.0
 20
0.0
 30
0.0
 70
   128
 71
  -339
 72
   352
 73
   351
 74
  -339
  0
VERTEX
  5
4DB
  8
0
 62
   156
 10
0.0
 20
0.0
 30
0.0
 70
   128
 71
   339
 72
   340
 73
  -352
 74
  -339
  0
VERTEX
  5
4DC
  8
0
 62
   156
 10
0.0
 20
0.0
 30
0.0
 70
   128
 71
  -340
 72
   353
 73
   352
 74
  -340
  0
VERTEX
  5
4DD
  8
0
 62
   156
 10
0.0
 20
0.0
 30
0.0
 70
   128
 71
   340
 72
   341
 73
  -353
 74
  -340
  0
VERTEX
  5
4DE
  8
0
 62
   156
 10
0.0
 20
0.0
 30
0.0
 70
   128
 71
  -341
 72
   354
 73
   353
 74
  -341
  0
VERTEX
  5
4DF
  8
0
 62
   156
 10
0.0
 20
0.0
 30
0.0
 70
   128
 71
   341
 72
   342
 73
  -354
 74
  -341
  0
VERTEX
  5
4E0
  8
0
 62
   156
 10
0.0
 20
0.0
 30
0.0
 70
   128
 71
  -342
 72
   355
 73
   354
 74
  -342
  0
VERTEX
  5
4E1
  8
0
 62
   156
 10
0.0
 20
0.0
 30
0.0
 70
   128
 71
   342
 72
   343
 73
  -355
 74
  -342
  0
VERTEX
  5
4E2
  8
0
 62
   156
 10
0.0
 20
0.0
 30
0.0
 70
   128
 71
  -343
 72
   356
 73
   355
 74
  -343
  0
VERTEX
  5
4E3
  8
0
 62
   156
 10
0.0
 20
0.0
 30
0.0
 70
   128
 71
   343
 72
   344
 73
  -356
 74
  -343
  0
VERTEX
  5
4E4
  8
0
 62
   156
 10
0.0
 20
0.0
 30
0.0
 70
   128
 71
  -344
 72
   357
 73
   356
 74
  -344
  0
VERTEX
  5
4E5
  8
0
 62
   156
 10
0.0
 20
0.0
 30
0.0
 70
   128
 71
   344
 72
   345
 73
  -357
 74
  -344
  0
VERTEX
  5
4E6
  8
0
 62
   156
 10
0.0
 20
0.0
 30
0.0
 70
   128
 71
  -345
 72
   358
 73
   357
 74
  -345
  0
VERTEX
  5
4E7
  8
0
 62
   156
 10
0.0
 20
0.0
 30
0.0
 70
   128
 71
   345
 72
   346
 73
  -358
 74
  -345
  0
VERTEX
  5
4E8
  8
0
 62
   156
 10
0.0
 20
0.0
 30
0.0
 70
   128
 71
  -346
 72
   359
 73
   358
 74
  -346
  0
VERTEX
  5
4E9
  8
0
 62
   156
 10
0.0
 20
0.0
 30
0.0
 70
   128
 71
   346
 72
   347
 73
  -359
 74
  -346
  0
VERTEX
  5
4EA
  8
0
 62
   156
 10
0.0
 20
0.0
 30
0.0
 70
   128
 71
  -347
 72
   360
 73
   359
 74
  -347
  0
VERTEX
  5
4EB
  8
0
 62
   156
 10
0.0
 20
0.0
 30
0.0
 70
   128
 71
   347
 72
   348
 73
  -360
 74
  -347
  0
VERTEX
  5
4EC
  8
0
 62
   156
 10
0.0
 20
0.0
 30
0.0
 70
   128
 71
  -348
 72
   349
 73
   360
 74
  -348
  0
VERTEX
  5
4ED
  8
0
 62
   156
 10
0.0
 20
0.0
 30
0.0
 70
   128
 71
   348
 72
   337
 73
  -349
 74
  -348
  0
VERTEX
  5
4EE
  8
0
 62
   156
 10
0.0
 20
0.0
 30
0.0
 70
   128
 71
  -361
 72
   398
 73
  -399
 74
  -361
  0
VERTEX
  5
4EF
  8
0
 62
   156
 10
0.0
 20
0.0
 30
0.0
 70
   128
 71
  -361
 72
   399
 73
  -400
 74
  -361
  0
VERTEX
  5
4F0
  8
0
 62
   156
 10
0.0
 20
0.0
 30
0.0
 70
   128
 71
  -361
 72
   400
 73
  -401
 74
  -361
  0
VERTEX
  5
4F1
  8
0
 62
   156
 10
0.0
 20
0.0
 30
0.0
 70
   128
 71
  -361
 72
   401
 73
  -402
 74
  -361
  0
VERTEX
  5
4F2
  8
0
 62
   156
 10
0.0
 20
0.0
 30
0.0
 70
   128
 71
  -361
 72
   402
 73
  -403
 74
  -361
  0
VERTEX
  5
4F3
  8
0
 62
   156
 10
0.0
 20
0.0
 30
0.0
 70
   128
 71
  -361
 72
   403
 73
  -404
 74
  -361
  0
VERTEX
  5
4F4
  8
0
 62
   156
 10
0.0
 20
0.0
 30
0.0
 70
   128
 71
  -361
 72
   404
 73
  -405
 74
  -361
  0
VERTEX
  5
4F5
  8
0
 62
   156
 10
0.0
 20
0.0
 30
0.0
 70
   128
 71
  -361
 72
   405
 73
  -406
 74
  -361
  0
VERTEX
  5
4F6
  8
0
 62
   156
 10
0.0
 20
0.0
 30
0.0
 70
   128
 71
  -361
 72
   406
 73
  -407
 74
  -361
  0
VERTEX
  5
4F7
  8
0
 62
   156
 10
0.0
 20
0.0
 30
0.0
 70
   128
 71
  -361
 72
   407
 73
  -408
 74
  -361
  0
VERTEX
  5
4F8
  8
0
 62
   156
 10
0.0
 20
0.0
 30
0.0
 70
   128
 71
  -361
 72
   408
 73
  -409
 74
  -361
  0
VERTEX
  5
4F9
  8
0
 62
   156
 10
0.0
 20
0.0
 30
0.0
 70
   128
 71
  -361
 72
   409
 73
  -398
 74
  -361
  0
VERTEX
  5
4FA
  8
0
 62
   156
 10
0.0
 20
0.0
 30
0.0
 70
   128
 71
   312
 72
   311
 73
  -362
 74
  -312
  0
VERTEX
  5
4FB
  8
0
 62
   156
 10
0.0
 20
0.0
 30
0.0
 70
   128
 71
   362
 72
   363
 73
  -312
 74
  -362
  0
VERTEX
  5
4FC
  8
0
 62
   156
 10
0.0
 20
0.0
 30
0.0
 70
   128
 71
   313
 72
   312
 73
  -363
 74
  -313
  0
VERTEX
  5
4FD
  8
0
 62
   156
 10
0.0
 20
0.0
 30
0.0
 70
   128
 71
   363
 72
   364
 73
  -313
 74
  -363
  0
VERTEX
  5
4FE
  8
0
 62
   156
 10
0.0
 20
0.0
 30
0.0
 70
   128
 71
   314
 72
   313
 73
  -364
 74
  -314
  0
VERTEX
  5
4FF
  8
0
 62
   156
 10
0.0
 20
0.0
 30
0.0
 70
   128
 71
   364
 72
   365
 73
  -314
 74
  -364
  0
VERTEX
  5
500
  8
0
 62
   156
 10
0.0
 20
0.0
 30
0.0
 70
   128
 71
   315
 72
   314
 73
  -365
 74
  -315
  0
VERTEX
  5
501
  8
0
 62
   156
 10
0.0
 20
0.0
 30
0.0
 70
   128
 71
   365
 72
   366
 73
  -315
 74
  -365
  0
VERTEX
  5
502
  8
0
 62
   156
 10
0.0
 20
0.0
 30
0.0
 70
   128
 71
   316
 72
   315
 73
  -366
 74
  -316
  0
VERTEX
  5
503
  8
0
 62
   156
 10
0.0
 20
0.0
 30
0.0
 70
   128
 71
   366
 72
   367
 73
  -316
 74
  -366
  0
VERTEX
  5
504
  8
0
 62
   156
 10
0.0
 20
0.0
 30
0.0
 70
   128
 71
   317
 72
   316
 73
  -367
 74
  -317
  0
VERTEX
  5
505
  8
0
 62
   156
 10
0.0
 20
0.0
 30
0.0
 70
   128
 71
   367
 72
   368
 73
  -317
 74
  -367
  0
VERTEX
  5
506
  8
0
 62
   156
 10
0.0
 20
0.0
 30
0.0
 70
   128
 71
   318
 72
   317
 73
  -368
 74
  -318
  0
VERTEX
  5
507
  8
0
 62
   156
 10
0.0
 20
0.0
 30
0.0
 70
   128
 71
   368
 72
   369
 73
  -318
 74
  -368
  0
VERTEX
  5
508
  8
0
 62
   156
 10
0.0
 20
0.0
 30
0.0
 70
   128
 71
   319
 72
   318
 73
  -369
 74
  -319
  0
VERTEX
  5
509
  8
0
 62
   156
 10
0.0
 20
0.0
 30
0.0
 70
   128
 71
   369
 72
   370
 73
  -319
 74
  -369
  0
VERTEX
  5
50A
  8
0
 62
   156
 10
0.0
 20
0.0
 30
0.0
 70
   128
 71
   320
 72
   319
 73
  -370
 74
  -320
  0
VERTEX
  5
50B
  8
0
 62
   156
 10
0.0
 20
0.0
 30
0.0
 70
   128
 71
   370
 72
   371
 73
  -320
 74
  -370
  0
VERTEX
  5
50C
  8
0
 62
   156
 10
0.0
 20
0.0
 30
0.0
 70
   128
 71
   321
 72
   320
 73
  -371
 74
  -321
  0
VERTEX
  5
50D
  8
0
 62
   156
 10
0.0
 20
0.0
 30
0.0
 70
   128
 71
   371
 72
   372
 73
  -321
 74
  -371
  0
VERTEX
  5
50E
  8
0
 62
   156
 10
0.0
 20
0.0
 30
0.0
 70
   128
 71
   322
 72
   321
 73
  -372
 74
  -322
  0
VERTEX
  5
50F
  8
0
 62
   156
 10
0.0
 20
0.0
 30
0.0
 70
   128
 71
   372
 72
   373
 73
  -322
 74
  -372
  0
VERTEX
  5
510
  8
0
 62
   156
 10
0.0
 20
0.0
 30
0.0
 70
   128
 71
   311
 72
   322
 73
  -373
 74
  -311
  0
VERTEX
  5
511
  8
0
 62
   156
 10
0.0
 20
0.0
 30
0.0
 70
   128
 71
   373
 72
   362
 73
  -311
 74
  -373
  0
VERTEX
  5
512
  8
0
 62
   156
 10
0.0
 20
0.0
 30
0.0
 70
   128
 71
   323
 72
   324
 73
  -375
 74
  -323
  0
VERTEX
  5
513
  8
0
 62
   156
 10
0.0
 20
0.0
 30
0.0
 70
   128
 71
   375
 72
   374
 73
  -323
 74
  -375
  0
VERTEX
  5
514
  8
0
 62
   156
 10
0.0
 20
0.0
 30
0.0
 70
   128
 71
   324
 72
   325
 73
  -376
 74
  -324
  0
VERTEX
  5
515
  8
0
 62
   156
 10
0.0
 20
0.0
 30
0.0
 70
   128
 71
   376
 72
   375
 73
  -324
 74
  -376
  0
VERTEX
  5
516
  8
0
 62
   156
 10
0.0
 20
0.0
 30
0.0
 70
   128
 71
   325
 72
   326
 73
  -377
 74
  -325
  0
VERTEX
  5
517
  8
0
 62
   156
 10
0.0
 20
0.0
 30
0.0
 70
   128
 71
   377
 72
   376
 73
  -325
 74
  -377
  0
VERTEX
  5
518
  8
0
 62
   156
 10
0.0
 20
0.0
 30
0.0
 70
   128
 71
   326
 72
   327
 73
  -378
 74
  -326
  0
VERTEX
  5
519
  8
0
 62
   156
 10
0.0
 20
0.0
 30
0.0
 70
   128
 71
   378
 72
   377
 73
  -326
 74
  -378
  0
VERTEX
  5
51A
  8
0
 62
   156
 10
0.0
 20
0.0
 30
0.0
 70
   128
 71
   327
 72
   328
 73
  -379
 74
  -327
  0
VERTEX
  5
51B
  8
0
 62
   156
 10
0.0
 20
0.0
 30
0.0
 70
   128
 71
   379
 72
   378
 73
  -327
 74
  -379
  0
VERTEX
  5
51C
  8
0
 62
   156
 10
0.0
 20
0.0
 30
0.0
 70
   128
 71
   328
 72
   329
 73
  -380
 74
  -328
  0
VERTEX
  5
51D
  8
0
 62
   156
 10
0.0
 20
0.0
 30
0.0
 70
   128
 71
   380
 72
   379
 73
  -328
 74
  -380
  0
VERTEX
  5
51E
  8
0
 62
   156
 10
0.0
 20
0.0
 30
0.0
 70
   128
 71
   329
 72
   330
 73
  -381
 74
  -329
  0
VERTEX
  5
51F
  8
0
 62
   156
 10
0.0
 20
0.0
 30
0.0
 70
   128
 71
   381
 72
   380
 73
  -329
 74
  -381
  0
VERTEX
  5
520
  8
0
 62
   156
 10
0.0
 20
0.0
 30
0.0
 70
   128
 71
   330
 72
   331
 73
  -382
 74
  -330
  0
VERTEX
  5
521
  8
0
 62
   156
 10
0.0
 20
0.0
 30
0.0
 70
   128
 71
   382
 72
   381
 73
  -330
 74
  -382
  0
VERTEX
  5
522
  8
0
 62
   156
 10
0.0
 20
0.0
 30
0.0
 70
   128
 71
   331
 72
   332
 73
  -383
 74
  -331
  0
VERTEX
  5
523
  8
0
 62
   156
 10
0.0
 20
0.0
 30
0.0
 70
   128
 71
   383
 72
   382
 73
  -331
 74
  -383
  0
VERTEX
  5
524
  8
0
 62
   156
 10
0.0
 20
0.0
 30
0.0
 70
   128
 71
   332
 72
   333
 73
  -384
 74
  -332
  0
VERTEX
  5
525
  8
0
 62
   156
 10
0.0
 20
0.0
 30
0.0
 70
   128
 71
   384
 72
   383
 73
  -332
 74
  -384
  0
VERTEX
  5
526
  8
0
 62
   156
 10
0.0
 20
0.0
 30
0.0
 70
   128
 71
   333
 72
   334
 73
  -385
 74
  -333
  0
VERTEX
  5
527
  8
0
 62
   156
 10
0.0
 20
0.0
 30
0.0
 70
   128
 71
   385
 72
   384
 73
  -333
 74
  -385
  0
VERTEX
  5
528
  8
0
 62
   156
 10
0.0
 20
0.0
 30
0.0
 70
   128
 71
   334
 72
   323
 73
  -374
 74
  -334
  0
VERTEX
  5
529
  8
0
 62
   156
 10
0.0
 20
0.0
 30
0.0
 70
   128
 71
   374
 72
   385
 73
  -334
 74
  -374
  0
VERTEX
  5
52A
  8
0
 62
   156
 10
0.0
 20
0.0
 30
0.0
 70
   128
 71
   338
 72
   337
 73
  -386
 74
  -338
  0
VERTEX
  5
52B
  8
0
 62
   156
 10
0.0
 20
0.0
 30
0.0
 70
   128
 71
   386
 72
   387
 73
  -338
 74
  -386
  0
VERTEX
  5
52C
  8
0
 62
   156
 10
0.0
 20
0.0
 30
0.0
 70
   128
 71
   339
 72
   338
 73
  -387
 74
  -339
  0
VERTEX
  5
52D
  8
0
 62
   156
 10
0.0
 20
0.0
 30
0.0
 70
   128
 71
   387
 72
   388
 73
  -339
 74
  -387
  0
VERTEX
  5
52E
  8
0
 62
   156
 10
0.0
 20
0.0
 30
0.0
 70
   128
 71
   340
 72
   339
 73
  -388
 74
  -340
  0
VERTEX
  5
52F
  8
0
 62
   156
 10
0.0
 20
0.0
 30
0.0
 70
   128
 71
   388
 72
   389
 73
  -340
 74
  -388
  0
VERTEX
  5
530
  8
0
 62
   156
 10
0.0
 20
0.0
 30
0.0
 70
   128
 71
   341
 72
   340
 73
  -389
 74
  -341
  0
VERTEX
  5
531
  8
0
 62
   156
 10
0.0
 20
0.0
 30
0.0
 70
   128
 71
   389
 72
   390
 73
  -341
 74
  -389
  0
VERTEX
  5
532
  8
0
 62
   156
 10
0.0
 20
0.0
 30
0.0
 70
   128
 71
   342
 72
   341
 73
  -390
 74
  -342
  0
VERTEX
  5
533
  8
0
 62
   156
 10
0.0
 20
0.0
 30
0.0
 70
   128
 71
   390
 72
   391
 73
  -342
 74
  -390
  0
VERTEX
  5
534
  8
0
 62
   156
 10
0.0
 20
0.0
 30
0.0
 70
   128
 71
   343
 72
   342
 73
  -391
 74
  -343
  0
VERTEX
  5
535
  8
0
 62
   156
 10
0.0
 20
0.0
 30
0.0
 70
   128
 71
   391
 72
   392
 73
  -343
 74
  -391
  0
VERTEX
  5
536
  8
0
 62
   156
 10
0.0
 20
0.0
 30
0.0
 70
   128
 71
   344
 72
   343
 73
  -392
 74
  -344
  0
VERTEX
  5
537
  8
0
 62
   156
 10
0.0
 20
0.0
 30
0.0
 70
   128
 71
   392
 72
   393
 73
  -344
 74
  -392
  0
VERTEX
  5
538
  8
0
 62
   156
 10
0.0
 20
0.0
 30
0.0
 70
   128
 71
   345
 72
   344
 73
  -393
 74
  -345
  0
VERTEX
  5
539
  8
0
 62
   156
 10
0.0
 20
0.0
 30
0.0
 70
   128
 71
   393
 72
   394
 73
  -345
 74
  -393
  0
VERTEX
  5
53A
  8
0
 62
   156
 10
0.0
 20
0.0
 30
0.0
 70
   128
 71
   346
 72
   345
 73
  -394
 74
  -346
  0
VERTEX
  5
53B
  8
0
 62
   156
 10
0.0
 20
0.0
 30
0.0
 70
   128
 71
   394
 72
   395
 73
  -346
 74
  -394
  0
VERTEX
  5
53C
  8
0
 62
   156
 10
0.0
 20
0.0
 30
0.0
 70
   128
 71
   347
 72
   346
 73
  -395
 74
  -347
  0
VERTEX
  5
53D
  8
0
 62
   156
 10
0.0
 20
0.0
 30
0.0
 70
   128
 71
   395
 72
   396
 73
  -347
 74
  -395
  0
VERTEX
  5
53E
  8
0
 62
   156
 10
0.0
 20
0.0
 30
0.0
 70
   128
 71
   348
 72
   347
 73
  -396
 74
  -348
  0
VERTEX
  5
53F
  8
0
 62
   156
 10
0.0
 20
0.0
 30
0.0
 70
   128
 71
   396
 72
   397
 73
  -348
 74
  -396
  0
VERTEX
  5
540
  8
0
 62
   156
 10
0.0
 20
0.0
 30
0.0
 70
   128
 71
   337
 72
   348
 73
  -397
 74
  -337
  0
VERTEX
  5
541
  8
0
 62
   156
 10
0.0
 20
0.0
 30
0.0
 70
   128
 71
   397
 72
   386
 73
  -337
 74
  -397
  0
VERTEX
  5
542
  8
0
 62
   156
 10
0.0
 20
0.0
 30
0.0
 70
   128
 71
   349
 72
   350
 73
  -399
 74
  -349
  0
VERTEX
  5
543
  8
0
 62
   156
 10
0.0
 20
0.0
 30
0.0
 70
   128
 71
   399
 72
   398
 73
  -349
 74
  -399
  0
VERTEX
  5
544
  8
0
 62
   156
 10
0.0
 20
0.0
 30
0.0
 70
   128
 71
   350
 72
   351
 73
  -400
 74
  -350
  0
VERTEX
  5
545
  8
0
 62
   156
 10
0.0
 20
0.0
 30
0.0
 70
   128
 71
   400
 72
   399
 73
  -350
 74
  -400
  0
VERTEX
  5
546
  8
0
 62
   156
 10
0.0
 20
0.0
 30
0.0
 70
   128
 71
   351
 72
   352
 73
  -401
 74
  -351
  0
VERTEX
  5
547
  8
0
 62
   156
 10
0.0
 20
0.0
 30
0.0
 70
   128
 71
   401
 72
   400
 73
  -351
 74
  -401
  0
VERTEX
  5
548
  8
0
 62
   156
 10
0.0
 20
0.0
 30
0.0
 70
   128
 71
   352
 72
   353
 73
  -402
 74
  -352
  0
VERTEX
  5
549
  8
0
 62
   156
 10
0.0
 20
0.0
 30
0.0
 70
   128
 71
   402
 72
   401
 73
  -352
 74
  -402
  0
VERTEX
  5
54A
  8
0
 62
   156
 10
0.0
 20
0.0
 30
0.0
 70
   128
 71
   353
 72
   354
 73
  -403
 74
  -353
  0
VERTEX
  5
54B
  8
0
 62
   156
 10
0.0
 20
0.0
 30
0.0
 70
   128
 71
   403
 72
   402
 73
  -353
 74
  -403
  0
VERTEX
  5
54C
  8
0
 62
   156
 10
0.0
 20
0.0
 30
0.0
 70
   128
 71
   354
 72
   355
 73
  -404
 74
  -354
  0
VERTEX
  5
54D
  8
0
 62
   156
 10
0.0
 20
0.0
 30
0.0
 70
   128
 71
   404
 72
   403
 73
  -354
 74
  -404
  0
VERTEX
  5
54E
  8
0
 62
   156
 10
0.0
 20
0.0
 30
0.0
 70
   128
 71
   355
 72
   356
 73
  -405
 74
  -355
  0
VERTEX
  5
54F
  8
0
 62
   156
 10
0.0
 20
0.0
 30
0.0
 70
   128
 71
   405
 72
   404
 73
  -355
 74
  -405
  0
VERTEX
  5
550
  8
0
 62
   156
 10
0.0
 20
0.0
 30
0.0
 70
   128
 71
   356
 72
   357
 73
  -406
 74
  -356
  0
VERTEX
  5
551
  8
0
 62
   156
 10
0.0
 20
0.0
 30
0.0
 70
   128
 71
   406
 72
   405
 73
  -356
 74
  -406
  0
VERTEX
  5
552
  8
0
 62
   156
 10
0.0
 20
0.0
 30
0.0
 70
   128
 71
   357
 72
   358
 73
  -407
 74
  -357
  0
VERTEX
  5
553
  8
0
 62
   156
 10
0.0
 20
0.0
 30
0.0
 70
   128
 71
   407
 72
   406
 73
  -357
 74
  -407
  0
VERTEX
  5
554
  8
0
 62
   156
 10
0.0
 20
0.0
 30
0.0
 70
   128
 71
   358
 72
   359
 73
  -408
 74
  -358
  0
VERTEX
  5
555
  8
0
 62
   156
 10
0.0
 20
0.0
 30
0.0
 70
   128
 71
   408
 72
   407
 73
  -358
 74
  -408
  0
VERTEX
  5
556
  8
0
 62
   156
 10
0.0
 20
0.0
 30
0.0
 70
   128
 71
   359
 72
   360
 73
  -409
 74
  -359
  0
VERTEX
  5
557
  8
0
 62
   156
 10
0.0
 20
0.0
 30
0.0
 70
   128
 71
   409
 72
   408
 73
  -359
 74
  -409
  0
VERTEX
  5
558
  8
0
 62
   156
 10
0.0
 20
0.0
 30
0.0
 70
   128
 71
   360
 72
   349
 73
  -398
 74
  -360
  0
VERTEX
  5
559
  8
0
 62
   156
 10
0.0
 20
0.0
 30
0.0
 70
   128
 71
   398
 72
   409
 73
  -360
 74
  -398
  0
SEQEND
  5
55A
  8
0
 62
   156
  0
ENDSEC
  0
EOF
