  0
SECTION
  2
HEADER
  9
$ACADVER
  1
AC1009
  9
$INSBASE
 10
502.6271988589678017
 20
89.8831971116037209
 30
0.0
  9
$EXTMIN
 10
498.3561214508937951
 20
87.2423763449852459
 30
-0.0000000000000058
  9
$EXTMAX
 10
502.6514347246464922
 20
91.831277862315801
 30
0.0000000000000104
  9
$LIMMIN
 10
0.0
 20
0.0
  9
$LIMMAX
 10
11.6929133858000007
 20
8.2677165353999982
  9
$ORTHOMODE
 70
     0
  9
$REGENMODE
 70
     1
  9
$FILLMODE
 70
     1
  9
$QTEXTMODE
 70
     0
  9
$MIRRTEXT
 70
     0
  9
$DRAGMODE
 70
     2
  9
$LTSCALE
 40
0.6431102362
  9
$OSMODE
 70
  4095
  9
$ATTMODE
 70
     1
  9
$TEXTSIZE
 40
0.2
  9
$TRACEWID
 40
0.05
  9
$TEXTSTYLE
  7
STANDARD
  9
$CLAYER
  8
0
  9
$CELTYPE
  6
BYLAYER
  9
$CECOLOR
 62
   256
  9
$DIMSCALE
 40
1.0
  9
$DIMASZ
 40
0.1875
  9
$DIMEXO
 40
0.0625
  9
$DIMDLI
 40
0.4443307087
  9
$DIMRND
 40
0.0
  9
$DIMDLE
 40
0.0
  9
$DIMEXE
 40
0.125
  9
$DIMTP
 40
0.01
  9
$DIMTM
 40
0.01
  9
$DIMTXT
 40
1.0
  9
$DIMCEN
 40
0.1052362205
  9
$DIMTSZ
 40
0.0
  9
$DIMTOL
 70
     1
  9
$DIMLIM
 70
     0
  9
$DIMTIH
 70
     0
  9
$DIMTOH
 70
     1
  9
$DIMSE1
 70
     0
  9
$DIMSE2
 70
     0
  9
$DIMTAD
 70
     0
  9
$DIMZIN
 70
     0
  9
$DIMBLK
  1

  9
$DIMASO
 70
     1
  9
$DIMSHO
 70
     1
  9
$DIMPOST
  1
\X
  9
$DIMAPOST
  1

  9
$DIMALT
 70
     1
  9
$DIMALTD
 70
     2
  9
$DIMALTF
 40
25.3999999999999986
  9
$DIMLFAC
 40
1.0
  9
$DIMTOFL
 70
     0
  9
$DIMTVP
 40
0.0
  9
$DIMTIX
 70
     0
  9
$DIMSOXD
 70
     0
  9
$DIMSAH
 70
     0
  9
$DIMBLK1
  1

  9
$DIMBLK2
  1

  9
$DIMSTYLE
  2
STANDARD
  9
$DIMCLRD
 70
     0
  9
$DIMCLRE
 70
     0
  9
$DIMCLRT
 70
     0
  9
$DIMTFAC
 40
1.0
  9
$DIMGAP
 40
0.09
  9
$LUNITS
 70
     2
  9
$LUPREC
 70
     4
  9
$SKETCHINC
 40
0.1
  9
$FILLETRAD
 40
0.0
  9
$AUNITS
 70
     0
  9
$AUPREC
 70
     0
  9
$MENU
  1
.
  9
$ELEVATION
 40
0.0
  9
$PELEVATION
 40
0.0
  9
$THICKNESS
 40
0.0
  9
$LIMCHECK
 70
     0
  9
$BLIPMODE
 70
     0
  9
$CHAMFERA
 40
0.0
  9
$CHAMFERB
 40
0.0
  9
$SKPOLY
 70
     0
  9
$TDCREATE
 40
2458172.5207638889551163
  9
$TDUPDATE
 40
2459572.4956134259700775
  9
$TDINDWG
 40
0.312058669
  9
$TDUSRTIMER
 40
0.312058669
  9
$USRTIMER
 70
     1
  9
$ANGBASE
 50
0.0
  9
$ANGDIR
 70
     0
  9
$PDMODE
 70
     0
  9
$PDSIZE
 40
0.3125
  9
$PLINEWID
 40
0.0
  9
$COORDS
 70
     1
  9
$SPLFRAME
 70
     0
  9
$SPLINETYPE
 70
     6
  9
$SPLINESEGS
 70
     8
  9
$ATTDIA
 70
     1
  9
$ATTREQ
 70
     1
  9
$HANDLING
 70
     1
  9
$HANDSEED
  5
8F9B
  9
$SURFTAB1
 70
     6
  9
$SURFTAB2
 70
     6
  9
$SURFTYPE
 70
     6
  9
$SURFU
 70
     6
  9
$SURFV
 70
     6
  9
$UCSNAME
  2

  9
$UCSORG
 10
0.0
 20
0.0
 30
0.0
  9
$UCSXDIR
 10
1.0
 20
0.0
 30
0.0
  9
$UCSYDIR
 10
0.0
 20
1.0
 30
0.0
  9
$PUCSNAME
  2

  9
$PUCSORG
 10
0.0
 20
0.0
 30
0.0
  9
$PUCSXDIR
 10
1.0
 20
0.0
 30
0.0
  9
$PUCSYDIR
 10
0.0
 20
1.0
 30
0.0
  9
$USERI1
 70
     0
  9
$USERI2
 70
     0
  9
$USERI3
 70
     0
  9
$USERI4
 70
     0
  9
$USERI5
 70
     0
  9
$USERR1
 40
0.0
  9
$USERR2
 40
0.0
  9
$USERR3
 40
0.0
  9
$USERR4
 40
0.0
  9
$USERR5
 40
0.0
  9
$WORLDVIEW
 70
     1
  9
$SHADEDGE
 70
     3
  9
$SHADEDIF
 70
    70
  9
$TILEMODE
 70
     1
  9
$MAXACTVP
 70
    64
  9
$PLIMCHECK
 70
     0
  9
$PEXTMIN
 10
1.0000000000000000E+20
 20
1.0000000000000000E+20
 30
1.0000000000000000E+20
  9
$PEXTMAX
 10
-1.0000000000000000E+20
 20
-1.0000000000000000E+20
 30
-1.0000000000000000E+20
  9
$PLIMMIN
 10
0.0
 20
0.0
  9
$PLIMMAX
 10
12.0
 20
9.0
  9
$UNITMODE
 70
     0
  9
$VISRETAIN
 70
     1
  9
$PLINEGEN
 70
     0
  9
$PSLTSCALE
 70
     1
  0
ENDSEC
  0
SECTION
  2
TABLES
  0
TABLE
  2
VPORT
 70
     1
  0
VPORT
  2
*ACTIVE
 70
     0
 10
0.0
 20
0.0
 11
1.0
 21
1.0
 12
-2.1282504129167128
 22
-0.3591908361001828
 13
0.0
 23
0.0
 14
1.0
 24
1.0
 15
0.0
 25
0.0
 16
0.0
 26
0.0
 36
15.0514596368723108
 17
502.6320285006868858
 27
89.8960179397507062
 37
0.0
 40
4.6226434402521033
 41
2.344785276073619
 42
50.0
 43
0.0
 44
0.0
 50
0.0
 51
0.0
 71
     0
 72
   100
 73
     1
 74
     1
 75
     0
 76
     0
 77
     0
 78
     0
  0
ENDTAB
  0
TABLE
  2
LTYPE
 70
     2
  0
LTYPE
  2
CONTINUOUS
 70
     0
  3
Solid line
 72
    65
 73
     0
 40
0.0
  0
LTYPE
  2
PHANTOM2
 70
     0
  3
___ _ _ ___ _ _ ___ _ _ ___ _ _
 72
    65
 73
     6
 40
1.25
 49
0.625
 49
-0.125
 49
0.125
 49
-0.125
 49
0.125
 49
-0.125
  0
ENDTAB
  0
TABLE
  2
LAYER
 70
     2
  0
LAYER
  2
0
 70
     0
 62
   255
  6
CONTINUOUS
  0
LAYER
  2
DEFPOINTS
 70
     0
 62
     7
  6
CONTINUOUS
  0
ENDTAB
  0
TABLE
  2
STYLE
 70
     1
  0
STYLE
  2
STANDARD
 70
     0
 40
0.0
 41
0.8
 50
0.0
 71
     0
 42
0.2
  3
txt
  4

  0
ENDTAB
  0
TABLE
  2
VIEW
 70
     0
  0
ENDTAB
  0
TABLE
  2
UCS
 70
     0
  0
ENDTAB
  0
TABLE
  2
APPID
 70
    10
  0
APPID
  2
ACAD
 70
     0
  0
APPID
  2
ACAD_MLEADERVER
 70
     0
  0
APPID
  2
ACAD_EXEMPT_FROM_CAD_STANDARDS
 70
     0
  0
APPID
  2
ACAD_DSTYLE_DIMJAG
 70
     0
  0
APPID
  2
ACAD_DSTYLE_DIMTALN
 70
     0
  0
APPID
  2
ACAD_NAV_VCDISPLAY
 70
     0
  0
APPID
  2
ACAECLAYERSTANDARD
 70
     0
  0
APPID
  2
ACCMTRANSPARENCY
 70
     0
  0
APPID
  2
DCO15
 70
     0
  0
APPID
  2
ACDBATTR
 70
     0
  0
ENDTAB
  0
TABLE
  2
DIMSTYLE
 70
     1
  0
DIMSTYLE
  2
STANDARD
 70
     0
  3

  4

  5

  6

  7

 40
1.0
 41
0.1875
 42
0.0625
 43
0.38
 44
0.125
 45
0.0
 46
0.0
 47
0.01
 48
0.01
140
0.15625
141
0.09
142
0.0
143
25.3999999999999986
144
1.0
145
0.0
146
1.0
147
0.09
 71
     1
 72
     0
 73
     1
 74
     1
 75
     0
 76
     0
 77
     0
 78
     4
170
     0
171
     2
172
     0
173
     0
174
     0
175
     0
176
     0
177
     0
178
     0
  0
ENDTAB
  0
ENDSEC
  0
SECTION
  2
BLOCKS
  0
BLOCK
  8
0
  2
$MODEL_SPACE
 70
     0
 10
0.0
 20
0.0
 30
0.0
  3
$MODEL_SPACE
  1

  0
ENDBLK
  5
21
  8
0
  0
BLOCK
 67
     1
  8
0
  2
$PAPER_SPACE
 70
     0
 10
0.0
 20
0.0
 30
0.0
  3
$PAPER_SPACE
  1

  0
ENDBLK
  5
1D
 67
     1
  8
0
  0
BLOCK
  8
0
  2
_FILLED
 70
     0
 10
0.0
 20
0.0
 30
0.0
  3
_FILLED
  1

  0
SOLID
  5
8578
  8
0
  6
BYBLOCK
 62
     0
 10
0.0
 20
0.0
 30
0.0
 11
-1.0
 21
0.1666666667
 31
0.0
 12
-1.0
 22
-0.1666666667
 32
0.0
 13
-1.0
 23
-0.1666666667
 33
0.0
  0
ENDBLK
  5
8579
  8
0
  6
BYBLOCK
 62
     0
  0
ENDSEC
  0
SECTION
  2
ENTITIES
  0
ATTDEF
  5
829
  8
DEFPOINTS
 10
502.6274983132180978
 20
89.8875161611552471
 30
0.0
 40
0.001
  1
K-T14490-4
  3

  2
MODELNUMBER
 70
     0
1001
ACDBATTR
1070
     0
1070
     1
  0
ATTDEF
  5
82A
  8
DEFPOINTS
 10
502.6274983132180978
 20
89.885849494488582
 30
0.0
 40
0.001
  1
PURIST
  3

  2
TRADENAME
 70
     0
1001
ACDBATTR
1070
     0
1070
     1
  0
ATTDEF
  5
82B
  8
DEFPOINTS
 10
502.6274983132180978
 20
89.8841828278219168
 30
0.0
 40
0.001
  1
VALVE TRIM
  3

  2
PRODUCT
 70
     0
1001
ACDBATTR
1070
     0
1070
     1
  0
LINE
  5
8845
  8
0
 10
502.6271988589678017
 20
87.9447676537396887
 30
0.0
 11
502.6271988589678017
 21
91.8184681700601146
 31
0.0
  0
LINE
  5
8846
  8
0
 10
502.5819144817039046
 20
91.8247676537396842
 30
0.0
 11
502.1637816949152011
 21
91.8135375086128533
 31
0.0
  0
ARC
  5
8847
  8
0
 10
502.1648652630350966
 20
91.7514023555532958
 30
0.0
 40
0.0621446004541199
 50
90.999073545833582
 51
183.8887602248763926
  0
LINE
  5
8848
  8
0
 10
502.1028637441677915
 20
91.7471877353140854
 30
0.0
 11
502.1028637441677915
 21
88.0117060190140847
 31
0.0
  0
ARC
  5
8849
  8
0
 10
498.8602025298678768
 20
91.5311875667140953
 30
0.0
 40
3.2499999999999081
 50
344.9899767745001213
 51
356.1488555414499046
  0
LINE
  5
884A
  8
0
 10
501.999314265851126
 20
90.6894765064253932
 30
0.0
 11
501.9971988589678062
 21
90.6734069532140836
 31
0.0
  0
LINE
  5
884B
  8
0
 10
501.9971988589678062
 20
90.6734069532140836
 30
0.0
 11
501.9971988589678062
 21
89.0898337212141058
 31
0.0
  0
LINE
  5
884C
  8
0
 10
501.9971988589678062
 20
90.6701264852140838
 30
0.0
 11
499.9421988589677994
 21
90.670126485214098
 31
0.0
  0
LINE
  5
884D
  8
0
 10
499.9421988589677994
 20
90.670126485214098
 30
0.0
 11
499.9421988589677994
 21
89.0931264852140856
 31
0.0
  0
ARC
  5
884E
  8
0
 10
499.9421988589677994
 20
90.5966264852140739
 30
0.0
 40
0.0200000000000014
 50
180.0000000000048885
 51
269.9999999999935199
  0
LINE
  5
884F
  8
0
 10
499.9221988589678176
 20
89.1131264852140959
 30
0.0
 11
499.9221988589678176
 21
90.6501196827140916
 31
0.0
  0
ARC
  5
8850
  8
0
 10
499.9021920553109908
 20
90.6501196827140916
 30
0.0
 40
0.0200068036568499
 50
359.9999999999984084
 51
89.9805155867497746
  0
LINE
  5
8851
  8
0
 10
499.902198858967779
 20
90.670126485214098
 30
0.0
 11
499.8521988618588807
 21
90.6701434885719664
 31
0.0
  0
ARC
  5
8852
  8
0
 10
499.8521920628178918
 20
90.6501502592137882
 30
0.0
 40
0.019993230514247
 50
89.9805155867465345
 51
180.0935750949317935
  0
LINE
  5
8853
  8
0
 10
499.8321988589677858
 20
90.650117606414085
 30
0.0
 11
499.8321988589677858
 21
89.1131374138261663
 31
0.0
  0
ARC
  5
8854
  8
0
 10
499.5521209328097143
 20
90.4218652341386644
 30
0.0
 40
0.2802387597590506
 50
270.015932271595716
 51
358.0587445197130023
  0
LINE
  5
8855
  8
0
 10
499.5521988589678131
 20
90.1416264852140898
 30
0.0
 11
498.9660724941213061
 21
90.1416264852140898
 31
0.0
  0
LINE
  5
8856
  8
0
 10
502.6271988589678017
 20
87.9447676537396887
 30
0.0
 11
502.1637816949152011
 21
87.9497154618153445
 31
0.0
  0
ARC
  5
8857
  8
0
 10
502.1647498731770725
 20
88.0115941182033907
 30
0.0
 40
0.0618862301771527
 50
179.8963994469839065
 51
269.1036004111022066
  0
ARC
  5
8858
  8
0
 10
498.8602025298678768
 20
88.2320654037141026
 30
0.0
 40
3.2499999999999081
 50
3.8511444585500398
 51
15.0100232254999604
  0
LINE
  5
8859
  8
0
 10
501.999314265851126
 20
89.0737764640027763
 30
0.0
 11
501.9971988589678062
 21
89.0898337212141058
 31
0.0
  0
LINE
  5
885A
  8
0
 10
501.9971988589678062
 20
89.0931264852140856
 30
0.0
 11
499.9421988589677994
 21
89.0931264852140856
 31
0.0
  0
ARC
  5
885B
  8
0
 10
499.9421988589677994
 20
89.1666264852140955
 30
0.0
 40
0.0200000000000014
 50
90.0000000000065086
 51
179.9999999999951115
  0
ARC
  5
885C
  8
0
 10
499.9025673929390905
 20
89.1127579512428554
 30
0.0
 40
0.0196349248974031
 50
268.9245346621844988
 51
1.075465337804171
  0
LINE
  5
885D
  8
0
 10
499.902198858967779
 20
89.0931264852140998
 30
0.0
 11
499.8521988618588807
 21
89.0931094818562173
 31
0.0
  0
ARC
  5
885E
  8
0
 10
499.8521920652545987
 20
89.113102717094506
 30
0.0
 40
0.0199932363935364
 50
179.9005675096790924
 51
270.0194774245804865
  0
ARC
  5
885F
  8
0
 10
499.5521209328097143
 20
89.3413877362895334
 30
0.0
 40
0.2802387597590506
 50
1.941255480287019
 51
89.9840677284042982
  0
LINE
  5
8860
  8
0
 10
499.5521988589678131
 20
89.6216264852140938
 30
0.0
 11
498.9723017013433832
 21
89.6216264852140938
 31
0.0
  0
LINE
  5
8883
  8
0
 10
502.5819144817039046
 20
91.8247676537396842
 30
0.0
 11
502.5819199222179918
 21
91.8198844363397058
 31
0.0
  0
ARC
  5
8884
  8
0
 10
502.6123673783347954
 20
92.0688026539812796
 30
0.0
 40
0.2507734568447033
 50
263.0262734788997818
 51
273.3906197366636093
  0
LINE
  5
8885
  8
0
 10
498.4022076680677742
 20
91.2367676537397045
 30
0.0
 11
498.9821988589678199
 21
91.2367676537397045
 31
0.0
  0
ARC
  5
8886
  8
0
 10
498.9821972593985038
 20
91.2267660542763963
 30
0.0
 40
0.0100015995912051
 50
0.0037956008262149
 51
89.9908366089703975
  0
LINE
  5
8887
  8
0
 10
498.9921988589678108
 20
91.2267667168396912
 30
0.0
 11
498.9921988589678108
 21
90.1722976488396881
 31
0.0
  0
ARC
  5
8888
  8
0
 10
498.9821319355343121
 20
90.1722976488396881
 30
0.0
 40
0.0100669234335484
 50
315.4591418253243091
 51
0.0000000000008142
  0
LINE
  5
8889
  8
0
 10
498.989307139667801
 20
90.1652365304396994
 30
0.0
 11
498.8622245780302933
 21
90.0361007094678172
 31
0.0
  0
ARC
  5
888A
  8
0
 10
498.9030883944535049
 20
89.9958866276563043
 30
0.0
 40
0.0573325724925775
 50
135.4591418253249913
 51
166.1219713675749858
  0
ARC
  5
888B
  8
0
 10
499.0222638437280125
 20
89.9664421804648242
 30
0.0
 40
0.1800915362392242
 50
166.1219713675749858
 51
179.0161233021512999
  0
LINE
  5
888C
  8
0
 10
498.8421988589677767
 20
89.9695345401397049
 30
0.0
 11
498.8421988589677767
 21
89.800764546639698
 31
0.0
  0
ARC
  5
888D
  8
0
 10
498.9717218515759782
 20
89.7969835933908911
 30
0.0
 40
0.1295854219485343
 50
178.2637414776289972
 51
201.3100948744015
  0
ARC
  5
888E
  8
0
 10
498.8926057876319078
 20
89.7661214696417034
 30
0.0
 40
0.0446629734656384
 50
201.3100948744007894
 51
227.0931513559382893
  0
LINE
  5
888F
  8
0
 10
498.8621988589678153
 20
89.7334075599394083
 30
0.0
 11
498.9888502049693102
 21
89.604825742558603
 31
0.0
  0
ARC
  5
8890
  8
0
 10
498.9819680426505784
 20
89.5972590611306856
 30
0.0
 40
0.0102283344690765
 50
359.9361465727695872
 51
47.7123798932255596
  0
LINE
  5
8891
  8
0
 10
498.9921963707677719
 20
89.5972476621396936
 30
0.0
 11
498.9921988589678108
 21
87.2567667168396781
 31
0.0
  0
ARC
  5
8892
  8
0
 10
498.9822004480694773
 20
87.2567660569580141
 30
0.0
 40
0.0099984109201685
 50
269.9288834632657199
 51
0.0037814445304654
  0
LINE
  5
8893
  8
0
 10
498.9821880378677861
 20
87.2467676537396954
 30
0.0
 11
498.402198858967779
 21
87.2467676537396954
 31
0.0
  0
ARC
  5
8894
  8
0
 10
498.4021972597603281
 20
87.2567660544262651
 30
0.0
 40
0.0099984008144458
 50
179.9962040435516997
 51
270.0091642495876272
  0
LINE
  5
8895
  8
0
 10
498.3921988589677881
 20
87.2567667168396781
 30
0.0
 11
498.3921988589673902
 21
91.2267667168396912
 31
0.0
  0
ARC
  5
8896
  8
0
 10
498.4022004607139138
 20
91.226766054568202
 30
0.0
 40
0.0100016017683934
 50
89.9587115134591357
 51
179.996206071518202
  0
LINE
  5
88A3
  8
0
 10
502.6271988589678017
 20
90.0407667168396983
 30
0.0
 11
502.6121988589678153
 21
90.0407667168396983
 31
0.0
  0
ARC
  5
88A4
  8
0
 10
502.6121988589678153
 20
90.0107667168396972
 30
0.0
 40
0.0299999999999994
 50
90.0
 51
180.0
  0
LINE
  5
88A5
  8
0
 10
502.5821988589677858
 20
90.0107667168396972
 30
0.0
 11
502.5821988589677858
 21
89.7587667168397019
 31
0.0
  0
ARC
  5
88A6
  8
0
 10
502.6121988589678153
 20
89.7587667168397019
 30
0.0
 40
0.0300000000000011
 50
179.9999999999984084
 51
269.9999999999968168
  0
LINE
  5
88A7
  8
0
 10
502.6121988589678153
 20
89.7287667168397007
 30
0.0
 11
502.6271988589678017
 21
89.7287667168397007
 31
0.0
  0
ENDSEC
  0
EOF
