  0
SECTION
  2
HEADER
  9
$ACADVER
  1
AC1009
  9
$INSBASE
 10
4.9079374359000001
 20
4.3917169044999991
 30
0.0
  9
$EXTMIN
 10
1.282480824267167
 20
0.1783021069776929
 30
-0.0015258207003583
  9
$EXTMAX
 10
8.5334573815794705
 20
8.6049795196551528
 30
0.0000000349246037
  9
$LIMMIN
 10
0.0
 20
0.0
  9
$LIMMAX
 10
11.692913385800001
 20
8.2677165353999982
  9
$ORTHOMODE
 70
     0
  9
$REGENMODE
 70
     1
  9
$FILLMODE
 70
     1
  9
$QTEXTMODE
 70
     0
  9
$MIRRTEXT
 70
     0
  9
$DRAGMODE
 70
     2
  9
$LTSCALE
 40
0.6431102362
  9
$OSMODE
 70
  3071
  9
$ATTMODE
 70
     1
  9
$TEXTSIZE
 40
0.2
  9
$TRACEWID
 40
0.05
  9
$TEXTSTYLE
  7
STANDARD
  9
$CLAYER
  8
0
  9
$CELTYPE
  6
BYLAYER
  9
$CECOLOR
 62
   256
  9
$DIMSCALE
 40
1.0
  9
$DIMASZ
 40
0.1875
  9
$DIMEXO
 40
0.0625
  9
$DIMDLI
 40
0.4443307087
  9
$DIMRND
 40
0.0
  9
$DIMDLE
 40
0.0
  9
$DIMEXE
 40
0.125
  9
$DIMTP
 40
0.01
  9
$DIMTM
 40
0.01
  9
$DIMTXT
 40
0.15625
  9
$DIMCEN
 40
0.1052362205
  9
$DIMTSZ
 40
0.0
  9
$DIMTOL
 70
     1
  9
$DIMLIM
 70
     0
  9
$DIMTIH
 70
     1
  9
$DIMTOH
 70
     1
  9
$DIMSE1
 70
     0
  9
$DIMSE2
 70
     0
  9
$DIMTAD
 70
     0
  9
$DIMZIN
 70
     0
  9
$DIMBLK
  1

  9
$DIMASO
 70
     1
  9
$DIMSHO
 70
     1
  9
$DIMPOST
  1

  9
$DIMAPOST
  1

  9
$DIMALT
 70
     0
  9
$DIMALTD
 70
     2
  9
$DIMALTF
 40
25.399999999999999
  9
$DIMLFAC
 40
1.0
  9
$DIMTOFL
 70
     0
  9
$DIMTVP
 40
0.0
  9
$DIMTIX
 70
     0
  9
$DIMSOXD
 70
     0
  9
$DIMSAH
 70
     0
  9
$DIMBLK1
  1

  9
$DIMBLK2
  1

  9
$DIMSTYLE
  2
STANDARD
  9
$DIMCLRD
 70
     0
  9
$DIMCLRE
 70
     0
  9
$DIMCLRT
 70
     0
  9
$DIMTFAC
 40
1.0
  9
$DIMGAP
 40
0.09
  9
$LUNITS
 70
     2
  9
$LUPREC
 70
     4
  9
$SKETCHINC
 40
0.1
  9
$FILLETRAD
 40
0.0
  9
$AUNITS
 70
     0
  9
$AUPREC
 70
     0
  9
$MENU
  1
.
  9
$ELEVATION
 40
0.0
  9
$PELEVATION
 40
0.0
  9
$THICKNESS
 40
0.0
  9
$LIMCHECK
 70
     0
  9
$BLIPMODE
 70
     0
  9
$CHAMFERA
 40
0.0
  9
$CHAMFERB
 40
0.0
  9
$SKPOLY
 70
     0
  9
$TDCREATE
 40
2457639.6016014242
  9
$TDUPDATE
 40
2457639.7123535532
  9
$TDINDWG
 40
0.0547093634
  9
$TDUSRTIMER
 40
0.0547093634
  9
$USRTIMER
 70
     1
  9
$ANGBASE
 50
0.0
  9
$ANGDIR
 70
     0
  9
$PDMODE
 70
     0
  9
$PDSIZE
 40
0.3125
  9
$PLINEWID
 40
0.0
  9
$COORDS
 70
     1
  9
$SPLFRAME
 70
     0
  9
$SPLINETYPE
 70
     6
  9
$SPLINESEGS
 70
     8
  9
$ATTDIA
 70
     1
  9
$ATTREQ
 70
     1
  9
$HANDLING
 70
     1
  9
$HANDSEED
  5
870
  9
$SURFTAB1
 70
     6
  9
$SURFTAB2
 70
     6
  9
$SURFTYPE
 70
     6
  9
$SURFU
 70
     6
  9
$SURFV
 70
     6
  9
$UCSNAME
  2

  9
$UCSORG
 10
0.0
 20
0.0
 30
0.0
  9
$UCSXDIR
 10
1.0
 20
0.0
 30
0.0
  9
$UCSYDIR
 10
0.0
 20
1.0
 30
0.0
  9
$PUCSNAME
  2

  9
$PUCSORG
 10
0.0
 20
0.0
 30
0.0
  9
$PUCSXDIR
 10
1.0
 20
0.0
 30
0.0
  9
$PUCSYDIR
 10
0.0
 20
1.0
 30
0.0
  9
$USERI1
 70
     0
  9
$USERI2
 70
     0
  9
$USERI3
 70
     0
  9
$USERI4
 70
     0
  9
$USERI5
 70
     0
  9
$USERR1
 40
0.0
  9
$USERR2
 40
0.0
  9
$USERR3
 40
0.0
  9
$USERR4
 40
0.0
  9
$USERR5
 40
0.0
  9
$WORLDVIEW
 70
     1
  9
$SHADEDGE
 70
     3
  9
$SHADEDIF
 70
    70
  9
$TILEMODE
 70
     1
  9
$MAXACTVP
 70
    64
  9
$PLIMCHECK
 70
     0
  9
$PEXTMIN
 10
1.0354167307455699
 20
0.7854166931993376
 30
0.0
  9
$PEXTMAX
 10
9.3187505767101388
 20
7.0687502387940411
 30
0.0
  9
$PLIMMIN
 10
-0.3645829328401821
 20
-0.3645833083025114
  9
$PLIMMAX
 10
10.63541682686393
 20
8.1354164514015981
  9
$UNITMODE
 70
     0
  9
$VISRETAIN
 70
     1
  9
$PLINEGEN
 70
     0
  9
$PSLTSCALE
 70
     1
  0
ENDSEC
  0
SECTION
  2
TABLES
  0
TABLE
  2
VPORT
 70
     1
  0
VPORT
  2
*ACTIVE
 70
     0
 10
0.0
 20
0.0
 11
1.0
 21
1.0
 12
-3.6402803205805552
 22
-3.3461050677642041
 13
0.0
 23
0.0
 14
1.0
 24
1.0
 15
0.0
 25
0.0
 16
-0.0000000000000142
 26
0.0
 36
60.421802919883788
 17
8.5482494235038757
 27
7.7377458810806274
 37
0.0
 40
8.4877729297658515
 41
2.1638418079096038
 42
50.0
 43
0.0
 44
0.0
 50
0.0
 51
0.0
 71
     0
 72
   100
 73
     1
 74
     1
 75
     0
 76
     1
 77
     0
 78
     0
  0
ENDTAB
  0
TABLE
  2
LTYPE
 70
     1
  0
LTYPE
  2
CONTINUOUS
 70
     0
  3
Solid line
 72
    65
 73
     0
 40
0.0
  0
ENDTAB
  0
TABLE
  2
LAYER
 70
     2
  0
LAYER
  2
0
 70
     0
 62
     7
  6
CONTINUOUS
  0
LAYER
  2
DEFPOINTS
 70
     0
 62
     7
  6
CONTINUOUS
  0
ENDTAB
  0
TABLE
  2
STYLE
 70
     1
  0
STYLE
  2
STANDARD
 70
     0
 40
0.0
 41
0.8
 50
0.0
 71
     0
 42
0.2
  3
txt
  4

  0
ENDTAB
  0
TABLE
  2
VIEW
 70
     2
  0
ENDTAB
  0
TABLE
  2
UCS
 70
     0
  0
ENDTAB
  0
TABLE
  2
APPID
 70
     6
  0
APPID
  2
ACAD
 70
     0
  0
APPID
  2
ACAD_MLEADERVER
 70
     0
  0
APPID
  2
ACAD_NAV_VCDISPLAY
 70
     0
  0
APPID
  2
ACAD_EXEMPT_FROM_CAD_STANDARDS
 70
     0
  0
APPID
  2
ACAD_PSEXT
 70
     0
  0
APPID
  2
ACDBATTR
 70
     0
  0
ENDTAB
  0
TABLE
  2
DIMSTYLE
 70
     1
  0
DIMSTYLE
  2
STANDARD
 70
     0
  3

  4

  5

  6

  7

 40
1.0
 41
0.1875
 42
0.0625
 43
0.38
 44
0.125
 45
0.0
 46
0.0
 47
0.01
 48
0.01
140
0.15625
141
0.09
142
0.0
143
25.399999999999999
144
1.0
145
0.0
146
1.0
147
0.09
 71
     1
 72
     0
 73
     1
 74
     1
 75
     0
 76
     0
 77
     0
 78
     4
170
     0
171
     2
172
     0
173
     0
174
     0
175
     0
176
     0
177
     0
178
     0
  0
ENDTAB
  0
ENDSEC
  0
SECTION
  2
BLOCKS
  0
BLOCK
  8
0
  2
$MODEL_SPACE
 70
     0
 10
0.0
 20
0.0
 30
0.0
  3
$MODEL_SPACE
  1

  0
ENDBLK
  5
21
  8
0
  0
BLOCK
 67
     1
  8
0
  2
$PAPER_SPACE
 70
     0
 10
0.0
 20
0.0
 30
0.0
  3
$PAPER_SPACE
  1

  0
ENDBLK
  5
5BD
 67
     1
  8
0
  0
ENDSEC
  0
SECTION
  2
ENTITIES
  0
ARC
  5
444
  8
0
 10
4.9079374359000001
 20
4.3867091156000004
 30
0.0
 40
3.6249999999999991
 50
94.391518109712493
 51
265.60848189028752
  0
ARC
  5
445
  8
0
 10
4.9079374359000001
 20
4.3867091156000004
 30
0.0
 40
2.4113356354999991
 50
96.610031353309168
 51
263.38996864669082
  0
ARC
  5
446
  8
0
 10
4.9303660141999996
 20
5.9667169045000001
 30
0.0
 40
0.7885000000000004
 50
112.36275182244501
 51
247.63724817755499
  0
ARC
  5
447
  8
0
 10
4.9303660141999996
 20
5.9667169045000001
 30
0.0
 40
0.5400000000000002
 50
123.7489885958886
 51
236.2510114041113
  0
ARC
  5
448
  8
0
 10
4.9303660141999996
 20
2.8167169044999989
 30
0.0
 40
0.7885
 50
112.36275182244501
 51
247.63724817755499
  0
ARC
  5
449
  8
0
 10
4.9303660141999996
 20
2.8167169044999989
 30
0.0
 40
0.5400000000000002
 50
123.7489885958886
 51
236.25101140411141
  0
LINE
  5
4B3
  8
0
 10
5.2303660142000004
 20
4.6247169044999987
 30
0.0
 11
5.2303660141999986
 21
8.5947169045000003
 31
0.0
  0
ARC
  5
4B4
  8
0
 10
5.2203660141999988
 20
8.5947169044999985
 30
0.0
 40
0.0099999999999998
 50
0.0000000000000254
 51
89.999999999994913
  0
LINE
  5
4B5
  8
0
 10
5.2203660141999997
 20
8.6047169045
 30
0.0
 11
4.6403686906426023
 21
8.6047169045000516
 31
0.0
  0
ARC
  5
4B6
  8
0
 10
4.6403686906426014
 20
8.5947142276992832
 30
0.0
 40
0.0100026768007684
 50
89.999999999992156
 51
179.98466716574259
  0
LINE
  5
4B7
  8
0
 10
4.6303660141999998
 20
8.5947169045000003
 30
0.0
 11
4.6303660141999989
 21
4.6247170466543412
 31
0.0
  0
ARC
  5
4B8
  8
0
 10
4.6403660148112582
 20
4.6247169047532379
 30
0.0
 40
0.0100000006112575
 50
180.0000014509537
 51
270.01533171238037
  0
LINE
  5
4B9
  8
0
 10
4.640368690699999
 20
4.6147169044999989
 30
0.0
 11
5.2203633377999994
 21
4.6147169044999989
 31
0.0
  0
ARC
  5
4BA
  8
0
 10
5.220366013588789
 20
4.6247169047532166
 30
0.0
 40
0.01000000061121
 50
269.9846688602974
 51
359.99999854916848
  0
ARC
  5
4BB
  8
0
 10
4.9303660141999996
 20
5.9667169045000001
 30
0.0
 40
0.7885000000000004
 50
292.36275182244498
 51
67.637248177555051
  0
ARC
  5
4BE
  8
0
 10
4.9303660141999996
 20
5.9667169045000001
 30
0.0
 40
0.5400000000000002
 50
303.74898859588848
 51
56.251011404111452
  0
LINE
  5
4BF
  8
0
 10
5.2303660142000004
 20
0.1887169045
 30
0.0
 11
5.2303660142000004
 21
4.1587169045000003
 31
0.0
  0
ARC
  5
4C0
  8
0
 10
5.2203660141999997
 20
4.1587169045000003
 30
0.0
 40
0.0099999999999998
 50
0.0
 51
90.0
  0
LINE
  5
4C1
  8
0
 10
5.2203660141999997
 20
4.1687169045000001
 30
0.0
 11
4.640368690699999
 21
4.1687169045000001
 31
0.0
  0
ARC
  5
4C2
  8
0
 10
4.6403686906999999
 20
4.1587142276418172
 30
0.0
 40
0.0100026768581829
 50
89.999999999998835
 51
179.98466683666251
  0
LINE
  5
4C3
  8
0
 10
4.6303660141999989
 20
4.1587169045000003
 30
0.0
 11
4.6303660142010097
 21
0.1887167623395519
 31
0.0
  0
ARC
  5
4C4
  8
0
 10
4.6403660142000014
 20
0.1887169045000015
 30
0.0
 40
0.0100000000000013
 50
180.00081451937709
 51
269.99999999999488
  0
LINE
  5
4C5
  8
0
 10
4.6403660141999996
 20
0.1787169044999999
 30
0.0
 11
5.2203660141999997
 21
0.1787169044999482
 31
0.0
  0
ARC
  5
4C6
  8
0
 10
5.2203660142000006
 20
0.1887169044999471
 30
0.0
 40
0.0099999999999989
 50
269.99999999999488
 51
0.0000000003010331
  0
ARC
  5
4C7
  8
0
 10
4.9079374359000001
 20
4.3867091156000004
 30
0.0
 40
2.4113356354999991
 50
277.68424522024708
 51
82.315754779752922
  0
ARC
  5
4C8
  8
0
 10
4.9303660141999996
 20
2.8167169044999989
 30
0.0
 40
0.7885
 50
292.36275182244498
 51
67.637248177555037
  0
ARC
  5
4C9
  8
0
 10
4.9303660141999996
 20
2.8167169044999989
 30
0.0
 40
0.5400000000000002
 50
303.74898859588848
 51
56.251011404111452
  0
ARC
  5
4CA
  8
0
 10
4.9079374359000001
 20
4.3867091156000004
 30
0.0
 40
3.6249999999999991
 50
275.10296349372209
 51
84.8970365062779
  0
ATTDEF
  5
640
  8
DEFPOINTS
 10
4.902704393398067
 20
4.3768979837781066
 30
0.0
 40
0.001
  1
BRASS
  3

  2
MATERIAL
 70
     0
1001
ACDBATTR
1070
     0
1070
     1
  0
ATTDEF
  5
641
  8
DEFPOINTS
 10
4.902704393398067
 20
4.3785646504447744
 30
0.0
 40
0.001
  1
VALVE TRIM
  3

  2
PRODUCT
 70
     0
1001
ACDBATTR
1070
     0
1070
     1
  0
ATTDEF
  5
642
  8
DEFPOINTS
 10
4.902704393398067
 20
4.3802313171114413
 30
0.0
 40
0.001
  1
PURIST
  3

  2
TRADENAME
 70
     0
1001
ACDBATTR
1070
     0
1070
     1
  0
ATTDEF
  5
643
  8
DEFPOINTS
 10
4.902704393398067
 20
4.3818979837781082
 30
0.0
 40
0.001
  1
K-T14489-4
  3

  2
MODELNUMBER
 70
     0
1001
ACDBATTR
1070
     0
1070
     1
  0
VIEWPORT
  5
5C1
 67
     1
  8
0
 10
5.1354169470118718
 20
3.885416571549543
 30
0.0
 40
19.459428828410971
 41
8.9929997457669497
 68
     1
 69
     1
1001
ACAD
1000
MVIEW
1002
{
1070
    16
1010
0.0
1020
0.0
1030
0.0
1010
0.0
1020
0.0
1030
1.0
1040
0.0
1040
8.9929997457669497
1040
5.1354169470118718
1040
3.885416571549543
1040
50.0
1040
0.0
1040
0.0
1070
     0
1070
   100
1070
     1
1070
     1
1070
     0
1070
     0
1070
     0
1070
     0
1040
0.0
1040
0.0
1040
0.0
1040
0.5
1040
0.5
1040
0.5
1040
0.5
1070
     0
1002
{
1002
}
1002
}
  0
VIEWPORT
  5
5C6
 67
     1
  8
0
 10
5.1770836537278537
 20
3.9270834659966889
 30
0.0
 40
8.2833338459645685
 41
6.2833335455947044
 68
     2
 69
     2
1001
ACAD
1000
MVIEW
1002
{
1070
    16
1010
0.0
1020
0.0
1030
0.0
1010
0.0
1020
0.0
1030
1.0
1040
0.0
1040
15.264835007104191
1040
8.5482494427999995
1040
7.7377457781897476
1040
50.0
1040
0.0
1040
0.0
1070
     0
1070
   100
1070
     1
1070
     1
1070
     0
1070
     0
1070
     0
1070
     0
1040
0.0
1040
0.0
1040
0.0
1040
0.5
1040
0.5
1040
0.5
1040
0.5
1070
     0
1002
{
1002
}
1002
}
  0
ENDSEC
  0
EOF
