  0
SECTION
  2
HEADER
  9
$ACADVER
  1
AC1009
  9
$INSBASE
 10
483.41396318885842
 20
102.6605823158811
 30
0.0
  9
$EXTMIN
 10
477.65596318843461
 20
100.9015823154573
 30
0.0
  9
$EXTMAX
 10
489.17196318928211
 20
104.4195823158811
 30
0.0
  9
$LIMMIN
 10
0.0
 20
0.0
  9
$LIMMAX
 10
11.692913385800001
 20
8.2677165353999982
  9
$ORTHOMODE
 70
     0
  9
$REGENMODE
 70
     1
  9
$FILLMODE
 70
     1
  9
$QTEXTMODE
 70
     0
  9
$MIRRTEXT
 70
     0
  9
$DRAGMODE
 70
     2
  9
$LTSCALE
 40
0.6431102362
  9
$OSMODE
 70
  3071
  9
$ATTMODE
 70
     1
  9
$TEXTSIZE
 40
0.2
  9
$TRACEWID
 40
0.05
  9
$TEXTSTYLE
  7
STANDARD
  9
$CLAYER
  8
0
  9
$CELTYPE
  6
BYLAYER
  9
$CECOLOR
 62
   256
  9
$DIMSCALE
 40
1.0
  9
$DIMASZ
 40
0.1875
  9
$DIMEXO
 40
0.0625
  9
$DIMDLI
 40
0.4443307087
  9
$DIMRND
 40
0.0
  9
$DIMDLE
 40
0.0
  9
$DIMEXE
 40
0.125
  9
$DIMTP
 40
0.01
  9
$DIMTM
 40
0.01
  9
$DIMTXT
 40
1.0
  9
$DIMCEN
 40
0.1052362205
  9
$DIMTSZ
 40
0.0
  9
$DIMTOL
 70
     1
  9
$DIMLIM
 70
     0
  9
$DIMTIH
 70
     0
  9
$DIMTOH
 70
     1
  9
$DIMSE1
 70
     0
  9
$DIMSE2
 70
     0
  9
$DIMTAD
 70
     0
  9
$DIMZIN
 70
     0
  9
$DIMBLK
  1

  9
$DIMASO
 70
     1
  9
$DIMSHO
 70
     1
  9
$DIMPOST
  1
\X
  9
$DIMAPOST
  1

  9
$DIMALT
 70
     1
  9
$DIMALTD
 70
     2
  9
$DIMALTF
 40
25.399999999999999
  9
$DIMLFAC
 40
1.0
  9
$DIMTOFL
 70
     0
  9
$DIMTVP
 40
0.0
  9
$DIMTIX
 70
     0
  9
$DIMSOXD
 70
     0
  9
$DIMSAH
 70
     0
  9
$DIMBLK1
  1

  9
$DIMBLK2
  1

  9
$DIMSTYLE
  2
STANDARD
  9
$DIMCLRD
 70
     0
  9
$DIMCLRE
 70
     0
  9
$DIMCLRT
 70
     0
  9
$DIMTFAC
 40
1.0
  9
$DIMGAP
 40
0.09
  9
$LUNITS
 70
     2
  9
$LUPREC
 70
     4
  9
$SKETCHINC
 40
0.1
  9
$FILLETRAD
 40
0.0
  9
$AUNITS
 70
     0
  9
$AUPREC
 70
     0
  9
$MENU
  1
.
  9
$ELEVATION
 40
0.0
  9
$PELEVATION
 40
0.0
  9
$THICKNESS
 40
0.0
  9
$LIMCHECK
 70
     0
  9
$BLIPMODE
 70
     0
  9
$CHAMFERA
 40
0.0
  9
$CHAMFERB
 40
0.0
  9
$SKPOLY
 70
     0
  9
$TDCREATE
 40
2458172.5207663891
  9
$TDUPDATE
 40
2458542.9081178941
  9
$TDINDWG
 40
0.2752646412
  9
$TDUSRTIMER
 40
0.2752646412
  9
$USRTIMER
 70
     1
  9
$ANGBASE
 50
0.0
  9
$ANGDIR
 70
     0
  9
$PDMODE
 70
     0
  9
$PDSIZE
 40
0.3125
  9
$PLINEWID
 40
0.0
  9
$COORDS
 70
     1
  9
$SPLFRAME
 70
     0
  9
$SPLINETYPE
 70
     6
  9
$SPLINESEGS
 70
     8
  9
$ATTDIA
 70
     1
  9
$ATTREQ
 70
     1
  9
$HANDLING
 70
     1
  9
$HANDSEED
  5
84E5
  9
$SURFTAB1
 70
     6
  9
$SURFTAB2
 70
     6
  9
$SURFTYPE
 70
     6
  9
$SURFU
 70
     6
  9
$SURFV
 70
     6
  9
$UCSNAME
  2

  9
$UCSORG
 10
0.0
 20
0.0
 30
0.0
  9
$UCSXDIR
 10
1.0
 20
0.0
 30
0.0
  9
$UCSYDIR
 10
0.0
 20
1.0
 30
0.0
  9
$PUCSNAME
  2

  9
$PUCSORG
 10
0.0
 20
0.0
 30
0.0
  9
$PUCSXDIR
 10
1.0
 20
0.0
 30
0.0
  9
$PUCSYDIR
 10
0.0
 20
1.0
 30
0.0
  9
$USERI1
 70
     0
  9
$USERI2
 70
     0
  9
$USERI3
 70
     0
  9
$USERI4
 70
     0
  9
$USERI5
 70
     0
  9
$USERR1
 40
0.0
  9
$USERR2
 40
0.0
  9
$USERR3
 40
0.0
  9
$USERR4
 40
0.0
  9
$USERR5
 40
0.0
  9
$WORLDVIEW
 70
     1
  9
$SHADEDGE
 70
     3
  9
$SHADEDIF
 70
    70
  9
$TILEMODE
 70
     1
  9
$MAXACTVP
 70
    64
  9
$PLIMCHECK
 70
     0
  9
$PEXTMIN
 10
1.0000000000000000E+020
 20
1.0000000000000000E+020
 30
1.0000000000000000E+020
  9
$PEXTMAX
 10
-1.0000000000000000E+020
 20
-1.0000000000000000E+020
 30
-1.0000000000000000E+020
  9
$PLIMMIN
 10
0.0
 20
0.0
  9
$PLIMMAX
 10
12.0
 20
9.0
  9
$UNITMODE
 70
     0
  9
$VISRETAIN
 70
     1
  9
$PLINEGEN
 70
     0
  9
$PSLTSCALE
 70
     1
  0
ENDSEC
  0
SECTION
  2
TABLES
  0
TABLE
  2
VPORT
 70
     1
  0
VPORT
  2
*ACTIVE
 70
     0
 10
0.0
 20
0.0
 11
1.0
 21
1.0
 12
0.0
 22
0.0
 13
0.0
 23
0.0
 14
1.0
 24
1.0
 15
0.0
 25
0.0
 16
0.0
 26
0.0
 36
34.04365072881793
 17
483.4139631888583
 27
102.6605823158811
 37
0.0
 40
12.0446540372774
 41
2.112723214285714
 42
50.0
 43
0.0
 44
0.0
 50
0.0
 51
0.0
 71
     0
 72
   100
 73
     1
 74
     1
 75
     0
 76
     0
 77
     0
 78
     0
  0
ENDTAB
  0
TABLE
  2
LTYPE
 70
     2
  0
LTYPE
  2
CONTINUOUS
 70
     0
  3
Solid line
 72
    65
 73
     0
 40
0.0
  0
LTYPE
  2
PHANTOM2
 70
     0
  3
___ _ _ ___ _ _ ___ _ _ ___ _ _
 72
    65
 73
     6
 40
1.25
 49
0.625
 49
-0.125
 49
0.125
 49
-0.125
 49
0.125
 49
-0.125
  0
ENDTAB
  0
TABLE
  2
LAYER
 70
     2
  0
LAYER
  2
0
 70
     0
 62
   255
  6
CONTINUOUS
  0
LAYER
  2
DEFPOINTS
 70
     0
 62
     7
  6
CONTINUOUS
  0
ENDTAB
  0
TABLE
  2
STYLE
 70
     1
  0
STYLE
  2
STANDARD
 70
     0
 40
0.0
 41
0.8
 50
0.0
 71
     0
 42
0.2
  3
txt
  4

  0
ENDTAB
  0
TABLE
  2
VIEW
 70
     0
  0
ENDTAB
  0
TABLE
  2
UCS
 70
     0
  0
ENDTAB
  0
TABLE
  2
APPID
 70
    10
  0
APPID
  2
ACAD
 70
     0
  0
APPID
  2
ACAD_MLEADERVER
 70
     0
  0
APPID
  2
ACAD_EXEMPT_FROM_CAD_STANDARDS
 70
     0
  0
APPID
  2
ACAD_DSTYLE_DIMJAG
 70
     0
  0
APPID
  2
ACAD_DSTYLE_DIMTALN
 70
     0
  0
APPID
  2
ACAD_NAV_VCDISPLAY
 70
     0
  0
APPID
  2
ACAECLAYERSTANDARD
 70
     0
  0
APPID
  2
ACCMTRANSPARENCY
 70
     0
  0
APPID
  2
DCO15
 70
     0
  0
APPID
  2
ACDBATTR
 70
     0
  0
ENDTAB
  0
TABLE
  2
DIMSTYLE
 70
     1
  0
DIMSTYLE
  2
STANDARD
 70
     0
  3

  4

  5

  6

  7

 40
1.0
 41
0.1875
 42
0.0625
 43
0.38
 44
0.125
 45
0.0
 46
0.0
 47
0.01
 48
0.01
140
0.15625
141
0.09
142
0.0
143
25.399999999999999
144
1.0
145
0.0
146
1.0
147
0.09
 71
     1
 72
     0
 73
     1
 74
     1
 75
     0
 76
     0
 77
     0
 78
     4
170
     0
171
     2
172
     0
173
     0
174
     0
175
     0
176
     0
177
     0
178
     0
  0
ENDTAB
  0
ENDSEC
  0
SECTION
  2
BLOCKS
  0
BLOCK
  8
0
  2
$MODEL_SPACE
 70
     0
 10
0.0
 20
0.0
 30
0.0
  3
$MODEL_SPACE
  1

  0
ENDBLK
  5
21
  8
0
  0
BLOCK
 67
     1
  8
0
  2
$PAPER_SPACE
 70
     0
 10
0.0
 20
0.0
 30
0.0
  3
$PAPER_SPACE
  1

  0
ENDBLK
  5
1D
 67
     1
  8
0
  0
ENDSEC
  0
SECTION
  2
ENTITIES
  0
ATTDEF
  5
829
  8
DEFPOINTS
 10
483.41128553265241
 20
102.6712024368282
 30
0.0
 40
0.001
  1
K-T14429-3
  3

  2
MODELNUMBER
 70
     0
1001
ACDBATTR
1070
     0
1070
     1
  0
ATTDEF
  5
82A
  8
DEFPOINTS
 10
483.41128553265241
 20
102.6695357701616
 30
0.0
 40
0.001
  1
PURIST
  3

  2
TRADENAME
 70
     0
1001
ACDBATTR
1070
     0
1070
     1
  0
ATTDEF
  5
82B
  8
DEFPOINTS
 10
483.41128553265241
 20
102.66786910349489
 30
0.0
 40
0.001
  1
DECK/WALL-MOUNT BATH TRIM
  3

  2
PRODUCT
 70
     0
1001
ACDBATTR
1070
     0
1070
     1
  0
ATTDEF
  5
82C
  8
DEFPOINTS
 10
483.41128553265241
 20
102.6662024368282
 30
0.0
 40
0.001
  1
BRASS
  3

  2
MATERIAL
 70
     0
1001
ACDBATTR
1070
     0
1070
     1
  0
LINE
  5
8397
  8
0
 10
477.65596318885832
 20
102.9105794039811
 30
0.0
 11
477.65596318885832
 21
102.4105852277811
 31
0.0
  0
LINE
  5
8398
  8
0
 10
479.15496318885829
 20
104.40858231588111
 30
0.0
 11
479.15496318885829
 21
103.0005823158811
 31
0.0
  0
LINE
  5
8399
  8
0
 10
479.15496318885829
 20
102.3205823158811
 30
0.0
 11
479.15496318885829
 21
100.9115823161808
 31
0.0
  0
LINE
  5
839A
  8
0
 10
479.67496318885838
 20
104.40858231588111
 30
0.0
 11
479.67496318885838
 21
103.0005823158811
 31
0.0
  0
LINE
  5
839B
  8
0
 10
479.67496318885838
 20
102.3205823158811
 30
0.0
 11
479.67496318885838
 21
100.91158231588111
 31
0.0
  0
LINE
  5
839C
  8
0
 10
481.17396318885841
 20
102.4105852276811
 30
0.0
 11
481.17396318885841
 21
102.9105794039811
 31
0.0
  0
LINE
  5
839D
  8
0
 10
479.16496610075842
 20
100.9015823158811
 30
0.0
 11
479.66496027695831
 21
100.9015823158811
 31
0.0
  0
LINE
  5
839E
  8
0
 10
477.66596318885831
 20
102.4005823158811
 30
0.0
 11
479.07396318895832
 21
102.4005823158811
 31
0.0
  0
LINE
  5
839F
  8
0
 10
479.75396318895832
 20
102.4005823158811
 30
0.0
 11
481.16396318885842
 21
102.4005823158811
 31
0.0
  0
LINE
  5
83A0
  8
0
 10
477.66596318885831
 20
102.92058231588111
 30
0.0
 11
479.07396318885827
 21
102.92058231588111
 31
0.0
  0
LINE
  5
83A1
  8
0
 10
479.75396318885828
 20
102.92058231588111
 30
0.0
 11
481.16396318885842
 21
102.92058231588111
 31
0.0
  0
LINE
  5
83A2
  8
0
 10
479.66496027695831
 20
104.4195823158811
 30
0.0
 11
479.16496610075842
 21
104.4195823158811
 31
0.0
  0
ARC
  5
83A3
  8
0
 10
477.66596318915822
 20
102.4105823166046
 30
0.0
 40
0.0100000007234916
 50
179.98332018821381
 51
269.99999828259411
  0
ARC
  5
83A4
  8
0
 10
479.66496318885828
 20
100.91158231588111
 30
0.0
 40
0.01
 50
269.98331601880022
 51
0.0
  0
ARC
  5
83A5
  8
0
 10
479.16496318958178
 20
100.9115823161808
 30
0.0
 40
0.0100000007234853
 50
180.00000171737739
 51
270.01667981180651
  0
ARC
  5
83A6
  8
0
 10
479.41396318885842
 20
102.6605823158811
 30
0.0
 40
1.28
 50
11.71976030578894
 51
78.280239694211204
  0
ARC
  5
83A7
  8
0
 10
479.41396318885842
 20
102.6605823158811
 30
0.0
 40
1.28
 50
281.71976030578878
 51
348.2802396942111
  0
ARC
  5
83A8
  8
0
 10
479.41396318885842
 20
102.6605823158811
 30
0.0
 40
1.28
 50
191.7197603057889
 51
258.28023969421122
  0
ARC
  5
83A9
  8
0
 10
479.41396318885842
 20
102.6605823158811
 30
0.0
 40
1.28
 50
101.7197603057887
 51
168.2802396942111
  0
ARC
  5
83AA
  8
0
 10
479.41396318885842
 20
102.6605823158811
 30
0.0
 40
0.8
 50
18.96557498884922
 51
71.034425011152081
  0
ARC
  5
83AB
  8
0
 10
479.41396318885842
 20
102.6605823158811
 30
0.0
 40
0.8
 50
288.96557498884789
 51
341.0344250111508
  0
ARC
  5
83AC
  8
0
 10
479.41396318885842
 20
102.6605823158811
 30
0.0
 40
0.8
 50
198.9655749888484
 51
251.03442501115211
  0
ARC
  5
83AD
  8
0
 10
479.41396318885842
 20
102.6605823158811
 30
0.0
 40
0.8
 50
108.96557498884791
 51
161.03442501115069
  0
ARC
  5
83AE
  8
0
 10
479.16689134316329
 20
104.40778348375591
 30
0.0
 40
0.0119548733949337
 50
99.267410456942301
 51
176.16860533099489
  0
ARC
  5
83AF
  8
0
 10
479.66303503549187
 20
104.40778348415461
 30
0.0
 40
0.0119548724318015
 50
3.8313930627134272
 51
80.732593347674964
  0
ARC
  5
83B0
  8
0
 10
477.66635817692548
 20
102.9101874423732
 30
0.0
 40
0.0104023752488182
 50
92.176098288320986
 51
177.84058324085589
  0
ARC
  5
83B1
  8
0
 10
481.16396318855863
 20
102.4105823166045
 30
0.0
 40
0.0100000007234407
 50
270.00000171730159
 51
0.0166792391030923
  0
ARC
  5
83B2
  8
0
 10
481.16396318885842
 20
102.9105823158811
 30
0.0
 40
0.01
 50
359.98331611910021
 51
90.0
  0
ARC
  5
83B3
  8
0
 10
479.07324531765221
 20
103.00231541047729
 30
0.0
 40
0.0817362471082954
 50
270.50322250665482
 51
358.78503783210948
  0
ARC
  5
83B4
  8
0
 10
479.07324531746809
 20
102.3188492210985
 30
0.0
 40
0.0817362472962691
 50
1.214962295767622
 51
89.496777365474856
  0
ARC
  5
83B5
  8
0
 10
479.7549040906311
 20
102.3206469253805
 30
0.0
 40
0.0799409278818973
 50
90.674384782875364
 51
180.04630734389301
  0
ARC
  5
83B6
  8
0
 10
479.75490409065992
 20
103.00051770640999
 30
0.0
 40
0.0799409279106551
 50
179.95369267649031
 51
269.32561519673828
  0
LINE
  5
83B7
  8
0
 10
479.13053173139258
 20
102.9440137733468
 30
0.0
 11
479.69787679862287
 21
102.3766687061166
 31
0.0
  0
LINE
  5
83B8
  8
0
 10
479.69787679859638
 20
102.9444959256892
 30
0.0
 11
479.1305317313404
 21
102.37715085836309
 31
0.0
  0
LINE
  5
83BA
  8
0
 10
489.1719631888584
 20
102.9105794039811
 30
0.0
 11
489.1719631888584
 21
102.4105852277811
 31
0.0
  0
LINE
  5
83BB
  8
0
 10
487.67296318885838
 20
104.40858231588111
 30
0.0
 11
487.67296318885838
 21
103.0005823158811
 31
0.0
  0
LINE
  5
83BC
  8
0
 10
487.67296318885838
 20
102.3205823158811
 30
0.0
 11
487.67296318885838
 21
100.9115823161808
 31
0.0
  0
LINE
  5
83BD
  8
0
 10
487.15296318885828
 20
104.40858231588111
 30
0.0
 11
487.15296318885828
 21
103.0005823158811
 31
0.0
  0
LINE
  5
83BE
  8
0
 10
487.15296318885828
 20
102.3205823158811
 30
0.0
 11
487.15296318885828
 21
100.91158231588111
 31
0.0
  0
LINE
  5
83BF
  8
0
 10
485.65396318885831
 20
102.4105852276811
 30
0.0
 11
485.65396318885831
 21
102.9105794039811
 31
0.0
  0
LINE
  5
83C0
  8
0
 10
487.6629602769583
 20
100.9015823158811
 30
0.0
 11
487.16296610075841
 21
100.9015823158811
 31
0.0
  0
LINE
  5
83C1
  8
0
 10
489.16196318885841
 20
102.4005823158811
 30
0.0
 11
487.75396318875841
 21
102.4005823158811
 31
0.0
  0
LINE
  5
83C2
  8
0
 10
487.0739631887584
 20
102.4005823158811
 30
0.0
 11
485.66396318885842
 21
102.4005823158811
 31
0.0
  0
LINE
  5
83C3
  8
0
 10
489.16196318885841
 20
102.92058231588111
 30
0.0
 11
487.75396318885828
 21
102.92058231588111
 31
0.0
  0
LINE
  5
83C4
  8
0
 10
487.07396318885827
 20
102.92058231588111
 30
0.0
 11
485.66396318885842
 21
102.92058231588111
 31
0.0
  0
LINE
  5
83C5
  8
0
 10
487.16296610075841
 20
104.4195823158811
 30
0.0
 11
487.6629602769583
 21
104.4195823158811
 31
0.0
  0
ARC
  5
83C6
  8
0
 10
489.16196318855862
 20
102.4105823166046
 30
0.0
 40
0.0100000007234916
 50
270.00000171740589
 51
0.016679811786159
  0
ARC
  5
83C7
  8
0
 10
487.16296318885833
 20
100.91158231588111
 30
0.0
 40
0.01
 50
180.0
 51
270.01668398119978
  0
ARC
  5
83C8
  8
0
 10
487.66296318813488
 20
100.9115823161808
 30
0.0
 40
0.0100000007234853
 50
269.98332018819349
 51
359.99999828262258
  0
ARC
  5
83C9
  8
0
 10
487.41396318885842
 20
102.6605823158811
 30
0.0
 40
1.28
 50
101.7197603057887
 51
168.2802396942111
  0
ARC
  5
83CA
  8
0
 10
487.41396318885842
 20
102.6605823158811
 30
0.0
 40
1.28
 50
191.7197603057889
 51
258.28023969421122
  0
ARC
  5
83CB
  8
0
 10
487.41396318885842
 20
102.6605823158811
 30
0.0
 40
1.28
 50
281.71976030578878
 51
348.2802396942111
  0
ARC
  5
83CC
  8
0
 10
487.41396318885842
 20
102.6605823158811
 30
0.0
 40
1.28
 50
11.71976030578894
 51
78.280239694211204
  0
ARC
  5
83CD
  8
0
 10
487.41396318885842
 20
102.6605823158811
 30
0.0
 40
0.8
 50
108.96557498884791
 51
161.03442501115069
  0
ARC
  5
83CE
  8
0
 10
487.41396318885842
 20
102.6605823158811
 30
0.0
 40
0.8
 50
198.9655749888484
 51
251.03442501115211
  0
ARC
  5
83CF
  8
0
 10
487.41396318885842
 20
102.6605823158811
 30
0.0
 40
0.8
 50
288.96557498884789
 51
341.0344250111508
  0
ARC
  5
83D0
  8
0
 10
487.41396318885842
 20
102.6605823158811
 30
0.0
 40
0.8
 50
18.96557498884922
 51
71.034425011152081
  0
ARC
  5
83D1
  8
0
 10
487.66103503455338
 20
104.40778348375591
 30
0.0
 40
0.0119548733949337
 50
3.8313946690050749
 51
80.732589543057685
  0
ARC
  5
83D2
  8
0
 10
487.16489134222479
 20
104.40778348415461
 30
0.0
 40
0.0119548724318015
 50
99.267406652325022
 51
176.16860693728651
  0
ARC
  5
83D3
  8
0
 10
489.16196318855862
 20
102.9105823151576
 30
0.0
 40
0.0100000007234815
 50
359.98332018819349
 51
89.999998282626677
  0
ARC
  5
83D4
  8
0
 10
485.6639631891581
 20
102.4105823166045
 30
0.0
 40
0.0100000007234407
 50
179.9833207608969
 51
269.9999982826983
  0
ARC
  5
83D5
  8
0
 10
485.66396318885842
 20
102.9105823158811
 30
0.0
 40
0.01
 50
90.0
 51
180.01668388089979
  0
ARC
  5
83D6
  8
0
 10
487.75468106006451
 20
103.00231541047729
 30
0.0
 40
0.0817362471082954
 50
181.21496216789049
 51
269.49677749334518
  0
ARC
  5
83D7
  8
0
 10
487.75468106024857
 20
102.3188492210985
 30
0.0
 40
0.0817362472962691
 50
90.503222634525144
 51
178.7850377042316
  0
ARC
  5
83D8
  8
0
 10
487.07302228708568
 20
102.3206469253805
 30
0.0
 40
0.0799409278818973
 50
359.95369265610708
 51
89.325615217124636
  0
ARC
  5
83D9
  8
0
 10
487.07302228705692
 20
103.00051770640999
 30
0.0
 40
0.0799409279106551
 50
270.6743848032616
 51
0.0463073235097186
  0
LINE
  5
83DA
  8
0
 10
487.69739464632403
 20
102.9440137733468
 30
0.0
 11
487.13004957909379
 21
102.3766687061166
 31
0.0
  0
LINE
  5
83DB
  8
0
 10
487.13004957912028
 20
102.9444959256892
 30
0.0
 11
487.69739464637632
 21
102.37715085836309
 31
0.0
  0
ENDSEC
  0
EOF
