  0
SECTION
  2
HEADER
  9
$ACADVER
  1
AC1009
  9
$INSBASE
 10
486.58834232189162
 20
99.503067535029686
 30
0.0
  9
$EXTMIN
 10
480.83034232189169
 20
99.494236311998023
 30
0.0
  9
$EXTMAX
 10
492.34634232189171
 20
104.2000675350297
 30
0.0
  9
$LIMMIN
 10
0.0
 20
0.0
  9
$LIMMAX
 10
11.692913385800001
 20
8.2677165353999982
  9
$ORTHOMODE
 70
     0
  9
$REGENMODE
 70
     1
  9
$FILLMODE
 70
     1
  9
$QTEXTMODE
 70
     0
  9
$MIRRTEXT
 70
     0
  9
$DRAGMODE
 70
     2
  9
$LTSCALE
 40
0.6431102362
  9
$OSMODE
 70
  3071
  9
$ATTMODE
 70
     1
  9
$TEXTSIZE
 40
0.2
  9
$TRACEWID
 40
0.05
  9
$TEXTSTYLE
  7
STANDARD
  9
$CLAYER
  8
0
  9
$CELTYPE
  6
BYLAYER
  9
$CECOLOR
 62
   256
  9
$DIMSCALE
 40
1.0
  9
$DIMASZ
 40
0.1875
  9
$DIMEXO
 40
0.0625
  9
$DIMDLI
 40
0.4443307087
  9
$DIMRND
 40
0.0
  9
$DIMDLE
 40
0.0
  9
$DIMEXE
 40
0.125
  9
$DIMTP
 40
0.01
  9
$DIMTM
 40
0.01
  9
$DIMTXT
 40
1.0
  9
$DIMCEN
 40
0.1052362205
  9
$DIMTSZ
 40
0.0
  9
$DIMTOL
 70
     1
  9
$DIMLIM
 70
     0
  9
$DIMTIH
 70
     0
  9
$DIMTOH
 70
     1
  9
$DIMSE1
 70
     0
  9
$DIMSE2
 70
     0
  9
$DIMTAD
 70
     0
  9
$DIMZIN
 70
     0
  9
$DIMBLK
  1

  9
$DIMASO
 70
     1
  9
$DIMSHO
 70
     1
  9
$DIMPOST
  1
\X
  9
$DIMAPOST
  1

  9
$DIMALT
 70
     1
  9
$DIMALTD
 70
     2
  9
$DIMALTF
 40
25.399999999999999
  9
$DIMLFAC
 40
1.0
  9
$DIMTOFL
 70
     0
  9
$DIMTVP
 40
0.0
  9
$DIMTIX
 70
     0
  9
$DIMSOXD
 70
     0
  9
$DIMSAH
 70
     0
  9
$DIMBLK1
  1

  9
$DIMBLK2
  1

  9
$DIMSTYLE
  2
STANDARD
  9
$DIMCLRD
 70
     0
  9
$DIMCLRE
 70
     0
  9
$DIMCLRT
 70
     0
  9
$DIMTFAC
 40
1.0
  9
$DIMGAP
 40
0.09
  9
$LUNITS
 70
     2
  9
$LUPREC
 70
     4
  9
$SKETCHINC
 40
0.1
  9
$FILLETRAD
 40
0.0
  9
$AUNITS
 70
     0
  9
$AUPREC
 70
     0
  9
$MENU
  1
.
  9
$ELEVATION
 40
0.0
  9
$PELEVATION
 40
0.0
  9
$THICKNESS
 40
0.0
  9
$LIMCHECK
 70
     0
  9
$BLIPMODE
 70
     0
  9
$CHAMFERA
 40
0.0
  9
$CHAMFERB
 40
0.0
  9
$SKPOLY
 70
     0
  9
$TDCREATE
 40
2458172.5207663891
  9
$TDUPDATE
 40
2458542.9079268058
  9
$TDINDWG
 40
0.3080803356
  9
$TDUSRTIMER
 40
0.3080803356
  9
$USRTIMER
 70
     1
  9
$ANGBASE
 50
0.0
  9
$ANGDIR
 70
     0
  9
$PDMODE
 70
     0
  9
$PDSIZE
 40
0.3125
  9
$PLINEWID
 40
0.0
  9
$COORDS
 70
     1
  9
$SPLFRAME
 70
     0
  9
$SPLINETYPE
 70
     6
  9
$SPLINESEGS
 70
     8
  9
$ATTDIA
 70
     1
  9
$ATTREQ
 70
     1
  9
$HANDLING
 70
     1
  9
$HANDSEED
  5
833B
  9
$SURFTAB1
 70
     6
  9
$SURFTAB2
 70
     6
  9
$SURFTYPE
 70
     6
  9
$SURFU
 70
     6
  9
$SURFV
 70
     6
  9
$UCSNAME
  2

  9
$UCSORG
 10
0.0
 20
0.0
 30
0.0
  9
$UCSXDIR
 10
1.0
 20
0.0
 30
0.0
  9
$UCSYDIR
 10
0.0
 20
1.0
 30
0.0
  9
$PUCSNAME
  2

  9
$PUCSORG
 10
0.0
 20
0.0
 30
0.0
  9
$PUCSXDIR
 10
1.0
 20
0.0
 30
0.0
  9
$PUCSYDIR
 10
0.0
 20
1.0
 30
0.0
  9
$USERI1
 70
     0
  9
$USERI2
 70
     0
  9
$USERI3
 70
     0
  9
$USERI4
 70
     0
  9
$USERI5
 70
     0
  9
$USERR1
 40
0.0
  9
$USERR2
 40
0.0
  9
$USERR3
 40
0.0
  9
$USERR4
 40
0.0
  9
$USERR5
 40
0.0
  9
$WORLDVIEW
 70
     1
  9
$SHADEDGE
 70
     3
  9
$SHADEDIF
 70
    70
  9
$TILEMODE
 70
     1
  9
$MAXACTVP
 70
    64
  9
$PLIMCHECK
 70
     0
  9
$PEXTMIN
 10
1.0000000000000000E+020
 20
1.0000000000000000E+020
 30
1.0000000000000000E+020
  9
$PEXTMAX
 10
-1.0000000000000000E+020
 20
-1.0000000000000000E+020
 30
-1.0000000000000000E+020
  9
$PLIMMIN
 10
0.0
 20
0.0
  9
$PLIMMAX
 10
12.0
 20
9.0
  9
$UNITMODE
 70
     0
  9
$VISRETAIN
 70
     1
  9
$PLINEGEN
 70
     0
  9
$PSLTSCALE
 70
     1
  0
ENDSEC
  0
SECTION
  2
TABLES
  0
TABLE
  2
VPORT
 70
     1
  0
VPORT
  2
*ACTIVE
 70
     0
 10
0.0
 20
0.0
 11
1.0
 21
1.0
 12
0.0
 22
0.0
 13
0.0
 23
0.0
 14
1.0
 24
1.0
 15
0.0
 25
0.0
 16
0.0
 26
0.0
 36
35.171748347519937
 17
486.58834232189162
 27
101.84715192351391
 37
0.0
 40
12.441705897446861
 41
2.112723214285714
 42
50.0
 43
0.0
 44
0.0
 50
0.0
 51
0.0
 71
     0
 72
   100
 73
     1
 74
     1
 75
     0
 76
     0
 77
     0
 78
     0
  0
ENDTAB
  0
TABLE
  2
LTYPE
 70
     2
  0
LTYPE
  2
CONTINUOUS
 70
     0
  3
Solid line
 72
    65
 73
     0
 40
0.0
  0
LTYPE
  2
PHANTOM2
 70
     0
  3
___ _ _ ___ _ _ ___ _ _ ___ _ _
 72
    65
 73
     6
 40
1.25
 49
0.625
 49
-0.125
 49
0.125
 49
-0.125
 49
0.125
 49
-0.125
  0
ENDTAB
  0
TABLE
  2
LAYER
 70
     2
  0
LAYER
  2
0
 70
     0
 62
   255
  6
CONTINUOUS
  0
LAYER
  2
DEFPOINTS
 70
     0
 62
     7
  6
CONTINUOUS
  0
ENDTAB
  0
TABLE
  2
STYLE
 70
     1
  0
STYLE
  2
STANDARD
 70
     0
 40
0.0
 41
0.8
 50
0.0
 71
     0
 42
0.2
  3
txt
  4

  0
ENDTAB
  0
TABLE
  2
VIEW
 70
     0
  0
ENDTAB
  0
TABLE
  2
UCS
 70
     0
  0
ENDTAB
  0
TABLE
  2
APPID
 70
    10
  0
APPID
  2
ACAD
 70
     0
  0
APPID
  2
ACAD_MLEADERVER
 70
     0
  0
APPID
  2
ACAD_EXEMPT_FROM_CAD_STANDARDS
 70
     0
  0
APPID
  2
ACAD_DSTYLE_DIMJAG
 70
     0
  0
APPID
  2
ACAD_DSTYLE_DIMTALN
 70
     0
  0
APPID
  2
ACAD_NAV_VCDISPLAY
 70
     0
  0
APPID
  2
ACAECLAYERSTANDARD
 70
     0
  0
APPID
  2
ACCMTRANSPARENCY
 70
     0
  0
APPID
  2
DCO15
 70
     0
  0
APPID
  2
ACDBATTR
 70
     0
  0
ENDTAB
  0
TABLE
  2
DIMSTYLE
 70
     1
  0
DIMSTYLE
  2
STANDARD
 70
     0
  3

  4

  5

  6

  7

 40
1.0
 41
0.1875
 42
0.0625
 43
0.38
 44
0.125
 45
0.0
 46
0.0
 47
0.01
 48
0.01
140
0.15625
141
0.09
142
0.0
143
25.399999999999999
144
1.0
145
0.0
146
1.0
147
0.09
 71
     1
 72
     0
 73
     1
 74
     1
 75
     0
 76
     0
 77
     0
 78
     4
170
     0
171
     2
172
     0
173
     0
174
     0
175
     0
176
     0
177
     0
178
     0
  0
ENDTAB
  0
ENDSEC
  0
SECTION
  2
BLOCKS
  0
BLOCK
  8
0
  2
$MODEL_SPACE
 70
     0
 10
0.0
 20
0.0
 30
0.0
  3
$MODEL_SPACE
  1

  0
ENDBLK
  5
21
  8
0
  0
BLOCK
 67
     1
  8
0
  2
$PAPER_SPACE
 70
     0
 10
0.0
 20
0.0
 30
0.0
  3
$PAPER_SPACE
  1

  0
ENDBLK
  5
1D
 67
     1
  8
0
  0
ENDSEC
  0
SECTION
  2
ENTITIES
  0
ATTDEF
  5
829
  8
DEFPOINTS
 10
486.58519541550089
 20
99.499236311998033
 30
0.0
 40
0.001
  1
K-T14429-3
  3

  2
MODELNUMBER
 70
     0
1001
ACDBATTR
1070
     0
1070
     1
  0
ATTDEF
  5
82A
  8
DEFPOINTS
 10
486.58519541550089
 20
99.497569645331353
 30
0.0
 40
0.001
  1
PURIST
  3

  2
TRADENAME
 70
     0
1001
ACDBATTR
1070
     0
1070
     1
  0
ATTDEF
  5
82B
  8
DEFPOINTS
 10
486.58519541550089
 20
99.495902978664716
 30
0.0
 40
0.001
  1
DECK/WALL-MOUNT BATH TRIM
  3

  2
PRODUCT
 70
     0
1001
ACDBATTR
1070
     0
1070
     1
  0
ATTDEF
  5
82C
  8
DEFPOINTS
 10
486.58519541550089
 20
99.494236311998037
 30
0.0
 40
0.001
  1
BRASS
  3

  2
MATERIAL
 70
     0
1001
ACDBATTR
1070
     0
1070
     1
  0
LINE
  5
81E3
  8
0
 10
480.83034232189169
 20
104.1900675350297
 30
0.0
 11
480.83034232189169
 21
103.6900675350297
 31
0.0
  0
LINE
  5
81E4
  8
0
 10
481.3083423218917
 20
99.503067535029686
 30
0.0
 11
483.8683423218917
 21
99.503067535029686
 31
0.0
  0
LINE
  5
81E5
  8
0
 10
483.8683423218917
 20
99.773067535029696
 30
0.0
 11
481.3083423218917
 21
99.773067535029696
 31
0.0
  0
LINE
  5
81E6
  8
0
 10
481.3083423218917
 20
99.773067535029696
 30
0.0
 11
481.3083423218917
 21
99.503067535029686
 31
0.0
  0
LINE
  5
81E7
  8
0
 10
481.78834232189161
 20
102.54006753502971
 30
0.0
 11
481.78834232189161
 21
102.4500675350297
 31
0.0
  0
LINE
  5
81E8
  8
0
 10
481.78834232189161
 20
102.4200675350297
 30
0.0
 11
481.78834232189161
 21
100.1930675350297
 31
0.0
  0
LINE
  5
81E9
  8
0
 10
481.86334232189159
 20
102.4200675350297
 30
0.0
 11
481.86334232189159
 21
102.4500675350297
 31
0.0
  0
LINE
  5
81EA
  8
0
 10
482.32834232189163
 20
103.7077388790788
 30
0.0
 11
482.32834232189163
 21
102.82006753502969
 31
0.0
  0
LINE
  5
81EB
  8
0
 10
482.84834232189172
 20
103.7077388790788
 30
0.0
 11
482.84834232189172
 21
102.82006753502969
 31
0.0
  0
LINE
  5
81EC
  8
0
 10
483.31334232189158
 20
102.4200675350297
 30
0.0
 11
483.31334232189158
 21
102.4500675350297
 31
0.0
  0
LINE
  5
81ED
  8
0
 10
483.38834232189163
 20
102.54006753502971
 30
0.0
 11
483.38834232189163
 21
102.4500675350297
 31
0.0
  0
LINE
  5
81EE
  8
0
 10
483.38834232189163
 20
102.4200675350297
 30
0.0
 11
483.38834232189163
 21
100.1930675350297
 31
0.0
  0
LINE
  5
81EF
  8
0
 10
483.8683423218917
 20
99.773067535029696
 30
0.0
 11
483.8683423218917
 21
99.503067535029686
 31
0.0
  0
LINE
  5
81F0
  8
0
 10
483.38834232189163
 20
102.4200675350297
 30
0.0
 11
481.78834232189161
 21
102.4200675350297
 31
0.0
  0
LINE
  5
81F1
  8
0
 10
481.78834232189161
 20
102.4500675350297
 30
0.0
 11
483.38834232189163
 21
102.4500675350297
 31
0.0
  0
LINE
  5
81F2
  8
0
 10
483.38834232189163
 20
102.54006753502971
 30
0.0
 11
481.78834232189161
 21
102.54006753502971
 31
0.0
  0
LINE
  5
81F3
  8
0
 10
484.34834232189172
 20
103.6900675350297
 30
0.0
 11
484.34834232189172
 21
104.1900675350297
 31
0.0
  0
LINE
  5
81F4
  8
0
 10
484.33834232189167
 20
103.68006753502971
 30
0.0
 11
482.87828782139172
 21
103.68006753502971
 31
0.0
  0
LINE
  5
81F5
  8
0
 10
482.29850697579172
 20
103.68006753502971
 30
0.0
 11
480.84034232189168
 21
103.68006753502971
 31
0.0
  0
LINE
  5
81F6
  8
0
 10
484.33834232189167
 20
104.2000675350297
 30
0.0
 11
482.58934232189159
 21
104.2000675350297
 31
0.0
  0
LINE
  5
81F7
  8
0
 10
482.58934232189159
 20
104.2000675350297
 30
0.0
 11
480.84034232189168
 21
104.2000675350297
 31
0.0
  0
ARC
  5
81F8
  8
0
 10
481.36834232189159
 20
100.1930675350297
 30
0.0
 40
0.4200000000000001
 50
270.0
 51
0.0
  0
ARC
  5
81F9
  8
0
 10
480.84034232189168
 20
103.6900675350297
 30
0.0
 40
0.01
 50
180.0
 51
270.0
  0
ARC
  5
81FA
  8
0
 10
480.84034232189168
 20
104.1900675350297
 30
0.0
 40
0.01
 50
90.0
 51
180.0
  0
ARC
  5
81FB
  8
0
 10
483.12834232189158
 20
102.82006753502969
 30
0.0
 40
0.28
 50
180.0
 51
269.99999556689988
  0
ARC
  5
81FC
  8
0
 10
482.04834232189171
 20
102.82006753502969
 30
0.0
 40
0.28
 50
270.00000443310012
 51
0.0
  0
CIRCLE
  5
81FD
  8
0
 10
482.58934232189171
 20
103.9400675350297
 30
0.0
 40
0.26
  0
ARC
  5
81FE
  8
0
 10
483.80834232189159
 20
100.1930675350297
 30
0.0
 40
0.4200000000000001
 50
180.0
 51
270.0
  0
ARC
  5
81FF
  8
0
 10
484.33834232189167
 20
103.6900675350297
 30
0.0
 40
0.01
 50
270.0
 51
0.0
  0
ARC
  5
8200
  8
0
 10
484.33834232189167
 20
104.1900675350297
 30
0.0
 40
0.01
 50
0.0
 51
90.0
  0
ARC
  5
8201
  8
0
 10
482.29833876502062
 20
103.6950723063955
 30
0.0
 40
0.0150057141983866
 50
270.6422865969314
 51
319.83393875794559
  0
ARC
  5
8202
  8
0
 10
480.88109680141071
 20
104.8894366257113
 30
0.0
 40
1.868402836903428
 50
319.87751926399733
 51
322.58336161355697
  0
ARC
  5
8203
  8
0
 10
482.39220844961238
 20
103.73340904876611
 30
0.0
 40
0.0341896502017089
 50
110.64529534335639
 51
142.583361613557
  0
ARC
  5
8204
  8
0
 10
482.36927523519779
 20
103.70062655212151
 30
0.0
 40
0.0656836476508615
 50
53.567169339735457
 51
80.466703183451784
  0
ARC
  5
8205
  8
0
 10
482.87834309519332
 20
103.6950686834961
 30
0.0
 40
0.0150012502980212
 50
220.1623444910762
 51
269.78888674925611
  0
ARC
  5
8206
  8
0
 10
484.2955878423727
 20
104.8894366257113
 30
0.0
 40
1.868402836903428
 50
217.416638386443
 51
220.1224807360027
  0
ARC
  5
8207
  8
0
 10
482.78447619417091
 20
103.73340904876611
 30
0.0
 40
0.0341896502017089
 50
37.416638386442983
 51
69.354704656643591
  0
ARC
  5
8208
  8
0
 10
482.80442263954831
 20
103.7108914994518
 30
0.0
 40
0.0550798755275251
 50
98.237649669106204
 51
124.381845929891
  0
LINE
  5
820A
  8
0
 10
492.34634232189171
 20
104.1900675350297
 30
0.0
 11
492.34634232189171
 21
103.6900675350297
 31
0.0
  0
LINE
  5
820B
  8
0
 10
491.8683423218917
 20
99.503067535029686
 30
0.0
 11
489.3083423218917
 21
99.503067535029686
 31
0.0
  0
LINE
  5
820C
  8
0
 10
489.3083423218917
 20
99.773067535029696
 30
0.0
 11
491.8683423218917
 21
99.773067535029696
 31
0.0
  0
LINE
  5
820D
  8
0
 10
491.8683423218917
 20
99.773067535029696
 30
0.0
 11
491.8683423218917
 21
99.503067535029686
 31
0.0
  0
LINE
  5
820E
  8
0
 10
491.38834232189168
 20
102.54006753502971
 30
0.0
 11
491.38834232189168
 21
102.4500675350297
 31
0.0
  0
LINE
  5
820F
  8
0
 10
491.38834232189168
 20
102.4200675350297
 30
0.0
 11
491.38834232189168
 21
100.1930675350297
 31
0.0
  0
LINE
  5
8210
  8
0
 10
491.31334232189158
 20
102.4200675350297
 30
0.0
 11
491.31334232189158
 21
102.4500675350297
 31
0.0
  0
LINE
  5
8211
  8
0
 10
490.84834232189172
 20
103.7077388790788
 30
0.0
 11
490.84834232189172
 21
102.82006753502969
 31
0.0
  0
LINE
  5
8212
  8
0
 10
490.32834232189163
 20
103.7077388790788
 30
0.0
 11
490.32834232189163
 21
102.82006753502969
 31
0.0
  0
LINE
  5
8213
  8
0
 10
489.86334232189171
 20
102.4200675350297
 30
0.0
 11
489.86334232189171
 21
102.4500675350297
 31
0.0
  0
LINE
  5
8214
  8
0
 10
489.78834232189172
 20
102.54006753502971
 30
0.0
 11
489.78834232189172
 21
102.4500675350297
 31
0.0
  0
LINE
  5
8215
  8
0
 10
489.78834232189172
 20
102.4200675350297
 30
0.0
 11
489.78834232189172
 21
100.1930675350297
 31
0.0
  0
LINE
  5
8216
  8
0
 10
489.3083423218917
 20
99.773067535029696
 30
0.0
 11
489.3083423218917
 21
99.503067535029686
 31
0.0
  0
LINE
  5
8217
  8
0
 10
489.78834232189172
 20
102.4200675350297
 30
0.0
 11
491.38834232189168
 21
102.4200675350297
 31
0.0
  0
LINE
  5
8218
  8
0
 10
491.38834232189168
 20
102.4500675350297
 30
0.0
 11
489.78834232189172
 21
102.4500675350297
 31
0.0
  0
LINE
  5
8219
  8
0
 10
489.78834232189172
 20
102.54006753502971
 30
0.0
 11
491.38834232189168
 21
102.54006753502971
 31
0.0
  0
LINE
  5
821A
  8
0
 10
488.82834232189168
 20
103.6900675350297
 30
0.0
 11
488.82834232189168
 21
104.1900675350297
 31
0.0
  0
LINE
  5
821B
  8
0
 10
488.83834232189167
 20
103.68006753502971
 30
0.0
 11
490.29839682239168
 21
103.68006753502971
 31
0.0
  0
LINE
  5
821C
  8
0
 10
490.87817766799168
 20
103.68006753502971
 30
0.0
 11
492.33634232189161
 21
103.68006753502971
 31
0.0
  0
LINE
  5
821D
  8
0
 10
488.83834232189167
 20
104.2000675350297
 30
0.0
 11
490.5873423218917
 21
104.2000675350297
 31
0.0
  0
LINE
  5
821E
  8
0
 10
490.5873423218917
 20
104.2000675350297
 30
0.0
 11
492.33634232189161
 21
104.2000675350297
 31
0.0
  0
ARC
  5
821F
  8
0
 10
491.8083423218917
 20
100.1930675350297
 30
0.0
 40
0.4200000000000001
 50
180.0
 51
270.0
  0
ARC
  5
8220
  8
0
 10
492.33634232189161
 20
103.6900675350297
 30
0.0
 40
0.01
 50
270.0
 51
0.0
  0
ARC
  5
8221
  8
0
 10
492.33634232189161
 20
104.1900675350297
 30
0.0
 40
0.01
 50
0.0
 51
90.0
  0
ARC
  5
8222
  8
0
 10
490.04834232189171
 20
102.82006753502969
 30
0.0
 40
0.28
 50
270.00000443310012
 51
0.0
  0
ARC
  5
8223
  8
0
 10
491.12834232189158
 20
102.82006753502969
 30
0.0
 40
0.28
 50
180.0
 51
269.99999556689988
  0
CIRCLE
  5
8224
  8
0
 10
490.5873423218917
 20
103.9400675350297
 30
0.0
 40
0.26
  0
ARC
  5
8225
  8
0
 10
489.3683423218917
 20
100.1930675350297
 30
0.0
 40
0.4200000000000001
 50
270.0
 51
0.0
  0
ARC
  5
8226
  8
0
 10
488.83834232189167
 20
103.6900675350297
 30
0.0
 40
0.01
 50
180.0
 51
270.0
  0
ARC
  5
8227
  8
0
 10
488.83834232189167
 20
104.1900675350297
 30
0.0
 40
0.01
 50
90.0
 51
180.0
  0
ARC
  5
8228
  8
0
 10
490.87834587876279
 20
103.6950723063955
 30
0.0
 40
0.0150057141983866
 50
220.16606124205441
 51
269.3577134030686
  0
ARC
  5
8229
  8
0
 10
492.2955878423727
 20
104.8894366257113
 30
0.0
 40
1.868402836903428
 50
217.416638386443
 51
220.1224807360027
  0
ARC
  5
822A
  8
0
 10
490.78447619417091
 20
103.73340904876611
 30
0.0
 40
0.0341896502017089
 50
37.416638386442983
 51
69.354704656643591
  0
ARC
  5
822B
  8
0
 10
490.8074094085855
 20
103.70062655212151
 30
0.0
 40
0.0656836476508615
 50
99.53329681654823
 51
126.4328306602645
  0
ARC
  5
822C
  8
0
 10
490.29834154858997
 20
103.6950686834961
 30
0.0
 40
0.0150012502980212
 50
270.21111325074389
 51
319.83765550892377
  0
ARC
  5
822D
  8
0
 10
488.88109680141071
 20
104.8894366257113
 30
0.0
 40
1.868402836903428
 50
319.87751926399733
 51
322.58336161355697
  0
ARC
  5
822E
  8
0
 10
490.39220844961238
 20
103.73340904876611
 30
0.0
 40
0.0341896502017089
 50
110.64529534335639
 51
142.583361613557
  0
ARC
  5
822F
  8
0
 10
490.37226200423498
 20
103.7108914994518
 30
0.0
 40
0.0550798755275251
 50
55.618154070108929
 51
81.762350330893796
  0
ENDSEC
  0
EOF
