  0
SECTION
  2
HEADER
  9
$ACADVER
  1
AC1009
  9
$INSBASE
 10
0.0
 20
0.0
 30
0.0
  9
$EXTMIN
 10
-48.107722904102147
 20
-10.16724668082295
 30
-0.0079190675196038
  9
$EXTMAX
 10
39.483552972704743
 20
23.593178673793918
 30
0.0025196988993928
  9
$LIMMIN
 10
0.0
 20
0.0
  9
$LIMMAX
 10
420.0
 20
297.0
  9
$ORTHOMODE
 70
     1
  9
$REGENMODE
 70
     1
  9
$FILLMODE
 70
     1
  9
$QTEXTMODE
 70
     0
  9
$MIRRTEXT
 70
     1
  9
$DRAGMODE
 70
     2
  9
$LTSCALE
 40
1.0
  9
$OSMODE
 70
    37
  9
$ATTMODE
 70
     1
  9
$TEXTSIZE
 40
0.001
  9
$TRACEWID
 40
1.0
  9
$TEXTSTYLE
  7
STANDARD
  9
$CLAYER
  8
0
  9
$CELTYPE
  6
BYLAYER
  9
$CECOLOR
 62
   256
  9
$DIMSCALE
 40
1.0
  9
$DIMASZ
 40
2.5
  9
$DIMEXO
 40
0.625
  9
$DIMDLI
 40
3.75
  9
$DIMRND
 40
0.0
  9
$DIMDLE
 40
0.0
  9
$DIMEXE
 40
1.25
  9
$DIMTP
 40
0.0
  9
$DIMTM
 40
0.0
  9
$DIMTXT
 40
2.5
  9
$DIMCEN
 40
2.5
  9
$DIMTSZ
 40
0.0
  9
$DIMTOL
 70
     0
  9
$DIMLIM
 70
     0
  9
$DIMTIH
 70
     0
  9
$DIMTOH
 70
     0
  9
$DIMSE1
 70
     0
  9
$DIMSE2
 70
     0
  9
$DIMTAD
 70
     1
  9
$DIMZIN
 70
     8
  9
$DIMBLK
  1

  9
$DIMASO
 70
     1
  9
$DIMSHO
 70
     1
  9
$DIMPOST
  1

  9
$DIMAPOST
  1

  9
$DIMALT
 70
     0
  9
$DIMALTD
 70
     3
  9
$DIMALTF
 40
0.03937007874016
  9
$DIMLFAC
 40
1.0
  9
$DIMTOFL
 70
     1
  9
$DIMTVP
 40
0.0
  9
$DIMTIX
 70
     0
  9
$DIMSOXD
 70
     0
  9
$DIMSAH
 70
     0
  9
$DIMBLK1
  1

  9
$DIMBLK2
  1

  9
$DIMSTYLE
  2
ISO-25
  9
$DIMCLRD
 70
     0
  9
$DIMCLRE
 70
     0
  9
$DIMCLRT
 70
     0
  9
$DIMTFAC
 40
1.0
  9
$DIMGAP
 40
0.625
  9
$LUNITS
 70
     2
  9
$LUPREC
 70
     4
  9
$SKETCHINC
 40
1.0
  9
$FILLETRAD
 40
0.0
  9
$AUNITS
 70
     0
  9
$AUPREC
 70
     0
  9
$MENU
  1
.
  9
$ELEVATION
 40
0.0
  9
$PELEVATION
 40
0.0
  9
$THICKNESS
 40
0.0
  9
$LIMCHECK
 70
     0
  9
$BLIPMODE
 70
     0
  9
$CHAMFERA
 40
10.0
  9
$CHAMFERB
 40
10.0
  9
$SKPOLY
 70
     0
  9
$TDCREATE
 40
2453378.22126956
  9
$TDUPDATE
 40
2453411.520179213
  9
$TDINDWG
 40
0.8668474306
  9
$TDUSRTIMER
 40
0.8668339468
  9
$USRTIMER
 70
     1
  9
$ANGBASE
 50
0.0
  9
$ANGDIR
 70
     0
  9
$PDMODE
 70
     0
  9
$PDSIZE
 40
0.0
  9
$PLINEWID
 40
0.0
  9
$COORDS
 70
     1
  9
$SPLFRAME
 70
     0
  9
$SPLINETYPE
 70
     6
  9
$SPLINESEGS
 70
     8
  9
$ATTDIA
 70
     0
  9
$ATTREQ
 70
     1
  9
$HANDLING
 70
     1
  9
$HANDSEED
  5
A90BA
  9
$SURFTAB1
 70
     6
  9
$SURFTAB2
 70
     6
  9
$SURFTYPE
 70
     6
  9
$SURFU
 70
     6
  9
$SURFV
 70
     6
  9
$UCSNAME
  2

  9
$UCSORG
 10
0.0
 20
0.0
 30
0.0
  9
$UCSXDIR
 10
1.0
 20
0.0
 30
0.0
  9
$UCSYDIR
 10
0.0
 20
1.0
 30
0.0
  9
$PUCSNAME
  2

  9
$PUCSORG
 10
0.0
 20
0.0
 30
0.0
  9
$PUCSXDIR
 10
1.0
 20
0.0
 30
0.0
  9
$PUCSYDIR
 10
0.0
 20
1.0
 30
0.0
  9
$USERI1
 70
     0
  9
$USERI2
 70
     0
  9
$USERI3
 70
     0
  9
$USERI4
 70
     0
  9
$USERI5
 70
     0
  9
$USERR1
 40
0.0
  9
$USERR2
 40
0.0
  9
$USERR3
 40
0.0
  9
$USERR4
 40
0.0
  9
$USERR5
 40
0.0
  9
$WORLDVIEW
 70
     1
  9
$SHADEDGE
 70
     3
  9
$SHADEDIF
 70
    70
  9
$TILEMODE
 70
     1
  9
$MAXACTVP
 70
    64
  9
$PLIMCHECK
 70
     0
  9
$PEXTMIN
 10
1.0000000000000000E+020
 20
1.0000000000000000E+020
 30
1.0000000000000000E+020
  9
$PEXTMAX
 10
-1.0000000000000000E+020
 20
-1.0000000000000000E+020
 30
-1.0000000000000000E+020
  9
$PLIMMIN
 10
0.0
 20
0.0
  9
$PLIMMAX
 10
420.0
 20
297.0
  9
$UNITMODE
 70
     0
  9
$VISRETAIN
 70
     1
  9
$PLINEGEN
 70
     0
  9
$PSLTSCALE
 70
     1
  0
ENDSEC
  0
SECTION
  2
TABLES
  0
TABLE
  2
VPORT
 70
     2
  0
VPORT
  2
*ACTIVE
 70
     0
 10
0.0
 20
0.0
 11
1.0
 21
1.0
 12
7.3094698017196151
 22
4.6756910067802258
 13
0.0
 23
0.0
 14
10.0
 24
10.0
 15
10.0
 25
10.0
 16
0.0
 26
0.0
 36
1.0
 17
0.0
 27
0.0
 37
0.0
 40
16.505879113776981
 41
1.9608247422680409
 42
50.0
 43
0.0
 44
0.0
 50
0.0
 51
0.0
 71
     0
 72
  1000
 73
     1
 74
     3
 75
     0
 76
     0
 77
     0
 78
     0
  0
ENDTAB
  0
TABLE
  2
LTYPE
 70
     1
  0
LTYPE
  2
CONTINUOUS
 70
     0
  3
Solid line
 72
    65
 73
     0
 40
0.0
  0
ENDTAB
  0
TABLE
  2
LAYER
 70
     3
  0
LAYER
  2
0
 70
     0
 62
     7
  6
CONTINUOUS
  0
LAYER
  2
ASHADE
 70
     0
 62
     7
  6
CONTINUOUS
  0
LAYER
  2
DEFPOINTS
 70
     0
 62
     7
  6
CONTINUOUS
  0
ENDTAB
  0
TABLE
  2
STYLE
 70
     2
  0
STYLE
  2
STANDARD
 70
     0
 40
0.0
 41
1.0
 50
0.0
 71
     0
 42
0.001
  3
txt
  4

  0
STYLE
  2
ASHADE
 70
     0
 40
0.2
 41
1.0
 50
0.0
 71
     0
 42
2.5
  3
simplex.shx
  4

  0
ENDTAB
  0
TABLE
  2
VIEW
 70
     0
  0
ENDTAB
  0
TABLE
  2
UCS
 70
     0
  0
ENDTAB
  0
TABLE
  2
APPID
 70
     6
  0
APPID
  2
ACAD
 70
     0
  0
APPID
  2
AVE_RENDER
 70
     0
  0
APPID
  2
AVE_ENTITY_MATERIAL
 70
     0
  0
APPID
  2
AVE_FINISH
 70
     0
  0
APPID
  2
AVE_MATERIAL
 70
     0
  0
APPID
  2
AVE_GLOBAL
 70
     0
  0
ENDTAB
  0
TABLE
  2
DIMSTYLE
 70
     2
  0
DIMSTYLE
  2
ISO-25
 70
     0
  3

  4

  5

  6

  7

 40
1.0
 41
2.5
 42
0.625
 43
3.75
 44
1.25
 45
0.0
 46
0.0
 47
0.0
 48
0.0
140
2.5
141
2.5
142
0.0
143
0.03937007874016
144
1.0
145
0.0
146
1.0
147
0.625
 71
     0
 72
     0
 73
     0
 74
     0
 75
     0
 76
     0
 77
     1
 78
     8
170
     0
171
     3
172
     1
173
     0
174
     0
175
     0
176
     0
177
     0
178
     0
  0
DIMSTYLE
  2
STANDARD
 70
     0
  3

  4

  5

  6

  7

 40
1.0
 41
0.18
 42
0.0625
 43
0.38
 44
0.18
 45
0.0
 46
0.0
 47
0.0
 48
0.0
140
0.18
141
0.09
142
0.0
143
25.399999999999999
144
1.0
145
0.0
146
1.0
147
0.09
 71
     0
 72
     0
 73
     1
 74
     1
 75
     0
 76
     0
 77
     0
 78
     0
170
     0
171
     2
172
     0
173
     0
174
     0
175
     0
176
     0
177
     0
178
     0
  0
ENDTAB
  0
ENDSEC
  0
SECTION
  2
BLOCKS
  0
BLOCK
  8
0
  2
$MODEL_SPACE
 70
     0
 10
0.0
 20
0.0
 30
0.0
  3
$MODEL_SPACE
  1

  0
ENDBLK
  5
A8C72
  8
0
  0
BLOCK
 67
     1
  8
0
  2
$PAPER_SPACE
 70
     0
 10
0.0
 20
0.0
 30
0.0
  3
$PAPER_SPACE
  1

  0
ENDBLK
  5
A8C6E
 67
     1
  8
0
  0
BLOCK
  8
ASHADE
  2
AVE_RENDER
 70
     0
 10
0.0
 20
0.0
 30
0.0
  3
AVE_RENDER
  1
AVE_RENDER
  0
ENDBLK
  5
31
  8
0
  0
BLOCK
  8
ASHADE
  2
AVE_GLOBAL
 70
     0
 10
0.0
 20
0.0
 30
0.0
  3
AVE_GLOBAL
  1
AVE_GLOBAL
  0
ENDBLK
  5
3F
  8
0
  0
BLOCK
  8
ASHADE
  2
RM_SDB
 70
     2
 10
0.0
 20
0.0
 30
0.0
  3
RM_SDB
  1
RM_SDB
  0
ATTDEF
  5
A3F6D
  8
ASHADE
  6
CONTINUOUS
 62
     1
 10
0.0000000000000001
 20
-0.15
 30
0.0
 40
0.2
  1

 41
100.0
  7
ASHADE
 72
     1
 11
0.0000000000000001
 21
-0.15
 31
0.0
  3
Name
  2
NAME
 70
     0
  0
ENDBLK
  5
620
  8
0
  0
ENDSEC
  0
SECTION
  2
ENTITIES
  0
ATTDEF
  5
A8C2D
  8
0
 10
0.0
 20
0.0
 30
0.0
 40
0.001
  1
K-T14428-4
  3

  2
MODELNUMBER
 70
     8
  0
ATTDEF
  5
A8C2E
  8
0
 10
0.0
 20
-0.0016666666666667
 30
0.0
 40
0.001
  1
PURIST
  3

  2
TRADENAME
 70
     8
  0
ATTDEF
  5
A8C2F
  8
0
 10
0.0
 20
-0.0033333333333333
 30
0.0
 40
0.001
  1
FAUCETS
  3

  2
PRODUCT
 70
     8
  0
ATTDEF
  5
A8C30
  8
0
 10
0.0
 20
-0.005
 30
0.0
 40
0.001
  1
BRASS
  3

  2
MATERIAL
 70
     8
  0
POLYLINE
  5
A8F5E
  8
ASHADE
 66
     1
 10
0.0
 20
0.0
 30
0.0021962244617841
  0
VERTEX
  5
A8FE9
  8
ASHADE
 10
11.659652601766631
 20
4.0840236756373107
 30
0.0021962244617841
  0
VERTEX
  5
A8FEA
  8
ASHADE
 10
13.54977805721766
 20
4.0840230748988997
 30
0.0021962244617841
  0
VERTEX
  5
A8FEB
  8
ASHADE
 10
13.5825735679541
 20
4.1214040218430723
 30
0.0021962244617841
  0
VERTEX
  5
A8FEC
  8
ASHADE
 10
13.582573868323291
 20
4.5462194564619933
 30
0.0021962244617841
  0
VERTEX
  5
A8FED
  8
ASHADE
 10
13.582573868323291
 20
4.7299990885593388
 30
0.0021962244617841
  0
VERTEX
  5
A8FEE
  8
ASHADE
 10
13.54977805721766
 20
4.7636756455041791
 30
0.0021962244617841
  0
VERTEX
  5
A8FEF
  8
ASHADE
 10
11.725792681270679
 20
4.7636761526830433
 30
0.0021962244617841
  0
VERTEX
  5
A8FF0
  8
ASHADE
 10
9.5994205422401944
 20
4.7636756455041791
 30
0.0021962244617841
  0
SEQEND
  5
A8FF1
  8
ASHADE
  0
POLYLINE
  5
A8F64
  8
ASHADE
 66
     1
 10
0.0
 20
0.0
 30
0.0009364336779595
  0
VERTEX
  5
A8FF2
  8
ASHADE
 10
0.4269364153391601
 20
4.0840236756373107
 30
0.0009364336779595
  0
VERTEX
  5
A8FF3
  8
ASHADE
 10
-1.463189040111859
 20
4.0840230748988997
 30
0.0009364336779595
  0
VERTEX
  5
A8FF4
  8
ASHADE
 10
-1.4959845508483021
 20
4.1214040218430723
 30
0.0009364336779595
  0
VERTEX
  5
A8FF5
  8
ASHADE
 10
-1.4959848512174949
 20
4.5462194564619933
 30
0.0009364336779595
  0
VERTEX
  5
A8FF6
  8
ASHADE
 10
-1.4959848512174949
 20
4.7299990885593388
 30
0.0009364336779595
  0
VERTEX
  5
A8FF7
  8
ASHADE
 10
-1.463189040111859
 20
4.7636756455041791
 30
0.0009364336779595
  0
VERTEX
  5
A8FF8
  8
ASHADE
 10
0.3607963358351043
 20
4.7636761526830433
 30
0.0009364336779595
  0
VERTEX
  5
A8FF9
  8
ASHADE
 10
2.4871684748656002
 20
4.7636756455041791
 30
0.0009364336779595
  0
SEQEND
  5
A8FFA
  8
ASHADE
  0
POLYLINE
  5
A8F6A
  8
ASHADE
 66
     1
 10
0.0
 20
0.0
 30
-0.0016590709927657
 70
     1
  0
VERTEX
  5
A8FFB
  8
ASHADE
 10
6.8075093456828437
 20
0.5794441106804062
 30
-0.0016590709927657
 42
0.2966720395346704
  0
VERTEX
  5
A8FFC
  8
ASHADE
 10
7.2322836957597589
 20
0.2641870337464311
 30
-0.0016590709927657
  0
VERTEX
  5
A8FFD
  8
ASHADE
 10
4.8542668170160477
 20
0.2641870337464271
 30
-0.0016590709927657
 42
0.2966720395346709
  0
VERTEX
  5
A8FFE
  8
ASHADE
 10
5.279041167092962
 20
0.5794441106804129
 30
-0.0016590709927657
  0
SEQEND
  5
A8FFF
  8
ASHADE
  0
POLYLINE
  5
A8F6B
  8
ASHADE
 66
     1
 10
0.0
 20
0.0
 30
-0.0016590709927657
  0
VERTEX
  5
A9000
  8
ASHADE
 10
4.8542668170160539
 20
0.26418703374644
 30
-0.0016590709927657
 42
0.2402854015429857
  0
VERTEX
  5
A9001
  8
ASHADE
 10
4.7834290704162559
 20
0.1813345579058314
 30
-0.0016590709927657
  0
VERTEX
  5
A9002
  8
ASHADE
 10
4.783435403597994
 20
-0.0000823858845607
 30
-0.0016590709927657
  0
VERTEX
  5
A9003
  8
ASHADE
 10
4.8313852497762806
 20
-0.0000823858845607
 30
-0.0016590709927657
  0
VERTEX
  5
A9004
  8
ASHADE
 10
6.0432752563878989
 20
-0.0000823858845607
 30
-0.0016590709927657
  0
VERTEX
  5
A9005
  8
ASHADE
 10
7.255165262999518
 20
-0.0000823858845607
 30
-0.0016590709927657
  0
VERTEX
  5
A9006
  8
ASHADE
 10
7.3031151091778099
 20
-0.0000823858845607
 30
-0.0016590709927657
  0
VERTEX
  5
A9007
  8
ASHADE
 10
7.3031214423595596
 20
0.1813345579058411
 30
-0.0016590709927657
 42
0.2402854015429856
  0
VERTEX
  5
A9008
  8
ASHADE
 10
7.2322836957597696
 20
0.26418703374644
 30
-0.0016590709927657
  0
SEQEND
  5
A9009
  8
ASHADE
  0
POLYLINE
  5
A8F6E
  8
ASHADE
 66
     1
 10
0.0
 20
0.0
 30
-0.0021703157193874
  0
VERTEX
  5
A900A
  8
ASHADE
 10
6.8066986534540703
 20
2.748026408882601
 30
-0.0021703157193874
  0
VERTEX
  5
A900B
  8
ASHADE
 10
6.8066986534540757
 20
0.5795264153049994
 30
-0.0021703157193874
 42
0.3016959753639359
  0
VERTEX
  5
A900C
  8
ASHADE
 10
7.230624157999026
 20
0.2642694417591613
 30
-0.0021703157193874
 42
-0.240286499058564
  0
VERTEX
  5
A900D
  8
ASHADE
 10
7.3014617539635331
 20
0.1814169720564109
 30
-0.0021703157193874
  0
VERTEX
  5
A900E
  8
ASHADE
 10
7.3014554205357021
 20
0.0000000550725758
 30
-0.0021703157193874
  0
VERTEX
  5
A900F
  8
ASHADE
 10
6.0416156833587804
 20
0.0000001101451517
 30
-0.0021703157193874
  0
VERTEX
  5
A9010
  8
ASHADE
 10
4.7817759461818703
 20
0.0000000550725758
 30
-0.0021703157193874
  0
VERTEX
  5
A9011
  8
ASHADE
 10
4.7817696127540312
 20
0.1814169720564147
 30
-0.0021703157193874
 42
-0.2402864990585623
  0
VERTEX
  5
A9012
  8
ASHADE
 10
4.8526072087185437
 20
0.2642694417591533
 30
-0.0021703157193874
 42
0.2980042838601113
  0
VERTEX
  5
A9013
  8
ASHADE
 10
5.2765322117750539
 20
0.5795264153050006
 30
-0.0021703157193874
  0
VERTEX
  5
A9014
  8
ASHADE
 10
5.2765322117750539
 20
2.748026408882601
 30
-0.0021703157193874
  0
SEQEND
  5
A9015
  8
ASHADE
  0
POLYLINE
  5
A8F7D
  8
ASHADE
 66
     1
 10
0.0
 20
0.0
 30
-0.0034302238349554
  0
VERTEX
  5
A9016
  8
ASHADE
 10
4.8526072087185508
 20
0.2642694417591507
 30
-0.0034302238349554
  0
VERTEX
  5
A9017
  8
ASHADE
 10
7.2306241579990198
 20
0.2642694417591507
 30
-0.0034302238349554
  0
SEQEND
  5
A9018
  8
ASHADE
  0
POLYLINE
  5
A8F7F
  8
ASHADE
 66
     1
 10
0.0
 20
0.0
 30
-0.0016590709927657
  0
VERTEX
  5
A9019
  8
ASHADE
 10
6.807509345682849
 20
0.5794441106804129
 30
-0.0016590709927657
  0
VERTEX
  5
A901A
  8
ASHADE
 10
6.807509345682849
 20
4.6503913780786501
 30
-0.0016590709927657
  0
VERTEX
  5
A901B
  8
ASHADE
 10
5.7921428185068891
 20
4.6503913780786501
 30
-0.0016590709927657
  0
VERTEX
  5
A901C
  8
ASHADE
 10
5.279041167092962
 20
4.6503913780786501
 30
-0.0016590709927657
  0
VERTEX
  5
A901D
  8
ASHADE
 10
5.279041167092962
 20
0.5794441106804129
 30
-0.0016590709927657
  0
SEQEND
  5
A901E
  8
ASHADE
  0
POLYLINE
  5
A8F84
  8
ASHADE
 66
     1
 10
0.0
 20
0.0
 30
-0.0016590709927657
  0
VERTEX
  5
A901F
  8
ASHADE
 10
5.5319619421488611
 20
4.9384906398266892
 30
-0.0016590709927657
  0
VERTEX
  5
A9020
  8
ASHADE
 10
6.5545885706269731
 20
4.9384905563928561
 30
-0.0016590709927657
 42
0.1962029248592781
  0
VERTEX
  5
A9021
  8
ASHADE
 10
6.7686483096653047
 20
4.6865239230729978
 30
-0.0016590709927657
 42
-0.2935909523990611
  0
VERTEX
  5
A9022
  8
ASHADE
 10
6.8075093456828428
 20
4.6503913780786457
 30
-0.0016590709927657
  0
SEQEND
  5
A9023
  8
ASHADE
  0
POLYLINE
  5
A8F87
  8
ASHADE
 66
     1
 10
0.0
 20
0.0
 30
-0.0016590709927657
  0
VERTEX
  5
A9024
  8
ASHADE
 10
5.2790411670929656
 20
4.6503913780786457
 30
-0.0016590709927657
 42
-0.293590952399061
  0
VERTEX
  5
A9025
  8
ASHADE
 10
5.3179022031104886
 20
4.6865239230730014
 30
-0.0016590709927657
 42
0.1962029248592786
  0
VERTEX
  5
A9026
  8
ASHADE
 10
5.5319619421488486
 20
4.9384905563928498
 30
-0.0016590709927657
  0
VERTEX
  5
A9027
  8
ASHADE
 10
5.5319624258179667
 20
10.866695656690791
 30
-0.0016590709927657
 42
-0.3851517571953332
  0
VERTEX
  5
A9028
  8
ASHADE
 10
6.0432760875171878
 20
11.378009361451451
 30
-0.0016590709927657
  0
SEQEND
  5
A9029
  8
ASHADE
  0
POLYLINE
  5
A8F8A
  8
ASHADE
 66
     1
 10
0.0
 20
0.0
 30
-0.0079189541581248
  0
VERTEX
  5
A902A
  8
ASHADE
 10
5.5319690407193161
 20
8.2160551838018385
 30
-0.0079189541581248
 42
0.2824615383182887
  0
VERTEX
  5
A902B
  8
ASHADE
 10
5.573531962787249
 20
8.1807796298601101
 30
-0.0079189541581248
  0
VERTEX
  5
A902C
  8
ASHADE
 10
6.5156676714888624
 20
8.1807795951954745
 30
-0.0079189541581248
 42
0.2602620052651245
  0
VERTEX
  5
A902D
  8
ASHADE
 10
6.554595965964233
 20
8.2160551838018367
 30
-0.0079189541581248
  0
SEQEND
  5
A902E
  8
ASHADE
  0
POLYLINE
  5
A8F8D
  8
ASHADE
 66
     1
 10
0.0
 20
0.0
 30
-0.0079190675196038
  0
VERTEX
  5
A902F
  8
ASHADE
 10
5.5319462615295292
 20
8.8642755185032787
 30
-0.0079190675196038
  0
VERTEX
  5
A9030
  8
ASHADE
 10
6.5545959072983671
 20
8.8642755190469735
 30
-0.0079190675196038
  0
SEQEND
  5
A9031
  8
ASHADE
  0
POLYLINE
  5
A8F8E
  8
ASHADE
 66
     1
 10
0.0
 20
0.0
 30
-0.0016590709927657
  0
VERTEX
  5
A9032
  8
ASHADE
 10
6.5545885706269571
 20
4.9384905563928498
 30
-0.0016590709927657
  0
VERTEX
  5
A9033
  8
ASHADE
 10
6.554588086957839
 20
10.866695656690791
 30
-0.0016590709927657
 42
0.3851517571953337
  0
VERTEX
  5
A9034
  8
ASHADE
 10
6.043274425258617
 20
11.378009361451451
 30
-0.0016590709927657
  0
SEQEND
  5
A9035
  8
ASHADE
  0
POLYLINE
  5
A8F92
  8
ASHADE
 66
     1
 10
0.0
 20
0.0
 30
0.0025196988993926
 70
     1
  0
VERTEX
  5
A9036
  8
ASHADE
 10
10.097633118583969
 20
2.8992071282786269
 30
0.0025196988993926
 42
0.2855398524686315
  0
VERTEX
  5
A9037
  8
ASHADE
 10
10.06165924573857
 20
2.8639317693479192
 30
0.0025196988993926
  0
VERTEX
  5
A9038
  8
ASHADE
 10
10.061666309833569
 20
2.7984200454226209
 30
0.0025196988993926
  0
VERTEX
  5
A9039
  8
ASHADE
 10
10.088882763048611
 20
2.7732231245240322
 30
0.0025196988993926
  0
VERTEX
  5
A903A
  8
ASHADE
 10
10.061666309833569
 20
2.748026353810022
 30
0.0025196988993926
  0
VERTEX
  5
A903B
  8
ASHADE
 10
10.061666309833569
 20
0.5795263602324319
 30
0.0025196988993926
  0
VERTEX
  5
A903C
  8
ASHADE
 10
11.59183275151258
 20
0.5795263602324319
 30
0.0025196988993926
  0
VERTEX
  5
A903D
  8
ASHADE
 10
11.59183275151258
 20
2.748026353810022
 30
0.0025196988993926
  0
VERTEX
  5
A903E
  8
ASHADE
 10
11.56461629829754
 20
2.7732231245240322
 30
0.0025196988993926
  0
VERTEX
  5
A903F
  8
ASHADE
 10
11.59183275151258
 20
2.7984200454226209
 30
0.0025196988993926
  0
VERTEX
  5
A9040
  8
ASHADE
 10
11.591839815607591
 20
2.8639317693479129
 30
0.0025196988993926
 42
0.2855398524686395
  0
VERTEX
  5
A9041
  8
ASHADE
 10
11.55586594276218
 20
2.8992071282786269
 30
0.0025196988993926
  0
VERTEX
  5
A9042
  8
ASHADE
 10
11.4085630848506
 20
2.8992071282786269
 30
0.0025196988993926
  0
VERTEX
  5
A9043
  8
ASHADE
 10
10.244935976495571
 20
2.8992071282786269
 30
0.0025196988993926
  0
SEQEND
  5
A9044
  8
ASHADE
  0
POLYLINE
  5
A8F93
  8
ASHADE
 66
     1
 10
0.0
 20
0.0
 30
0.0012597907838249
  0
VERTEX
  5
A9045
  8
ASHADE
 10
1.5529806408546061
 20
4.0840251692577523
 30
0.0012597907838249
 42
0.6051967396047268
  0
VERTEX
  5
A9046
  8
ASHADE
 10
0.9667105966792577
 20
4.0840243916107433
 30
0.0012597907838249
  0
SEQEND
  5
A9047
  8
ASHADE
  0
POLYLINE
  5
A8F94
  8
ASHADE
 66
     1
 10
0.0
 20
0.0
 30
-4.084023109331846
210
0.000001326431411
220
-0.9999999999991203
230
0.0
  0
VERTEX
  5
A9048
  8
ASHADE
 10
0.9667160138566492
 20
0.0010211779342735
 30
-4.084023109331846
  0
VERTEX
  5
A9049
  8
ASHADE
 10
0.4269418325160713
 20
0.0009364336779595
 30
-4.084023109331846
  0
SEQEND
  5
A904A
  8
ASHADE
  0
POLYLINE
  5
A8F95
  8
ASHADE
 66
     1
 10
0.0
 20
0.0
 30
0.0012596734520816
  0
VERTEX
  5
A904B
  8
ASHADE
 10
0.0708312625366871
 20
0.2642693866865882
 30
0.0012596734520816
 42
0.2402864990585623
  0
VERTEX
  5
A904C
  8
ASHADE
 10
-0.0000063334278195
 20
0.1814169169838315
 30
0.0012596734520816
  0
VERTEX
  5
A904D
  8
ASHADE
 10
0.0
 20
0.0
 30
0.0012596734520816
  0
VERTEX
  5
A904E
  8
ASHADE
 10
1.2598397371769201
 20
0.0000000550725829
 30
0.0012596734520816
  0
VERTEX
  5
A904F
  8
ASHADE
 10
2.5196794743538362
 20
0.0
 30
0.0012596734520816
  0
VERTEX
  5
A9050
  8
ASHADE
 10
2.5196858077816668
 20
0.1814169169838423
 30
0.0012596734520816
 42
0.240286499058564
  0
VERTEX
  5
A9051
  8
ASHADE
 10
2.4488482118171562
 20
0.2642693866865784
 30
0.0012596734520816
  0
VERTEX
  5
A9052
  8
ASHADE
 10
0.0708312625366822
 20
0.264269386686581
 30
0.0012596734520816
 42
0.2980042838601113
  0
VERTEX
  5
A9053
  8
ASHADE
 10
0.4947562655932103
 20
0.5795263602324319
 30
0.0012596734520816
  0
VERTEX
  5
A9054
  8
ASHADE
 10
0.4947562655932103
 20
2.748026353810022
 30
0.0012596734520816
  0
VERTEX
  5
A9055
  8
ASHADE
 10
0.5219727188082324
 20
2.7732231245240322
 30
0.0012596734520816
  0
VERTEX
  5
A9056
  8
ASHADE
 10
0.4947562655932103
 20
2.7984200454226209
 30
0.0012596734520816
  0
VERTEX
  5
A9057
  8
ASHADE
 10
0.4947492014982002
 20
2.8639317693479129
 30
0.0012596734520816
 42
-0.2855398524686398
  0
VERTEX
  5
A9058
  8
ASHADE
 10
0.5307230743436122
 20
2.8992071282786269
 30
0.0012596734520816
  0
VERTEX
  5
A9059
  8
ASHADE
 10
0.6780259322551993
 20
2.8992071282786269
 30
0.0012596734520816
  0
VERTEX
  5
A905A
  8
ASHADE
 10
1.8416530406102321
 20
2.8992071282786269
 30
0.0012596734520816
  0
VERTEX
  5
A905B
  8
ASHADE
 10
1.988955898521809
 20
2.8992071282786269
 30
0.0012596734520816
 42
-0.2855398524686314
  0
VERTEX
  5
A905C
  8
ASHADE
 10
2.0249297713672281
 20
2.8639317693479192
 30
0.0012596734520816
  0
VERTEX
  5
A905D
  8
ASHADE
 10
2.0249227072722089
 20
2.7984200454226209
 30
0.0012596734520816
  0
VERTEX
  5
A905E
  8
ASHADE
 10
1.997706254057191
 20
2.7732231245240322
 30
0.0012596734520816
  0
VERTEX
  5
A905F
  8
ASHADE
 10
2.0249227072722089
 20
2.748026353810022
 30
0.0012596734520816
  0
VERTEX
  5
A9060
  8
ASHADE
 10
2.0249227072722178
 20
0.5795263602324202
 30
0.0012596734520816
 42
0.3016959753639359
  0
VERTEX
  5
A9061
  8
ASHADE
 10
2.4488482118171708
 20
0.2642693866865798
 30
0.0012596734520816
  0
SEQEND
  5
A9062
  8
ASHADE
  0
POLYLINE
  5
A8F9A
  8
ASHADE
 66
     1
 10
0.0
 20
0.0
 30
0.0012598494496964
  0
VERTEX
  5
A9063
  8
ASHADE
 10
1.552702333522489
 20
3.1511751729585651
 30
0.0012598494496964
 42
0.2479514660011013
  0
VERTEX
  5
A9064
  8
ASHADE
 10
1.841653040610238
 20
2.8992071282786371
 30
0.0012598494496964
  0
SEQEND
  5
A9065
  8
ASHADE
  0
POLYLINE
  5
A8F9B
  8
ASHADE
 66
     1
 10
0.0
 20
0.0
 30
0.0012597321179532
  0
VERTEX
  5
A9066
  8
ASHADE
 10
0.6780259322552091
 20
2.899207128278634
 30
0.0012597321179532
 42
0.247960070921471
  0
VERTEX
  5
A9067
  8
ASHADE
 10
0.9669735672579463
 20
3.151175618059832
 30
0.0012597321179532
  0
SEQEND
  5
A9068
  8
ASHADE
  0
POLYLINE
  5
A8FA2
  8
ASHADE
 66
     1
 10
0.0
 20
0.0
 30
0.0011132220160588
  0
VERTEX
  5
A9069
  8
ASHADE
 10
0.9672561732456408
 20
3.225742442589461
 30
0.0011132220160588
  0
VERTEX
  5
A906A
  8
ASHADE
 10
0.9672567164815715
 20
4.0176571160792891
 30
0.0011132220160588
  0
SEQEND
  5
A906B
  8
ASHADE
  0
POLYLINE
  5
A8FA3
  8
ASHADE
 66
     1
 10
0.0
 20
0.0
 30
-1.5517621399429511
210
-0.9999999554963487
220
0.0002983409131538
230
0.0
  0
VERTEX
  5
A906C
  8
ASHADE
 10
-3.1516382673517982
 20
0.0012598494496964
 30
-1.5517621399429511
  0
VERTEX
  5
A906D
  8
ASHADE
 10
-4.0844883051662189
 20
0.0011132220160588
 30
-1.5517621399429511
  0
SEQEND
  5
A906E
  8
ASHADE
  0
POLYLINE
  5
A8FA4
  8
ASHADE
 66
     1
 10
0.0
 20
0.0
 30
-1.5516910834024309
210
-0.9999999485158639
220
0.0003208866930628
230
0.0
  0
VERTEX
  5
A906F
  8
ASHADE
 10
-3.1516732522401441
 20
0.0012598494496964
 30
-1.5516910834024309
  0
VERTEX
  5
A9070
  8
ASHADE
 10
-4.0181549909688501
 20
0.0011132220160588
 30
-1.5516910834024309
  0
SEQEND
  5
A9071
  8
ASHADE
  0
POLYLINE
  5
A8FA5
  8
ASHADE
 66
     1
 10
0.0
 20
0.0
 30
-0.9660583735752156
210
-0.9999999578291726
220
0.0002904163447417
230
0.0
  0
VERTEX
  5
A9072
  8
ASHADE
 10
-3.151456310101012
 20
0.0012597321179532
 30
-0.9660583735752156
  0
VERTEX
  5
A9073
  8
ASHADE
 10
-4.0843057609291256
 20
0.0011132220160588
 30
-0.9660583735752156
  0
SEQEND
  5
A9074
  8
ASHADE
  0
POLYLINE
  5
A8FA6
  8
ASHADE
 66
     1
 10
0.0
 20
0.0
 30
-2.5195330282575301
210
-1.0
220
0.0
230
0.0
  0
VERTEX
  5
A9075
  8
ASHADE
 10
-4.5425147473202809
 20
0.0009370203366758
 30
-2.5195330282575301
  0
VERTEX
  5
A9076
  8
ASHADE
 10
-4.7299990885593388
 20
0.0012599081155681
 30
-2.5195330282575301
  0
SEQEND
  5
A9077
  8
ASHADE
  0
POLYLINE
  5
A8FA7
  8
ASHADE
 66
     1
 10
0.0
 20
0.0
 30
0.0012599081155681
  0
VERTEX
  5
A9078
  8
ASHADE
 10
2.5195330282575301
 20
4.7299990885593388
 30
0.0012599081155681
  0
VERTEX
  5
A9079
  8
ASHADE
 10
2.487168847692331
 20
4.7673792279554412
 30
0.0012599081155681
  0
SEQEND
  5
A907A
  8
ASHADE
  0
POLYLINE
  5
A8FA8
  8
ASHADE
 66
     1
 10
0.0
 20
0.0
 30
0.0012599081155681
  0
VERTEX
  5
A907B
  8
ASHADE
 10
2.5195330282575301
 20
4.5425147473202809
 30
0.0012599081155681
  0
VERTEX
  5
A907C
  8
ASHADE
 10
2.5195330282575301
 20
4.1176991625167823
 30
0.0012599081155681
  0
VERTEX
  5
A907D
  8
ASHADE
 10
2.487168847692331
 20
4.0803190231206781
 30
0.0012599081155681
  0
SEQEND
  5
A907E
  8
ASHADE
  0
POLYLINE
  5
A8FB6
  8
ASHADE
 66
     1
 10
0.0
 20
0.0
 30
-4.0840231093318291
210
0.0000013264314264
220
-0.9999999999991203
230
0.0
  0
VERTEX
  5
A907F
  8
ASHADE
 10
2.4871738920788728
 20
0.0012598890038301
 30
-4.0840231093318291
  0
VERTEX
  5
A9080
  8
ASHADE
 10
1.5529860580325641
 20
0.0011132220160588
 30
-4.0840231093318291
  0
SEQEND
  5
A9081
  8
ASHADE
  0
POLYLINE
  5
A8FB7
  8
ASHADE
 66
     1
 10
0.0
 20
0.0
 30
0.001259908115568
  0
VERTEX
  5
A9082
  8
ASHADE
 10
1.997706254057191
 20
2.7732231245240322
 30
0.001259908115568
  0
VERTEX
  5
A9083
  8
ASHADE
 10
0.5219727188082324
 20
2.7732231245240322
 30
0.001259908115568
  0
SEQEND
  5
A9084
  8
ASHADE
  0
POLYLINE
  5
A8FB8
  8
ASHADE
 66
     1
 10
0.0
 20
0.0
 30
-9.56705598884826
210
-1.0
220
0.0
230
0.0
  0
VERTEX
  5
A9085
  8
ASHADE
 10
-4.5425147473202809
 20
0.0021968111205005
 30
-9.56705598884826
  0
VERTEX
  5
A9086
  8
ASHADE
 10
-4.7299990885593388
 20
0.0025196988993928
 30
-9.56705598884826
  0
SEQEND
  5
A9087
  8
ASHADE
  0
POLYLINE
  5
A8FB9
  8
ASHADE
 66
     1
 10
0.0
 20
0.0
 30
0.0025196988993928
  0
VERTEX
  5
A9088
  8
ASHADE
 10
9.56705598884826
 20
4.7299990885593388
 30
0.0025196988993928
  0
VERTEX
  5
A9089
  8
ASHADE
 10
9.5994201694134595
 20
4.7673792279554412
 30
0.0025196988993928
  0
SEQEND
  5
A908A
  8
ASHADE
  0
POLYLINE
  5
A8FBA
  8
ASHADE
 66
     1
 10
0.0
 20
0.0
 30
0.0025196988993928
  0
VERTEX
  5
A908B
  8
ASHADE
 10
9.56705598884826
 20
4.5425147473202809
 30
0.0025196988993928
  0
VERTEX
  5
A908C
  8
ASHADE
 10
9.56705598884826
 20
4.1176991625167823
 30
0.0025196988993928
  0
VERTEX
  5
A908D
  8
ASHADE
 10
9.5994201694134595
 20
4.0803190231206781
 30
0.0025196988993928
  0
SEQEND
  5
A908E
  8
ASHADE
  0
POLYLINE
  5
A8FC1
  8
ASHADE
 66
     1
 10
0.0
 20
0.0
 30
0.0012597907838247
  0
VERTEX
  5
A908F
  8
ASHADE
 10
10.06166630983358
 20
0.5795263602324202
 30
0.0012597907838247
 42
-0.3016959753639358
  0
VERTEX
  5
A9090
  8
ASHADE
 10
9.6377408052886206
 20
0.2642693866865891
 30
0.0012597907838247
 42
0.2402864990585642
  0
VERTEX
  5
A9091
  8
ASHADE
 10
9.5669032093241313
 20
0.1814169169838315
 30
0.0012597907838247
  0
VERTEX
  5
A9092
  8
ASHADE
 10
9.5669095427519526
 20
0.0
 30
0.0012597907838247
  0
VERTEX
  5
A9093
  8
ASHADE
 10
10.82674927992886
 20
0.0000000550725829
 30
0.0012597907838247
  0
VERTEX
  5
A9094
  8
ASHADE
 10
12.08658901710578
 20
0.0
 30
0.0012597907838247
  0
VERTEX
  5
A9095
  8
ASHADE
 10
12.08659535053361
 20
0.1814169169838423
 30
0.0012597907838247
 42
0.2402864990585621
  0
VERTEX
  5
A9096
  8
ASHADE
 10
12.01575775456911
 20
0.264269386686581
 30
0.0012597907838247
 42
-0.298004283860112
  0
VERTEX
  5
A9097
  8
ASHADE
 10
11.59183275151258
 20
0.5795263602324232
 30
0.0012597907838247
  0
SEQEND
  5
A9098
  8
ASHADE
  0
POLYLINE
  5
A8FC5
  8
ASHADE
 66
     1
 10
0.0
 20
0.0
 30
0.0025195815676496
  0
VERTEX
  5
A9099
  8
ASHADE
 10
11.119878420426531
 20
4.0840243916107433
 30
0.0025195815676496
 42
0.6051967396047264
  0
VERTEX
  5
A909A
  8
ASHADE
 10
10.533608376251181
 20
4.0840251692577523
 30
0.0025195815676496
  0
SEQEND
  5
A909B
  8
ASHADE
  0
POLYLINE
  5
A8FC6
  8
ASHADE
 66
     1
 10
0.0
 20
0.0
 30
4.0840391413631716
210
0.000001326431411
220
0.9999999999991203
230
0.0
  0
VERTEX
  5
A909C
  8
ASHADE
 10
-11.11987300323853
 20
0.0022809687180982
 30
4.0840391413631716
  0
VERTEX
  5
A909D
  8
ASHADE
 10
-11.659647184579089
 20
0.0021962244617841
 30
4.0840391413631716
  0
SEQEND
  5
A909E
  8
ASHADE
  0
POLYLINE
  5
A8FC7
  8
ASHADE
 66
     1
 10
0.0
 20
0.0
 30
0.0025195229017779
  0
VERTEX
  5
A909F
  8
ASHADE
 10
11.11961544984786
 20
3.151175618059832
 30
0.0025195229017779
 42
0.2479600709214714
  0
VERTEX
  5
A90A0
  8
ASHADE
 10
11.40856308485059
 20
2.899207128278634
 30
0.0025195229017779
  0
SEQEND
  5
A90A1
  8
ASHADE
  0
POLYLINE
  5
A8FD2
  8
ASHADE
 66
     1
 10
0.0
 20
0.0
 30
0.0023730127998835
  0
VERTEX
  5
A90A2
  8
ASHADE
 10
11.11933284386013
 20
3.225742442589461
 30
0.0023730127998835
  0
VERTEX
  5
A90A3
  8
ASHADE
 10
11.119332300624221
 20
4.0176571160792891
 30
0.0023730127998835
  0
SEQEND
  5
A90A4
  8
ASHADE
  0
POLYLINE
  5
A8FD3
  8
ASHADE
 66
     1
 10
0.0
 20
0.0
 30
-10.534826339265519
210
-0.9999999554963487
220
-0.0002983409131612
230
0.0
  0
VERTEX
  5
A90A5
  8
ASHADE
 10
-3.1480323433474431
 20
0.0025196402335211
 30
-10.534826339265519
  0
VERTEX
  5
A90A6
  8
ASHADE
 10
-4.0808823811618637
 20
0.0023730127998835
 30
-10.534826339265519
  0
SEQEND
  5
A90A7
  8
ASHADE
  0
POLYLINE
  5
A8FD4
  8
ASHADE
 66
     1
 10
0.0
 20
0.0
 30
-10.534897311435779
210
-0.9999999485158639
220
-0.0003208866930674
230
0.0
  0
VERTEX
  5
A90A8
  8
ASHADE
 10
-3.1477948266599869
 20
0.0025196402335211
 30
-10.534897311435779
  0
VERTEX
  5
A90A9
  8
ASHADE
 10
-4.014276565388692
 20
0.0023730127998835
 30
-10.534897311435779
  0
SEQEND
  5
A90AA
  8
ASHADE
  0
POLYLINE
  5
A8FD5
  8
ASHADE
 66
     1
 10
0.0
 20
0.0
 30
-11.120530133829091
210
-0.9999999578291726
220
-0.000290416344736
230
0.0
  0
VERTEX
  5
A90AB
  8
ASHADE
 10
-3.1479461670983331
 20
0.0025195229017779
 30
-11.120530133829091
  0
VERTEX
  5
A90AC
  8
ASHADE
 10
-4.0807956179264471
 20
0.0023730127998835
 30
-11.120530133829091
  0
SEQEND
  5
A90AD
  8
ASHADE
  0
POLYLINE
  5
A8FD7
  8
ASHADE
 66
     1
 10
0.0
 20
0.0
 30
0.0012597907838247
  0
VERTEX
  5
A90AE
  8
ASHADE
 10
12.01575775456911
 20
0.2642693866865784
 30
0.0012597907838247
  0
VERTEX
  5
A90AF
  8
ASHADE
 10
9.6377408052886313
 20
0.2642693866865784
 30
0.0012597907838247
  0
SEQEND
  5
A90B0
  8
ASHADE
  0
POLYLINE
  5
A8FD8
  8
ASHADE
 66
     1
 10
0.0
 20
0.0
 30
0.0025196988993927
  0
VERTEX
  5
A90B1
  8
ASHADE
 10
10.088882763048611
 20
2.7732231245240322
 30
0.0025196988993927
  0
VERTEX
  5
A90B2
  8
ASHADE
 10
11.56461629829754
 20
2.7732231245240322
 30
0.0025196988993927
  0
SEQEND
  5
A90B3
  8
ASHADE
  0
POLYLINE
  5
A8FDA
  8
ASHADE
 66
     1
 10
0.0
 20
0.0
 30
0.0025196402335211
  0
VERTEX
  5
A90B4
  8
ASHADE
 10
10.244935976495549
 20
2.8992071282786371
 30
0.0025196402335211
 42
0.2479514660011013
  0
VERTEX
  5
A90B5
  8
ASHADE
 10
10.533886683583299
 20
3.1511751729585642
 30
0.0025196402335211
  0
SEQEND
  5
A90B6
  8
ASHADE
  0
POLYLINE
  5
A8FDC
  8
ASHADE
 66
     1
 10
0.0
 20
0.0
 30
4.0840391413633412
210
0.0000013264314264
220
0.9999999999991203
230
0.0
  0
VERTEX
  5
A90B7
  8
ASHADE
 10
-9.5994151250162787
 20
0.0025196797876547
 30
4.0840391413633412
  0
VERTEX
  5
A90B8
  8
ASHADE
 10
-10.533602959062589
 20
0.0023730127998835
 30
4.0840391413633412
  0
SEQEND
  5
A90B9
  8
ASHADE
  0
ENDSEC
  0
EOF
