  0
SECTION
  2
HEADER
  9
$ACADVER
  1
AC1009
  9
$INSBASE
 10
506.60749660607178
 20
98.974334800979776
 30
0.0
  9
$EXTMIN
 10
498.48249660607189
 20
98.96555809764358
 30
0.0
  9
$EXTMAX
 10
508.36549660607187
 20
110.34433480097969
 30
0.0
  9
$LIMMIN
 10
0.0
 20
0.0
  9
$LIMMAX
 10
11.692913385800001
 20
8.2677165353999982
  9
$ORTHOMODE
 70
     0
  9
$REGENMODE
 70
     1
  9
$FILLMODE
 70
     1
  9
$QTEXTMODE
 70
     0
  9
$MIRRTEXT
 70
     0
  9
$DRAGMODE
 70
     2
  9
$LTSCALE
 40
0.6431102362
  9
$OSMODE
 70
  3071
  9
$ATTMODE
 70
     1
  9
$TEXTSIZE
 40
0.2
  9
$TRACEWID
 40
0.05
  9
$TEXTSTYLE
  7
STANDARD
  9
$CLAYER
  8
0
  9
$CELTYPE
  6
BYLAYER
  9
$CECOLOR
 62
   256
  9
$DIMSCALE
 40
1.0
  9
$DIMASZ
 40
0.1875
  9
$DIMEXO
 40
0.0625
  9
$DIMDLI
 40
0.4443307087
  9
$DIMRND
 40
0.0
  9
$DIMDLE
 40
0.0
  9
$DIMEXE
 40
0.125
  9
$DIMTP
 40
0.01
  9
$DIMTM
 40
0.01
  9
$DIMTXT
 40
1.0
  9
$DIMCEN
 40
0.1052362205
  9
$DIMTSZ
 40
0.0
  9
$DIMTOL
 70
     1
  9
$DIMLIM
 70
     0
  9
$DIMTIH
 70
     0
  9
$DIMTOH
 70
     1
  9
$DIMSE1
 70
     0
  9
$DIMSE2
 70
     0
  9
$DIMTAD
 70
     0
  9
$DIMZIN
 70
     0
  9
$DIMBLK
  1

  9
$DIMASO
 70
     1
  9
$DIMSHO
 70
     1
  9
$DIMPOST
  1
\X
  9
$DIMAPOST
  1

  9
$DIMALT
 70
     1
  9
$DIMALTD
 70
     2
  9
$DIMALTF
 40
25.399999999999999
  9
$DIMLFAC
 40
1.0
  9
$DIMTOFL
 70
     0
  9
$DIMTVP
 40
0.0
  9
$DIMTIX
 70
     0
  9
$DIMSOXD
 70
     0
  9
$DIMSAH
 70
     0
  9
$DIMBLK1
  1

  9
$DIMBLK2
  1

  9
$DIMSTYLE
  2
STANDARD
  9
$DIMCLRD
 70
     0
  9
$DIMCLRE
 70
     0
  9
$DIMCLRT
 70
     0
  9
$DIMTFAC
 40
1.0
  9
$DIMGAP
 40
0.09
  9
$LUNITS
 70
     2
  9
$LUPREC
 70
     4
  9
$SKETCHINC
 40
0.1
  9
$FILLETRAD
 40
0.0
  9
$AUNITS
 70
     0
  9
$AUPREC
 70
     0
  9
$MENU
  1
.
  9
$ELEVATION
 40
0.0
  9
$PELEVATION
 40
0.0
  9
$THICKNESS
 40
0.0
  9
$LIMCHECK
 70
     0
  9
$BLIPMODE
 70
     0
  9
$CHAMFERA
 40
0.0
  9
$CHAMFERB
 40
0.0
  9
$SKPOLY
 70
     0
  9
$TDCREATE
 40
2458172.5207663891
  9
$TDUPDATE
 40
2458541.5169857759
  9
$TDINDWG
 40
0.2438208912
  9
$TDUSRTIMER
 40
0.2438208912
  9
$USRTIMER
 70
     1
  9
$ANGBASE
 50
0.0
  9
$ANGDIR
 70
     0
  9
$PDMODE
 70
     0
  9
$PDSIZE
 40
0.3125
  9
$PLINEWID
 40
0.0
  9
$COORDS
 70
     1
  9
$SPLFRAME
 70
     0
  9
$SPLINETYPE
 70
     6
  9
$SPLINESEGS
 70
     8
  9
$ATTDIA
 70
     1
  9
$ATTREQ
 70
     1
  9
$HANDLING
 70
     1
  9
$HANDSEED
  5
809C
  9
$SURFTAB1
 70
     6
  9
$SURFTAB2
 70
     6
  9
$SURFTYPE
 70
     6
  9
$SURFU
 70
     6
  9
$SURFV
 70
     6
  9
$UCSNAME
  2

  9
$UCSORG
 10
0.0
 20
0.0
 30
0.0
  9
$UCSXDIR
 10
1.0
 20
0.0
 30
0.0
  9
$UCSYDIR
 10
0.0
 20
1.0
 30
0.0
  9
$PUCSNAME
  2

  9
$PUCSORG
 10
0.0
 20
0.0
 30
0.0
  9
$PUCSXDIR
 10
1.0
 20
0.0
 30
0.0
  9
$PUCSYDIR
 10
0.0
 20
1.0
 30
0.0
  9
$USERI1
 70
     0
  9
$USERI2
 70
     0
  9
$USERI3
 70
     0
  9
$USERI4
 70
     0
  9
$USERI5
 70
     0
  9
$USERR1
 40
0.0
  9
$USERR2
 40
0.0
  9
$USERR3
 40
0.0
  9
$USERR4
 40
0.0
  9
$USERR5
 40
0.0
  9
$WORLDVIEW
 70
     1
  9
$SHADEDGE
 70
     3
  9
$SHADEDIF
 70
    70
  9
$TILEMODE
 70
     1
  9
$MAXACTVP
 70
    64
  9
$PLIMCHECK
 70
     0
  9
$PEXTMIN
 10
1.0000000000000000E+020
 20
1.0000000000000000E+020
 30
1.0000000000000000E+020
  9
$PEXTMAX
 10
-1.0000000000000000E+020
 20
-1.0000000000000000E+020
 30
-1.0000000000000000E+020
  9
$PLIMMIN
 10
0.0
 20
0.0
  9
$PLIMMAX
 10
12.0
 20
9.0
  9
$UNITMODE
 70
     0
  9
$VISRETAIN
 70
     1
  9
$PLINEGEN
 70
     0
  9
$PSLTSCALE
 70
     1
  0
ENDSEC
  0
SECTION
  2
TABLES
  0
TABLE
  2
VPORT
 70
     1
  0
VPORT
  2
*ACTIVE
 70
     0
 10
0.0
 20
0.0
 11
1.0
 21
1.0
 12
0.0
 22
0.0
 13
0.0
 23
0.0
 14
1.0
 24
1.0
 15
0.0
 25
0.0
 16
0.0
 26
0.0
 36
41.341716337706643
 17
503.4239966060718
 27
104.65494644931159
 37
0.0
 40
15.081952364566151
 41
2.0329087048832268
 42
50.0
 43
0.0
 44
0.0
 50
0.0
 51
0.0
 71
     0
 72
   100
 73
     1
 74
     1
 75
     0
 76
     0
 77
     0
 78
     0
  0
ENDTAB
  0
TABLE
  2
LTYPE
 70
     2
  0
LTYPE
  2
CONTINUOUS
 70
     0
  3
Solid line
 72
    65
 73
     0
 40
0.0
  0
LTYPE
  2
PHANTOM2
 70
     0
  3
___ _ _ ___ _ _ ___ _ _ ___ _ _
 72
    65
 73
     6
 40
1.25
 49
0.625
 49
-0.125
 49
0.125
 49
-0.125
 49
0.125
 49
-0.125
  0
ENDTAB
  0
TABLE
  2
LAYER
 70
     2
  0
LAYER
  2
0
 70
     0
 62
   255
  6
CONTINUOUS
  0
LAYER
  2
DEFPOINTS
 70
     0
 62
     7
  6
CONTINUOUS
  0
ENDTAB
  0
TABLE
  2
STYLE
 70
     1
  0
STYLE
  2
STANDARD
 70
     0
 40
0.0
 41
0.8
 50
0.0
 71
     0
 42
0.2
  3
txt
  4

  0
ENDTAB
  0
TABLE
  2
VIEW
 70
     0
  0
ENDTAB
  0
TABLE
  2
UCS
 70
     0
  0
ENDTAB
  0
TABLE
  2
APPID
 70
    10
  0
APPID
  2
ACAD
 70
     0
  0
APPID
  2
ACAD_MLEADERVER
 70
     0
  0
APPID
  2
ACAD_EXEMPT_FROM_CAD_STANDARDS
 70
     0
  0
APPID
  2
ACAD_DSTYLE_DIMJAG
 70
     0
  0
APPID
  2
ACAD_DSTYLE_DIMTALN
 70
     0
  0
APPID
  2
ACAD_NAV_VCDISPLAY
 70
     0
  0
APPID
  2
ACAECLAYERSTANDARD
 70
     0
  0
APPID
  2
ACCMTRANSPARENCY
 70
     0
  0
APPID
  2
DCO15
 70
     0
  0
APPID
  2
ACDBATTR
 70
     0
  0
ENDTAB
  0
TABLE
  2
DIMSTYLE
 70
     2
  0
DIMSTYLE
  2
STANDARD
 70
     0
  3

  4

  5

  6

  7

 40
1.0
 41
0.1875
 42
0.0625
 43
0.38
 44
0.125
 45
0.0
 46
0.0
 47
0.01
 48
0.01
140
0.15625
141
0.09
142
0.0
143
25.399999999999999
144
1.0
145
0.0
146
1.0
147
0.09
 71
     1
 72
     0
 73
     1
 74
     1
 75
     0
 76
     0
 77
     0
 78
     4
170
     0
171
     2
172
     0
173
     0
174
     0
175
     0
176
     0
177
     0
178
     0
  0
ENDTAB
  0
ENDSEC
  0
SECTION
  2
BLOCKS
  0
BLOCK
  8
0
  2
$MODEL_SPACE
 70
     0
 10
0.0
 20
0.0
 30
0.0
  3
$MODEL_SPACE
  1

  0
ENDBLK
  5
21
  8
0
  0
BLOCK
 67
     1
  8
0
  2
$PAPER_SPACE
 70
     0
 10
0.0
 20
0.0
 30
0.0
  3
$PAPER_SPACE
  1

  0
ENDBLK
  5
1D
 67
     1
  8
0
  0
ENDSEC
  0
SECTION
  2
ENTITIES
  0
ATTDEF
  5
829
  8
DEFPOINTS
 10
506.60367537601849
 20
98.970558097643575
 30
0.0
 40
0.001
  1
K-T14428-3
  3

  2
MODELNUMBER
 70
     0
1001
ACDBATTR
1070
     0
1070
     1
  0
ATTDEF
  5
82A
  8
DEFPOINTS
 10
506.60367537601849
 20
98.96889143097691
 30
0.0
 40
0.001
  1
PURIST
  3

  2
TRADENAME
 70
     0
1001
ACDBATTR
1070
     0
1070
     1
  0
ATTDEF
  5
82B
  8
DEFPOINTS
 10
506.60367537601849
 20
98.967224764310245
 30
0.0
 40
0.001
  1
BATH FAUCET TRIM
  3

  2
PRODUCT
 70
     0
1001
ACDBATTR
1070
     0
1070
     1
  0
ATTDEF
  5
82C
  8
DEFPOINTS
 10
506.60367537601849
 20
98.96555809764358
 30
0.0
 40
0.001
  1
BRASS
  3

  2
MATERIAL
 70
     0
1001
ACDBATTR
1070
     0
1070
     1
  0
LINE
  5
7F90
  8
0
 10
498.48249660607189
 20
107.29933480097969
 30
0.0
 11
498.48249660607189
 21
107.71933480097969
 31
0.0
  0
LINE
  5
7F91
  8
0
 10
498.48749660607189
 20
107.29933480097969
 30
0.0
 11
498.48749660607189
 21
106.73933480097971
 31
0.0
  0
LINE
  5
7F92
  8
0
 10
499.71749136737191
 20
106.7293348009797
 30
0.0
 11
499.7274966060719
 21
106.73933480097971
 31
0.0
  0
LINE
  5
7F93
  8
0
 10
499.7274966060719
 20
107.29933480097969
 30
0.0
 11
499.7274966060719
 21
106.73933480097971
 31
0.0
  0
LINE
  5
7F94
  8
0
 10
499.73249660607189
 20
107.29933480097969
 30
0.0
 11
499.73249660607189
 21
107.71933480097969
 31
0.0
  0
LINE
  5
7F95
  8
0
 10
498.49750184487192
 20
106.7293348009797
 30
0.0
 11
498.48749660607189
 21
106.73933480097971
 31
0.0
  0
LINE
  5
7F96
  8
0
 10
498.49750184487192
 20
106.7293348009797
 30
0.0
 11
499.71749136737191
 21
106.7293348009797
 31
0.0
  0
LINE
  5
7F97
  8
0
 10
498.48249660607189
 20
107.29933480097969
 30
0.0
 11
499.73249660607189
 21
107.29933480097969
 31
0.0
  0
LINE
  5
7F98
  8
0
 10
501.10749660607189
 20
109.09433480097969
 30
0.0
 11
504.60749660607189
 21
109.09433480097969
 31
0.0
  0
LINE
  5
7F99
  8
0
 10
501.10749660607189
 20
110.34433480097969
 30
0.0
 11
504.60749660607189
 21
110.34433480097969
 31
0.0
  0
ARC
  5
7F9A
  8
0
 10
504.60749660607189
 20
107.71933480097969
 30
0.0
 40
2.625
 50
0.0
 51
90.0
  0
ARC
  5
7F9B
  8
0
 10
501.10749660607189
 20
107.71933480097969
 30
0.0
 40
2.625
 50
90.0
 51
180.0
  0
ARC
  5
7F9C
  8
0
 10
504.60749660607189
 20
107.71933480097969
 30
0.0
 40
1.375
 50
0.0
 51
90.0
  0
ARC
  5
7F9D
  8
0
 10
501.10749660607189
 20
107.71933480097969
 30
0.0
 40
1.375
 50
90.0
 51
180.0
  0
LINE
  5
7F9E
  8
0
 10
505.32749660607192
 20
98.974334800979776
 30
0.0
 11
507.88749660607192
 21
98.974334800979776
 31
0.0
  0
LINE
  5
7F9F
  8
0
 10
507.88749660607192
 20
99.244334800979772
 30
0.0
 11
505.32749660607192
 21
99.244334800979772
 31
0.0
  0
LINE
  5
7FA0
  8
0
 10
505.32749660607192
 20
99.244334800979772
 30
0.0
 11
505.32749660607192
 21
98.974334800979776
 31
0.0
  0
LINE
  5
7FA1
  8
0
 10
505.74499660607188
 20
103.7143348009798
 30
0.0
 11
505.74499660607188
 21
103.67133480097981
 31
0.0
  0
LINE
  5
7FA2
  8
0
 10
505.74499660607188
 20
103.1513348009797
 30
0.0
 11
505.74499660607188
 21
99.644334800979777
 31
0.0
  0
LINE
  5
7FA3
  8
0
 10
505.98249660607189
 20
103.84433480097969
 30
0.0
 11
505.98249660607189
 21
107.71933480097969
 31
0.0
  0
LINE
  5
7FA4
  8
0
 10
507.4699966060719
 20
103.7143348009798
 30
0.0
 11
505.74499660607188
 21
103.7143348009798
 31
0.0
  0
LINE
  5
7FA5
  8
0
 10
505.98249660607189
 20
103.84433480097969
 30
0.0
 11
507.23249660607178
 21
103.84433480097969
 31
0.0
  0
LINE
  5
7FA6
  8
0
 10
507.23249660607178
 20
103.84433480097969
 30
0.0
 11
507.23249660607178
 21
107.71933480097969
 31
0.0
  0
LINE
  5
7FA7
  8
0
 10
507.4699966060719
 20
103.7143348009798
 30
0.0
 11
507.4699966060719
 21
103.67133480097981
 31
0.0
  0
LINE
  5
7FA8
  8
0
 10
507.4699966060719
 20
103.1513348009797
 30
0.0
 11
507.4699966060719
 21
100.2863348009797
 31
0.0
  0
LINE
  5
7FA9
  8
0
 10
507.4699966060719
 20
99.842334800979785
 30
0.0
 11
507.4699966060719
 21
99.644334800979777
 31
0.0
  0
LINE
  5
7FAA
  8
0
 10
507.88749660607192
 20
99.244334800979772
 30
0.0
 11
507.88749660607192
 21
98.974334800979776
 31
0.0
  0
ARC
  5
7FAB
  8
0
 10
505.3449966060719
 20
99.644334800979777
 30
0.0
 40
0.4
 50
270.0
 51
0.0
  0
ARC
  5
7FAC
  8
0
 10
505.85249660607178
 20
103.84433480097969
 30
0.0
 40
0.13
 50
270.0
 51
0.0
  0
ARC
  5
7FAD
  8
0
 10
507.86999660607188
 20
99.644334800979777
 30
0.0
 40
0.4
 50
180.0
 51
270.0
  0
ARC
  5
7FAE
  8
0
 10
507.36249660607189
 20
103.84433480097969
 30
0.0
 40
0.13
 50
180.0
 51
270.0
  0
LINE
  5
7FAF
  8
0
 10
508.36549660607187
 20
103.6613348009797
 30
0.0
 11
508.36549660607187
 21
103.1613348009797
 31
0.0
  0
LINE
  5
7FB0
  8
0
 10
507.40749660607179
 20
102.0113348009797
 30
0.0
 11
507.40749660607179
 21
101.92133480097981
 31
0.0
  0
LINE
  5
7FB1
  8
0
 10
507.40749660607179
 20
101.89133480097981
 30
0.0
 11
507.40749660607179
 21
99.664334800979773
 31
0.0
  0
LINE
  5
7FB2
  8
0
 10
507.3324966060718
 20
101.89133480097981
 30
0.0
 11
507.3324966060718
 21
101.92133480097981
 31
0.0
  0
LINE
  5
7FB3
  8
0
 10
506.86749660607188
 20
103.17900614502889
 30
0.0
 11
506.86749660607188
 21
102.2913348009797
 31
0.0
  0
LINE
  5
7FB4
  8
0
 10
506.34749660607179
 20
103.17900614502889
 30
0.0
 11
506.34749660607179
 21
102.2913348009797
 31
0.0
  0
LINE
  5
7FB5
  8
0
 10
505.88249660607181
 20
101.89133480097981
 30
0.0
 11
505.88249660607181
 21
101.92133480097981
 31
0.0
  0
LINE
  5
7FB6
  8
0
 10
505.80749660607188
 20
102.0113348009797
 30
0.0
 11
505.80749660607188
 21
101.92133480097981
 31
0.0
  0
LINE
  5
7FB7
  8
0
 10
505.80749660607188
 20
101.89133480097981
 30
0.0
 11
505.80749660607188
 21
99.664334800979773
 31
0.0
  0
LINE
  5
7FB8
  8
0
 10
505.80749660607188
 20
101.89133480097981
 30
0.0
 11
507.40749660607179
 21
101.89133480097981
 31
0.0
  0
LINE
  5
7FB9
  8
0
 10
507.40749660607179
 20
101.92133480097981
 30
0.0
 11
505.80749660607188
 21
101.92133480097981
 31
0.0
  0
LINE
  5
7FBA
  8
0
 10
505.80749660607188
 20
102.0113348009797
 30
0.0
 11
507.40749660607179
 21
102.0113348009797
 31
0.0
  0
LINE
  5
7FBB
  8
0
 10
504.8474966060719
 20
103.1613348009797
 30
0.0
 11
504.8474966060719
 21
103.6613348009797
 31
0.0
  0
LINE
  5
7FBC
  8
0
 10
504.85749660607178
 20
103.1513348009797
 30
0.0
 11
506.31755110657178
 21
103.1513348009797
 31
0.0
  0
LINE
  5
7FBD
  8
0
 10
506.8973319521719
 20
103.1513348009797
 30
0.0
 11
508.35549660607188
 21
103.1513348009797
 31
0.0
  0
LINE
  5
7FBE
  8
0
 10
504.85749660607178
 20
103.67133480097981
 30
0.0
 11
506.60749660607178
 21
103.67133480097981
 31
0.0
  0
LINE
  5
7FBF
  8
0
 10
506.60749660607178
 20
103.67133480097981
 30
0.0
 11
508.35549660607188
 21
103.67133480097981
 31
0.0
  0
ARC
  5
7FC0
  8
0
 10
507.8274966060718
 20
99.664334800979773
 30
0.0
 40
0.4200000000000001
 50
180.0
 51
270.0
  0
ARC
  5
7FC1
  8
0
 10
508.35549660607188
 20
103.1613348009797
 30
0.0
 40
0.01
 50
270.0
 51
0.0
  0
ARC
  5
7FC2
  8
0
 10
508.35549660607188
 20
103.6613348009797
 30
0.0
 40
0.01
 50
0.0
 51
90.0
  0
ARC
  5
7FC3
  8
0
 10
506.06749660607193
 20
102.2913348009797
 30
0.0
 40
0.28
 50
270.00000443310012
 51
0.0
  0
ARC
  5
7FC4
  8
0
 10
507.1474966060718
 20
102.2913348009797
 30
0.0
 40
0.28
 50
180.0
 51
269.99999556689988
  0
CIRCLE
  5
7FC5
  8
0
 10
506.60749660607178
 20
103.4113348009797
 30
0.0
 40
0.26
  0
ARC
  5
7FC6
  8
0
 10
505.38749660607181
 20
99.664334800979773
 30
0.0
 40
0.4200000000000001
 50
270.0
 51
0.0
  0
ARC
  5
7FC7
  8
0
 10
504.85749660607178
 20
103.1613348009797
 30
0.0
 40
0.01
 50
180.0
 51
270.0
  0
ARC
  5
7FC8
  8
0
 10
504.85749660607178
 20
103.6613348009797
 30
0.0
 40
0.01
 50
90.0
 51
180.0
  0
ARC
  5
7FC9
  8
0
 10
506.89750016294289
 20
103.16633957234561
 30
0.0
 40
0.0150057141983866
 50
220.16606124205441
 51
269.3577134030686
  0
ARC
  5
7FCA
  8
0
 10
508.31474212655291
 20
104.3607038916614
 30
0.0
 40
1.868402836903428
 50
217.41663838644229
 51
220.1224807360027
  0
ARC
  5
7FCB
  8
0
 10
506.80363047835112
 20
103.2046763147162
 30
0.0
 40
0.0341896502017089
 50
37.416638386442983
 51
69.354704656643591
  0
ARC
  5
7FCC
  8
0
 10
506.82357671841407
 20
103.1821594710276
 30
0.0
 40
0.0550791477650708
 50
98.237543465944213
 51
130.18054733267431
  0
ARC
  5
7FCD
  8
0
 10
506.31749583277031
 20
103.16633594944609
 30
0.0
 40
0.0150012502980212
 50
270.21111325074389
 51
319.83765550892377
  0
ARC
  5
7FCE
  8
0
 10
504.90025108559092
 20
104.3607038916614
 30
0.0
 40
1.868402836903428
 50
319.87751926399733
 51
322.58336161355697
  0
ARC
  5
7FCF
  8
0
 10
506.4113627337926
 20
103.2046763147162
 30
0.0
 40
0.0341896502017089
 50
110.64529534335639
 51
142.583361613557
  0
ARC
  5
7FD0
  8
0
 10
506.3914162884152
 20
103.18215876540189
 30
0.0
 40
0.0550798755275251
 50
49.820643133470483
 51
81.762350330893796
  0
ARC
  5
7FD2
  8
0
 10
508.51421112024548
 20
100.06433480097979
 30
0.0
 40
1.0675523179736031
 50
167.99761907345001
 51
192.00238092654999
  0
ARC
  5
7FD3
  8
0
 10
507.45878375953151
 20
100.23433480092901
 30
0.0
 40
0.0100000000641642
 50
25.839874385404489
 51
72.082290661980366
  0
ARC
  5
7FD4
  8
0
 10
507.10774554062522
 20
100.0643348009973
 30
0.0
 40
0.4000356793420047
 50
334.16006214951187
 51
25.839874385404489
  0
ARC
  5
7FD5
  8
0
 10
507.45878483091502
 20
99.894333802188726
 30
0.0
 40
0.0099986004340004
 50
287.91372783530409
 51
334.1600621495171
  0
ENDSEC
  0
EOF
