  0
SECTION
  2
HEADER
  9
$ACADVER
  1
AC1009
  9
$INSBASE
 10
488.67132310995407
 20
85.687149252899601
 30
0.0
  9
$EXTMIN
 10
482.91332310995409
 20
85.677078530266755
 30
0.0
  9
$EXTMAX
 10
494.42932310995423
 20
97.057149252899606
 30
0.0
  9
$LIMMIN
 10
0.0
 20
0.0
  9
$LIMMAX
 10
11.692913385800001
 20
8.2677165353999982
  9
$ORTHOMODE
 70
     0
  9
$REGENMODE
 70
     1
  9
$FILLMODE
 70
     1
  9
$QTEXTMODE
 70
     0
  9
$MIRRTEXT
 70
     0
  9
$DRAGMODE
 70
     2
  9
$LTSCALE
 40
0.6431102362
  9
$OSMODE
 70
  3071
  9
$ATTMODE
 70
     1
  9
$TEXTSIZE
 40
0.2
  9
$TRACEWID
 40
0.05
  9
$TEXTSTYLE
  7
STANDARD
  9
$CLAYER
  8
0
  9
$CELTYPE
  6
BYLAYER
  9
$CECOLOR
 62
   256
  9
$DIMSCALE
 40
1.0
  9
$DIMASZ
 40
0.1875
  9
$DIMEXO
 40
0.0625
  9
$DIMDLI
 40
0.4443307087
  9
$DIMRND
 40
0.0
  9
$DIMDLE
 40
0.0
  9
$DIMEXE
 40
0.125
  9
$DIMTP
 40
0.01
  9
$DIMTM
 40
0.01
  9
$DIMTXT
 40
1.0
  9
$DIMCEN
 40
0.1052362205
  9
$DIMTSZ
 40
0.0
  9
$DIMTOL
 70
     1
  9
$DIMLIM
 70
     0
  9
$DIMTIH
 70
     0
  9
$DIMTOH
 70
     1
  9
$DIMSE1
 70
     0
  9
$DIMSE2
 70
     0
  9
$DIMTAD
 70
     0
  9
$DIMZIN
 70
     0
  9
$DIMBLK
  1

  9
$DIMASO
 70
     1
  9
$DIMSHO
 70
     1
  9
$DIMPOST
  1
\X
  9
$DIMAPOST
  1

  9
$DIMALT
 70
     1
  9
$DIMALTD
 70
     2
  9
$DIMALTF
 40
25.399999999999999
  9
$DIMLFAC
 40
1.0
  9
$DIMTOFL
 70
     0
  9
$DIMTVP
 40
0.0
  9
$DIMTIX
 70
     0
  9
$DIMSOXD
 70
     0
  9
$DIMSAH
 70
     0
  9
$DIMBLK1
  1

  9
$DIMBLK2
  1

  9
$DIMSTYLE
  2
STANDARD
  9
$DIMCLRD
 70
     0
  9
$DIMCLRE
 70
     0
  9
$DIMCLRT
 70
     0
  9
$DIMTFAC
 40
1.0
  9
$DIMGAP
 40
0.09
  9
$LUNITS
 70
     2
  9
$LUPREC
 70
     4
  9
$SKETCHINC
 40
0.1
  9
$FILLETRAD
 40
0.0
  9
$AUNITS
 70
     0
  9
$AUPREC
 70
     0
  9
$MENU
  1
.
  9
$ELEVATION
 40
0.0
  9
$PELEVATION
 40
0.0
  9
$THICKNESS
 40
0.0
  9
$LIMCHECK
 70
     0
  9
$BLIPMODE
 70
     0
  9
$CHAMFERA
 40
0.0
  9
$CHAMFERB
 40
0.0
  9
$SKPOLY
 70
     0
  9
$TDCREATE
 40
2458172.5207663891
  9
$TDUPDATE
 40
2458541.5168740619
  9
$TDINDWG
 40
0.2439477778
  9
$TDUSRTIMER
 40
0.2439477778
  9
$USRTIMER
 70
     1
  9
$ANGBASE
 50
0.0
  9
$ANGDIR
 70
     0
  9
$PDMODE
 70
     0
  9
$PDSIZE
 40
0.3125
  9
$PLINEWID
 40
0.0
  9
$COORDS
 70
     1
  9
$SPLFRAME
 70
     0
  9
$SPLINETYPE
 70
     6
  9
$SPLINESEGS
 70
     8
  9
$ATTDIA
 70
     1
  9
$ATTREQ
 70
     1
  9
$HANDLING
 70
     1
  9
$HANDSEED
  5
8005
  9
$SURFTAB1
 70
     6
  9
$SURFTAB2
 70
     6
  9
$SURFTYPE
 70
     6
  9
$SURFU
 70
     6
  9
$SURFV
 70
     6
  9
$UCSNAME
  2

  9
$UCSORG
 10
0.0
 20
0.0
 30
0.0
  9
$UCSXDIR
 10
1.0
 20
0.0
 30
0.0
  9
$UCSYDIR
 10
0.0
 20
1.0
 30
0.0
  9
$PUCSNAME
  2

  9
$PUCSORG
 10
0.0
 20
0.0
 30
0.0
  9
$PUCSXDIR
 10
1.0
 20
0.0
 30
0.0
  9
$PUCSYDIR
 10
0.0
 20
1.0
 30
0.0
  9
$USERI1
 70
     0
  9
$USERI2
 70
     0
  9
$USERI3
 70
     0
  9
$USERI4
 70
     0
  9
$USERI5
 70
     0
  9
$USERR1
 40
0.0
  9
$USERR2
 40
0.0
  9
$USERR3
 40
0.0
  9
$USERR4
 40
0.0
  9
$USERR5
 40
0.0
  9
$WORLDVIEW
 70
     1
  9
$SHADEDGE
 70
     3
  9
$SHADEDIF
 70
    70
  9
$TILEMODE
 70
     1
  9
$MAXACTVP
 70
    64
  9
$PLIMCHECK
 70
     0
  9
$PEXTMIN
 10
1.0000000000000000E+020
 20
1.0000000000000000E+020
 30
1.0000000000000000E+020
  9
$PEXTMAX
 10
-1.0000000000000000E+020
 20
-1.0000000000000000E+020
 30
-1.0000000000000000E+020
  9
$PLIMMIN
 10
0.0
 20
0.0
  9
$PLIMMAX
 10
12.0
 20
9.0
  9
$UNITMODE
 70
     0
  9
$VISRETAIN
 70
     1
  9
$PLINEGEN
 70
     0
  9
$PSLTSCALE
 70
     1
  0
ENDSEC
  0
SECTION
  2
TABLES
  0
TABLE
  2
VPORT
 70
     1
  0
VPORT
  2
*ACTIVE
 70
     0
 10
0.0
 20
0.0
 11
1.0
 21
1.0
 12
0.0
 22
0.0
 13
0.0
 23
0.0
 14
1.0
 24
1.0
 15
0.0
 25
0.0
 16
0.0
 26
0.0
 36
44.405343998396631
 17
488.67132310995407
 27
91.365780821675358
 37
0.0
 40
16.193271061175629
 41
2.0329087048832268
 42
50.0
 43
0.0
 44
0.0
 50
0.0
 51
0.0
 71
     0
 72
   100
 73
     1
 74
     1
 75
     0
 76
     0
 77
     0
 78
     0
  0
ENDTAB
  0
TABLE
  2
LTYPE
 70
     2
  0
LTYPE
  2
CONTINUOUS
 70
     0
  3
Solid line
 72
    65
 73
     0
 40
0.0
  0
LTYPE
  2
PHANTOM2
 70
     0
  3
___ _ _ ___ _ _ ___ _ _ ___ _ _
 72
    65
 73
     6
 40
1.25
 49
0.625
 49
-0.125
 49
0.125
 49
-0.125
 49
0.125
 49
-0.125
  0
ENDTAB
  0
TABLE
  2
LAYER
 70
     2
  0
LAYER
  2
0
 70
     0
 62
   255
  6
CONTINUOUS
  0
LAYER
  2
DEFPOINTS
 70
     0
 62
     7
  6
CONTINUOUS
  0
ENDTAB
  0
TABLE
  2
STYLE
 70
     1
  0
STYLE
  2
STANDARD
 70
     0
 40
0.0
 41
0.8
 50
0.0
 71
     0
 42
0.2
  3
txt
  4

  0
ENDTAB
  0
TABLE
  2
VIEW
 70
     0
  0
ENDTAB
  0
TABLE
  2
UCS
 70
     0
  0
ENDTAB
  0
TABLE
  2
APPID
 70
    10
  0
APPID
  2
ACAD
 70
     0
  0
APPID
  2
ACAD_MLEADERVER
 70
     0
  0
APPID
  2
ACAD_EXEMPT_FROM_CAD_STANDARDS
 70
     0
  0
APPID
  2
ACAD_DSTYLE_DIMJAG
 70
     0
  0
APPID
  2
ACAD_DSTYLE_DIMTALN
 70
     0
  0
APPID
  2
ACAD_NAV_VCDISPLAY
 70
     0
  0
APPID
  2
ACAECLAYERSTANDARD
 70
     0
  0
APPID
  2
ACCMTRANSPARENCY
 70
     0
  0
APPID
  2
DCO15
 70
     0
  0
APPID
  2
ACDBATTR
 70
     0
  0
ENDTAB
  0
TABLE
  2
DIMSTYLE
 70
     2
  0
DIMSTYLE
  2
STANDARD
 70
     0
  3

  4

  5

  6

  7

 40
1.0
 41
0.1875
 42
0.0625
 43
0.38
 44
0.125
 45
0.0
 46
0.0
 47
0.01
 48
0.01
140
0.15625
141
0.09
142
0.0
143
25.399999999999999
144
1.0
145
0.0
146
1.0
147
0.09
 71
     1
 72
     0
 73
     1
 74
     1
 75
     0
 76
     0
 77
     0
 78
     4
170
     0
171
     2
172
     0
173
     0
174
     0
175
     0
176
     0
177
     0
178
     0
  0
ENDTAB
  0
ENDSEC
  0
SECTION
  2
BLOCKS
  0
BLOCK
  8
0
  2
$MODEL_SPACE
 70
     0
 10
0.0
 20
0.0
 30
0.0
  3
$MODEL_SPACE
  1

  0
ENDBLK
  5
21
  8
0
  0
BLOCK
 67
     1
  8
0
  2
$PAPER_SPACE
 70
     0
 10
0.0
 20
0.0
 30
0.0
  3
$PAPER_SPACE
  1

  0
ENDBLK
  5
1D
 67
     1
  8
0
  0
ENDSEC
  0
SECTION
  2
ENTITIES
  0
ATTDEF
  5
829
  8
DEFPOINTS
 10
488.66812127712808
 20
85.682078530266764
 30
0.0
 40
0.001
  1
K-T14428-3
  3

  2
MODELNUMBER
 70
     0
1001
ACDBATTR
1070
     0
1070
     1
  0
ATTDEF
  5
82A
  8
DEFPOINTS
 10
488.66812127712808
 20
85.680411863600099
 30
0.0
 40
0.001
  1
PURIST
  3

  2
TRADENAME
 70
     0
1001
ACDBATTR
1070
     0
1070
     1
  0
ATTDEF
  5
82B
  8
DEFPOINTS
 10
488.66812127712808
 20
85.678745196933434
 30
0.0
 40
0.001
  1
BATH FAUCET TRIM
  3

  2
PRODUCT
 70
     0
1001
ACDBATTR
1070
     0
1070
     1
  0
ATTDEF
  5
82C
  8
DEFPOINTS
 10
488.66812127712808
 20
85.677078530266769
 30
0.0
 40
0.001
  1
BRASS
  3

  2
MATERIAL
 70
     0
1001
ACDBATTR
1070
     0
1070
     1
  0
LINE
  5
7EDD
  8
0
 10
482.91332310995409
 20
90.374149252899599
 30
0.0
 11
482.91332310995409
 21
89.874149252899585
 31
0.0
  0
LINE
  5
7EDE
  8
0
 10
483.39132310995421
 20
85.687149252899601
 30
0.0
 11
485.9513231099541
 21
85.687149252899601
 31
0.0
  0
LINE
  5
7EDF
  8
0
 10
487.39132310995421
 20
85.687149252899601
 30
0.0
 11
489.9513231099541
 21
85.687149252899601
 31
0.0
  0
LINE
  5
7EE0
  8
0
 10
489.9513231099541
 20
85.957149252899583
 30
0.0
 11
487.39132310995421
 21
85.957149252899583
 31
0.0
  0
LINE
  5
7EE1
  8
0
 10
485.9513231099541
 20
85.957149252899583
 30
0.0
 11
483.39132310995421
 21
85.957149252899583
 31
0.0
  0
LINE
  5
7EE2
  8
0
 10
483.39132310995421
 20
85.957149252899583
 30
0.0
 11
483.39132310995421
 21
85.687149252899601
 31
0.0
  0
LINE
  5
7EE3
  8
0
 10
483.87132310995412
 20
88.724149252899593
 30
0.0
 11
483.87132310995412
 21
88.634149252899604
 31
0.0
  0
LINE
  5
7EE4
  8
0
 10
483.87132310995412
 20
88.604149252899603
 30
0.0
 11
483.87132310995412
 21
86.377149252899599
 31
0.0
  0
LINE
  5
7EE5
  8
0
 10
483.94632310995411
 20
88.604149252899603
 30
0.0
 11
483.94632310995411
 21
88.634149252899604
 31
0.0
  0
LINE
  5
7EE6
  8
0
 10
484.4113231099542
 20
89.891820596948733
 30
0.0
 11
484.4113231099542
 21
89.004149252899595
 31
0.0
  0
LINE
  5
7EE7
  8
0
 10
484.93132310995412
 20
89.891820596948733
 30
0.0
 11
484.93132310995412
 21
89.004149252899595
 31
0.0
  0
LINE
  5
7EE8
  8
0
 10
485.39632310995421
 20
88.604149252899603
 30
0.0
 11
485.39632310995421
 21
88.634149252899604
 31
0.0
  0
LINE
  5
7EE9
  8
0
 10
485.4713231099542
 20
88.724149252899593
 30
0.0
 11
485.4713231099542
 21
88.634149252899604
 31
0.0
  0
LINE
  5
7EEA
  8
0
 10
485.4713231099542
 20
88.604149252899603
 30
0.0
 11
485.4713231099542
 21
86.377149252899599
 31
0.0
  0
LINE
  5
7EEB
  8
0
 10
485.9513231099541
 20
85.957149252899583
 30
0.0
 11
485.9513231099541
 21
85.687149252899601
 31
0.0
  0
LINE
  5
7EEC
  8
0
 10
485.4713231099542
 20
88.604149252899603
 30
0.0
 11
483.87132310995412
 21
88.604149252899603
 31
0.0
  0
LINE
  5
7EED
  8
0
 10
483.87132310995412
 20
88.634149252899604
 30
0.0
 11
485.4713231099542
 21
88.634149252899604
 31
0.0
  0
LINE
  5
7EEE
  8
0
 10
485.4713231099542
 20
88.724149252899593
 30
0.0
 11
483.87132310995412
 21
88.724149252899593
 31
0.0
  0
LINE
  5
7EEF
  8
0
 10
486.43132310995418
 20
89.874149252899585
 30
0.0
 11
486.43132310995418
 21
90.374149252899599
 31
0.0
  0
LINE
  5
7EF0
  8
0
 10
487.39132310995421
 20
85.957149252899583
 30
0.0
 11
487.39132310995421
 21
85.687149252899601
 31
0.0
  0
LINE
  5
7EF1
  8
0
 10
489.2813231099542
 20
93.442149252899597
 30
0.0
 11
489.29132310995419
 21
93.452149252899602
 31
0.0
  0
LINE
  5
7EF2
  8
0
 10
486.42132310995407
 20
89.864149252899594
 30
0.0
 11
484.96126860945412
 21
89.864149252899594
 31
0.0
  0
LINE
  5
7EF3
  8
0
 10
484.38148776385418
 20
89.864149252899594
 30
0.0
 11
482.9233231099542
 21
89.864149252899594
 31
0.0
  0
LINE
  5
7EF4
  8
0
 10
487.80882310995418
 20
90.427149252899596
 30
0.0
 11
487.80882310995418
 21
86.357149252899603
 31
0.0
  0
LINE
  5
7EF5
  8
0
 10
488.04632310995407
 20
90.557149252899606
 30
0.0
 11
488.04632310995407
 21
96.432149252899606
 31
0.0
  0
LINE
  5
7EF6
  8
0
 10
488.05132310995413
 20
94.012149252899604
 30
0.0
 11
488.05132310995413
 21
93.452149252899602
 31
0.0
  0
LINE
  5
7EF7
  8
0
 10
486.42132310995407
 20
90.384149252899604
 30
0.0
 11
484.67132310995407
 21
90.384149252899604
 31
0.0
  0
LINE
  5
7EF8
  8
0
 10
484.67132310995407
 20
90.384149252899604
 30
0.0
 11
482.9233231099542
 21
90.384149252899604
 31
0.0
  0
LINE
  5
7EF9
  8
0
 10
489.53382310995408
 20
90.427149252899596
 30
0.0
 11
487.80882310995418
 21
90.427149252899596
 31
0.0
  0
LINE
  5
7EFA
  8
0
 10
488.04632310995407
 20
90.557149252899606
 30
0.0
 11
489.29632310995419
 21
90.557149252899606
 31
0.0
  0
LINE
  5
7EFB
  8
0
 10
489.29132310995419
 20
94.012149252899604
 30
0.0
 11
489.29132310995419
 21
93.452149252899602
 31
0.0
  0
LINE
  5
7EFC
  8
0
 10
489.29632310995419
 20
90.557149252899606
 30
0.0
 11
489.29632310995419
 21
96.432149252899606
 31
0.0
  0
LINE
  5
7EFD
  8
0
 10
489.53382310995408
 20
90.427149252899596
 30
0.0
 11
489.53382310995408
 21
86.357149252899603
 31
0.0
  0
LINE
  5
7EFE
  8
0
 10
488.06132310995412
 20
93.442149252899597
 30
0.0
 11
488.05132310995413
 21
93.452149252899602
 31
0.0
  0
LINE
  5
7EFF
  8
0
 10
489.9513231099541
 20
85.957149252899583
 30
0.0
 11
489.9513231099541
 21
85.687149252899601
 31
0.0
  0
LINE
  5
7F00
  8
0
 10
488.06132310995412
 20
93.442149252899597
 30
0.0
 11
489.2813231099542
 21
93.442149252899597
 31
0.0
  0
LINE
  5
7F01
  8
0
 10
488.04634790735412
 20
94.012149252899604
 30
0.0
 11
489.29629831265407
 21
94.012149252899604
 31
0.0
  0
ARC
  5
7F02
  8
0
 10
483.4513231099541
 20
86.377149252899599
 30
0.0
 40
0.4200000000000001
 50
270.0
 51
0.0
  0
ARC
  5
7F03
  8
0
 10
482.9233231099542
 20
89.874149252899585
 30
0.0
 40
0.01
 50
180.0
 51
270.0
  0
ARC
  5
7F04
  8
0
 10
482.9233231099542
 20
90.374149252899599
 30
0.0
 40
0.01
 50
90.0
 51
180.0
  0
ARC
  5
7F05
  8
0
 10
485.21132310995421
 20
89.004149252899595
 30
0.0
 40
0.28
 50
180.0
 51
269.99999556689988
  0
ARC
  5
7F06
  8
0
 10
484.13132310995411
 20
89.004149252899595
 30
0.0
 40
0.28
 50
270.00000443310012
 51
0.0
  0
CIRCLE
  5
7F07
  8
0
 10
484.67132310995407
 20
90.124149252899585
 30
0.0
 40
0.26
  0
ARC
  5
7F08
  8
0
 10
485.89132310995421
 20
86.377149252899599
 30
0.0
 40
0.4200000000000001
 50
180.0
 51
270.0
  0
ARC
  5
7F09
  8
0
 10
487.40882310995408
 20
86.357149252899603
 30
0.0
 40
0.4
 50
270.0
 51
0.0
  0
ARC
  5
7F0A
  8
0
 10
487.91632310995419
 20
90.557149252899606
 30
0.0
 40
0.13
 50
270.0
 51
0.0
  0
ARC
  5
7F0B
  8
0
 10
486.42132310995407
 20
89.874149252899585
 30
0.0
 40
0.01
 50
270.0
 51
0.0
  0
ARC
  5
7F0C
  8
0
 10
486.42132310995407
 20
90.374149252899599
 30
0.0
 40
0.01
 50
0.0
 51
90.0
  0
ARC
  5
7F0D
  8
0
 10
488.67132310995407
 20
96.432149252899606
 30
0.0
 40
0.625
 50
0.0
 51
180.0
  0
ARC
  5
7F0E
  8
0
 10
489.93382310995412
 20
86.357149252899603
 30
0.0
 40
0.4
 50
180.0
 51
270.0
  0
ARC
  5
7F0F
  8
0
 10
489.42632310995413
 20
90.557149252899606
 30
0.0
 40
0.13
 50
180.0
 51
270.0
  0
ARC
  5
7F10
  8
0
 10
484.38131955308307
 20
89.879154024265404
 30
0.0
 40
0.0150057141983866
 50
270.6422865969314
 51
319.83393875794559
  0
ARC
  5
7F11
  8
0
 10
482.96407758947311
 20
91.073518343581284
 30
0.0
 40
1.868402836903428
 50
319.87751926399733
 51
322.5833616135576
  0
ARC
  5
7F12
  8
0
 10
484.47518923767478
 20
89.917490766636035
 30
0.0
 40
0.0341896502017089
 50
110.64529534335639
 51
142.583361613557
  0
ARC
  5
7F13
  8
0
 10
484.45524299761178
 20
89.894973922947415
 30
0.0
 40
0.0550791477650708
 50
49.819452667325692
 51
81.762456534055787
  0
ARC
  5
7F14
  8
0
 10
484.96132388325572
 20
89.87915040136599
 30
0.0
 40
0.0150012502980212
 50
220.1623444910762
 51
269.78888674925611
  0
ARC
  5
7F15
  8
0
 10
486.37856863043521
 20
91.073518343581284
 30
0.0
 40
1.868402836903428
 50
217.41663838644229
 51
220.1224807360027
  0
ARC
  5
7F16
  8
0
 10
484.86745698223348
 20
89.917490766636035
 30
0.0
 40
0.0341896502017089
 50
37.416638386442983
 51
69.354704656643591
  0
ARC
  5
7F17
  8
0
 10
484.88740342761082
 20
89.894973217321734
 30
0.0
 40
0.0550798755275251
 50
98.237649669106204
 51
130.1793568665295
  0
LINE
  5
7F18
  8
0
 10
494.42932310995423
 20
90.374149252899599
 30
0.0
 11
494.42932310995423
 21
89.874149252899585
 31
0.0
  0
LINE
  5
7F19
  8
0
 10
493.9513231099541
 20
85.687149252899601
 30
0.0
 11
491.39132310995421
 21
85.687149252899601
 31
0.0
  0
LINE
  5
7F1A
  8
0
 10
491.39132310995421
 20
85.957149252899583
 30
0.0
 11
493.9513231099541
 21
85.957149252899583
 31
0.0
  0
LINE
  5
7F1B
  8
0
 10
493.9513231099541
 20
85.957149252899583
 30
0.0
 11
493.9513231099541
 21
85.687149252899601
 31
0.0
  0
LINE
  5
7F1C
  8
0
 10
493.4713231099542
 20
88.724149252899593
 30
0.0
 11
493.4713231099542
 21
88.634149252899604
 31
0.0
  0
LINE
  5
7F1D
  8
0
 10
493.4713231099542
 20
88.604149252899603
 30
0.0
 11
493.4713231099542
 21
86.377149252899599
 31
0.0
  0
LINE
  5
7F1E
  8
0
 10
493.39632310995421
 20
88.604149252899603
 30
0.0
 11
493.39632310995421
 21
88.634149252899604
 31
0.0
  0
LINE
  5
7F1F
  8
0
 10
492.93132310995412
 20
89.891820596948733
 30
0.0
 11
492.93132310995412
 21
89.004149252899595
 31
0.0
  0
LINE
  5
7F20
  8
0
 10
492.4113231099542
 20
89.891820596948733
 30
0.0
 11
492.4113231099542
 21
89.004149252899595
 31
0.0
  0
LINE
  5
7F21
  8
0
 10
491.94632310995411
 20
88.604149252899603
 30
0.0
 11
491.94632310995411
 21
88.634149252899604
 31
0.0
  0
LINE
  5
7F22
  8
0
 10
491.87132310995412
 20
88.724149252899593
 30
0.0
 11
491.87132310995412
 21
88.634149252899604
 31
0.0
  0
LINE
  5
7F23
  8
0
 10
491.87132310995412
 20
88.604149252899603
 30
0.0
 11
491.87132310995412
 21
86.377149252899599
 31
0.0
  0
LINE
  5
7F24
  8
0
 10
491.39132310995421
 20
85.957149252899583
 30
0.0
 11
491.39132310995421
 21
85.687149252899601
 31
0.0
  0
LINE
  5
7F25
  8
0
 10
491.87132310995412
 20
88.604149252899603
 30
0.0
 11
493.4713231099542
 21
88.604149252899603
 31
0.0
  0
LINE
  5
7F26
  8
0
 10
493.4713231099542
 20
88.634149252899604
 30
0.0
 11
491.87132310995412
 21
88.634149252899604
 31
0.0
  0
LINE
  5
7F27
  8
0
 10
491.87132310995412
 20
88.724149252899593
 30
0.0
 11
493.4713231099542
 21
88.724149252899593
 31
0.0
  0
LINE
  5
7F28
  8
0
 10
490.91132310995408
 20
89.874149252899585
 30
0.0
 11
490.91132310995408
 21
90.374149252899599
 31
0.0
  0
LINE
  5
7F29
  8
0
 10
490.92132310995407
 20
89.864149252899594
 30
0.0
 11
492.38137761045419
 21
89.864149252899594
 31
0.0
  0
LINE
  5
7F2A
  8
0
 10
492.96115845605408
 20
89.864149252899594
 30
0.0
 11
494.41932310995412
 21
89.864149252899594
 31
0.0
  0
LINE
  5
7F2B
  8
0
 10
490.92132310995407
 20
90.384149252899604
 30
0.0
 11
492.67132310995407
 21
90.384149252899604
 31
0.0
  0
LINE
  5
7F2C
  8
0
 10
492.67132310995407
 20
90.384149252899604
 30
0.0
 11
494.41932310995412
 21
90.384149252899604
 31
0.0
  0
ARC
  5
7F2D
  8
0
 10
493.89132310995421
 20
86.377149252899599
 30
0.0
 40
0.4200000000000001
 50
180.0
 51
270.0
  0
ARC
  5
7F2E
  8
0
 10
494.41932310995412
 20
89.874149252899585
 30
0.0
 40
0.01
 50
270.0
 51
0.0
  0
ARC
  5
7F2F
  8
0
 10
494.41932310995412
 20
90.374149252899599
 30
0.0
 40
0.01
 50
0.0
 51
90.0
  0
ARC
  5
7F30
  8
0
 10
492.13132310995411
 20
89.004149252899595
 30
0.0
 40
0.28
 50
270.00000443310012
 51
0.0
  0
ARC
  5
7F31
  8
0
 10
493.21132310995421
 20
89.004149252899595
 30
0.0
 40
0.28
 50
180.0
 51
269.99999556689988
  0
CIRCLE
  5
7F32
  8
0
 10
492.67132310995407
 20
90.124149252899585
 30
0.0
 40
0.26
  0
ARC
  5
7F33
  8
0
 10
491.4513231099541
 20
86.377149252899599
 30
0.0
 40
0.4200000000000001
 50
270.0
 51
0.0
  0
ARC
  5
7F34
  8
0
 10
490.92132310995407
 20
89.874149252899585
 30
0.0
 40
0.01
 50
180.0
 51
270.0
  0
ARC
  5
7F35
  8
0
 10
490.92132310995407
 20
90.374149252899599
 30
0.0
 40
0.01
 50
90.0
 51
180.0
  0
ARC
  5
7F36
  8
0
 10
492.96132666682519
 20
89.879154024265404
 30
0.0
 40
0.0150057141983866
 50
220.16606124205441
 51
269.3577134030686
  0
ARC
  5
7F37
  8
0
 10
494.37856863043521
 20
91.073518343581284
 30
0.0
 40
1.868402836903428
 50
217.41663838644229
 51
220.1224807360027
  0
ARC
  5
7F38
  8
0
 10
492.86745698223348
 20
89.917490766636035
 30
0.0
 40
0.0341896502017089
 50
37.416638386442322
 51
69.354704656643591
  0
ARC
  5
7F39
  8
0
 10
492.88740322229648
 20
89.894973922947415
 30
0.0
 40
0.0550791477650708
 50
98.237543465944213
 51
130.18054733267431
  0
ARC
  5
7F3A
  8
0
 10
492.3813223366526
 20
89.87915040136599
 30
0.0
 40
0.0150012502980212
 50
270.21111325074389
 51
319.83765550892377
  0
ARC
  5
7F3B
  8
0
 10
490.96407758947322
 20
91.073518343581284
 30
0.0
 40
1.868402836903428
 50
319.87751926399733
 51
322.5833616135576
  0
ARC
  5
7F3C
  8
0
 10
492.4751892376749
 20
89.917490766636035
 30
0.0
 40
0.0341896502017089
 50
110.64529534335639
 51
142.5833616135576
  0
ARC
  5
7F3D
  8
0
 10
492.4552427922975
 20
89.894973217321734
 30
0.0
 40
0.0550798755275251
 50
49.820643133470483
 51
81.762350330893796
  0
ENDSEC
  0
EOF
