  0
SECTION
  2
HEADER
  9
$ACADVER
  1
AC1009
  9
$INSBASE
 10
5.7399498646999998
 20
-6.704149453151703
 30
0.0
  9
$EXTMIN
 10
2.3396175413618638
 20
-10.105046601545711
 30
-0.0015258207003583
  9
$EXTMAX
 10
9.1400843584776901
 20
19.296747832050109
 30
0.0000000349246037
  9
$LIMMIN
 10
0.0
 20
0.0
  9
$LIMMAX
 10
11.692913385800001
 20
8.2677165353999982
  9
$ORTHOMODE
 70
     0
  9
$REGENMODE
 70
     1
  9
$FILLMODE
 70
     1
  9
$QTEXTMODE
 70
     0
  9
$MIRRTEXT
 70
     0
  9
$DRAGMODE
 70
     2
  9
$LTSCALE
 40
0.6431102362
  9
$OSMODE
 70
    39
  9
$ATTMODE
 70
     1
  9
$TEXTSIZE
 40
0.2
  9
$TRACEWID
 40
0.05
  9
$TEXTSTYLE
  7
STANDARD
  9
$CLAYER
  8
0
  9
$CELTYPE
  6
BYLAYER
  9
$CECOLOR
 62
   256
  9
$DIMSCALE
 40
1.0
  9
$DIMASZ
 40
0.1875
  9
$DIMEXO
 40
0.0625
  9
$DIMDLI
 40
0.4443307087
  9
$DIMRND
 40
0.0
  9
$DIMDLE
 40
0.0
  9
$DIMEXE
 40
0.125
  9
$DIMTP
 40
0.01
  9
$DIMTM
 40
0.01
  9
$DIMTXT
 40
0.15625
  9
$DIMCEN
 40
0.1052362205
  9
$DIMTSZ
 40
0.0
  9
$DIMTOL
 70
     1
  9
$DIMLIM
 70
     0
  9
$DIMTIH
 70
     1
  9
$DIMTOH
 70
     1
  9
$DIMSE1
 70
     0
  9
$DIMSE2
 70
     0
  9
$DIMTAD
 70
     0
  9
$DIMZIN
 70
     0
  9
$DIMBLK
  1

  9
$DIMASO
 70
     1
  9
$DIMSHO
 70
     1
  9
$DIMPOST
  1

  9
$DIMAPOST
  1

  9
$DIMALT
 70
     0
  9
$DIMALTD
 70
     2
  9
$DIMALTF
 40
25.399999999999999
  9
$DIMLFAC
 40
1.0
  9
$DIMTOFL
 70
     0
  9
$DIMTVP
 40
0.0
  9
$DIMTIX
 70
     0
  9
$DIMSOXD
 70
     0
  9
$DIMSAH
 70
     0
  9
$DIMBLK1
  1

  9
$DIMBLK2
  1

  9
$DIMSTYLE
  2
STANDARD
  9
$DIMCLRD
 70
     0
  9
$DIMCLRE
 70
     0
  9
$DIMCLRT
 70
     0
  9
$DIMTFAC
 40
1.0
  9
$DIMGAP
 40
0.09
  9
$LUNITS
 70
     2
  9
$LUPREC
 70
     4
  9
$SKETCHINC
 40
0.1
  9
$FILLETRAD
 40
0.0
  9
$AUNITS
 70
     0
  9
$AUPREC
 70
     0
  9
$MENU
  1
.
  9
$ELEVATION
 40
0.0
  9
$PELEVATION
 40
0.0
  9
$THICKNESS
 40
0.0
  9
$LIMCHECK
 70
     0
  9
$BLIPMODE
 70
     0
  9
$CHAMFERA
 40
0.0
  9
$CHAMFERB
 40
0.0
  9
$SKPOLY
 70
     0
  9
$TDCREATE
 40
2457591.4930513548
  9
$TDUPDATE
 40
2457592.7480529868
  9
$TDINDWG
 40
0.4294488194
  9
$TDUSRTIMER
 40
0.4294488194
  9
$USRTIMER
 70
     1
  9
$ANGBASE
 50
0.0
  9
$ANGDIR
 70
     0
  9
$PDMODE
 70
     0
  9
$PDSIZE
 40
0.3125
  9
$PLINEWID
 40
0.0
  9
$COORDS
 70
     1
  9
$SPLFRAME
 70
     0
  9
$SPLINETYPE
 70
     6
  9
$SPLINESEGS
 70
     8
  9
$ATTDIA
 70
     1
  9
$ATTREQ
 70
     1
  9
$HANDLING
 70
     1
  9
$HANDSEED
  5
33CE
  9
$SURFTAB1
 70
     6
  9
$SURFTAB2
 70
     6
  9
$SURFTYPE
 70
     6
  9
$SURFU
 70
     6
  9
$SURFV
 70
     6
  9
$UCSNAME
  2

  9
$UCSORG
 10
0.0
 20
0.0
 30
0.0
  9
$UCSXDIR
 10
1.0
 20
0.0
 30
0.0
  9
$UCSYDIR
 10
0.0
 20
1.0
 30
0.0
  9
$PUCSNAME
  2

  9
$PUCSORG
 10
0.0
 20
0.0
 30
0.0
  9
$PUCSXDIR
 10
1.0
 20
0.0
 30
0.0
  9
$PUCSYDIR
 10
0.0
 20
1.0
 30
0.0
  9
$USERI1
 70
     0
  9
$USERI2
 70
     0
  9
$USERI3
 70
     0
  9
$USERI4
 70
     0
  9
$USERI5
 70
     0
  9
$USERR1
 40
0.0
  9
$USERR2
 40
0.0
  9
$USERR3
 40
0.0
  9
$USERR4
 40
0.0
  9
$USERR5
 40
0.0
  9
$WORLDVIEW
 70
     1
  9
$SHADEDGE
 70
     3
  9
$SHADEDIF
 70
    70
  9
$TILEMODE
 70
     1
  9
$MAXACTVP
 70
    64
  9
$PLIMCHECK
 70
     0
  9
$PEXTMIN
 10
1.0000000000000000E+020
 20
1.0000000000000000E+020
 30
1.0000000000000000E+020
  9
$PEXTMAX
 10
-1.0000000000000000E+020
 20
-1.0000000000000000E+020
 30
-1.0000000000000000E+020
  9
$PLIMMIN
 10
0.0
 20
0.0
  9
$PLIMMAX
 10
12.0
 20
9.0
  9
$UNITMODE
 70
     0
  9
$VISRETAIN
 70
     1
  9
$PLINEGEN
 70
     0
  9
$PSLTSCALE
 70
     1
  0
ENDSEC
  0
SECTION
  2
TABLES
  0
TABLE
  2
VPORT
 70
     1
  0
VPORT
  2
*ACTIVE
 70
     0
 10
0.0
 20
0.0
 11
1.0
 21
1.0
 12
-0.007796646405982
 22
0.0028202129156139
 13
0.0
 23
0.0
 14
1.0
 24
1.0
 15
0.0
 25
0.0
 16
-0.0000000000000187
 26
0.0
 36
82.729171212833819
 17
5.7476475963257574
 27
4.5930304023365851
 37
0.0
 40
29.588868417266639
 41
1.786624203821656
 42
50.0
 43
0.0
 44
0.0
 50
0.0
 51
0.0
 71
     0
 72
   100
 73
     1
 74
     1
 75
     0
 76
     0
 77
     0
 78
     0
  0
ENDTAB
  0
TABLE
  2
LTYPE
 70
     1
  0
LTYPE
  2
CONTINUOUS
 70
     0
  3
Solid line
 72
    65
 73
     0
 40
0.0
  0
ENDTAB
  0
TABLE
  2
LAYER
 70
     2
  0
LAYER
  2
0
 70
     0
 62
   255
  6
CONTINUOUS
  0
LAYER
  2
DEFPOINTS
 70
     0
 62
     7
  6
CONTINUOUS
  0
ENDTAB
  0
TABLE
  2
STYLE
 70
     1
  0
STYLE
  2
STANDARD
 70
     0
 40
0.0
 41
0.8
 50
0.0
 71
     0
 42
0.2
  3
txt
  4

  0
ENDTAB
  0
TABLE
  2
VIEW
 70
     1
  0
ENDTAB
  0
TABLE
  2
UCS
 70
     0
  0
ENDTAB
  0
TABLE
  2
APPID
 70
     5
  0
APPID
  2
ACAD
 70
     0
  0
APPID
  2
ACAD_MLEADERVER
 70
     0
  0
APPID
  2
ACAD_NAV_VCDISPLAY
 70
     0
  0
APPID
  2
ACAD_EXEMPT_FROM_CAD_STANDARDS
 70
     0
  0
APPID
  2
ACDBATTR
 70
     0
  0
ENDTAB
  0
TABLE
  2
DIMSTYLE
 70
     1
  0
DIMSTYLE
  2
STANDARD
 70
     0
  3

  4

  5

  6

  7

 40
1.0
 41
0.1875
 42
0.0625
 43
0.38
 44
0.125
 45
0.0
 46
0.0
 47
0.01
 48
0.01
140
0.15625
141
0.09
142
0.0
143
25.399999999999999
144
1.0
145
0.0
146
1.0
147
0.09
 71
     1
 72
     0
 73
     1
 74
     1
 75
     0
 76
     0
 77
     0
 78
     4
170
     0
171
     2
172
     0
173
     0
174
     0
175
     0
176
     0
177
     0
178
     0
  0
ENDTAB
  0
ENDSEC
  0
SECTION
  2
BLOCKS
  0
BLOCK
  8
0
  2
$MODEL_SPACE
 70
     0
 10
0.0
 20
0.0
 30
0.0
  3
$MODEL_SPACE
  1

  0
ENDBLK
  5
21
  8
0
  0
BLOCK
 67
     1
  8
0
  2
$PAPER_SPACE
 70
     0
 10
0.0
 20
0.0
 30
0.0
  3
$PAPER_SPACE
  1

  0
ENDBLK
  5
1D
 67
     1
  8
0
  0
ENDSEC
  0
SECTION
  2
ENTITIES
  0
LINE
  5
227
  8
0
 10
5.4899527766
 20
-8.464149453200001
 30
0.0
 11
5.9899469527999987
 21
-8.464149453200001
 31
0.0
  0
LINE
  5
22B
  8
0
 10
7.4899498646999998
 20
-6.9641494532000001
 30
0.0
 11
6.0799498660999989
 21
-6.9641494532000001
 31
0.0
  0
LINE
  5
22C
  8
0
 10
5.3999498692999994
 20
-6.9641494532000001
 30
0.0
 11
3.9919498647
 21
-6.9641494532000001
 31
0.0
  0
LINE
  5
235
  8
0
 10
7.4899498646999998
 20
-6.4441494531999997
 30
0.0
 11
6.0799498662999989
 21
-6.4441494531999997
 31
0.0
  0
LINE
  5
236
  8
0
 10
5.3999498623999989
 20
-6.4441494531999997
 30
0.0
 11
3.9919498647
 21
-6.4441494531999997
 31
0.0
  0
LINE
  5
23A
  8
0
 10
5.9899469527999987
 20
-4.9461494532000003
 30
0.0
 11
5.4899527766
 21
-4.9461494532000003
 31
0.0
  0
LINE
  5
3AE
  8
0
 10
3.9819498646999998
 20
-6.4541523650999988
 30
0.0
 11
3.9819498646999998
 21
-6.9541465413000001
 31
0.0
  0
LINE
  5
414
  8
0
 10
5.1149498646999998
 20
17.295850546800001
 30
0.0
 11
5.1149498646999998
 21
15.9352452772
 31
0.0
  0
LINE
  5
415
  8
0
 10
5.1199498646999997
 20
15.89001802990783
 30
0.0
 11
5.1199498646999997
 21
15.2758278815
 31
0.0
  0
LINE
  5
41A
  8
0
 10
5.4799498647
 20
-6.3641494531999996
 30
0.0
 11
5.4799498647
 21
-4.9561494532000001
 31
0.0
  0
LINE
  5
489
  8
0
 10
5.9999498646999996
 20
-8.4541494532000012
 30
0.0
 11
5.9999498646999996
 21
-7.0441494513
 31
0.0
  0
LINE
  5
48A
  8
0
 10
5.9999498646999996
 20
-6.3641494531999996
 30
0.0
 11
5.9999498646999996
 21
-4.9561494532000001
 31
0.0
  0
LINE
  5
48D
  8
0
 10
6.359949864699999
 20
15.89001803994236
 30
0.0
 11
6.359949864699999
 21
15.2758278815
 31
0.0
  0
LINE
  5
48E
  8
0
 10
6.3649498646999998
 20
17.295850546800001
 30
0.0
 11
6.3649498646999998
 21
15.9352452772
 31
0.0
  0
LINE
  5
4F3
  8
0
 10
7.4999498646999996
 20
-6.9541465414000001
 30
0.0
 11
7.4999498646999996
 21
-6.4541523650999988
 31
0.0
  0
ARC
  5
E74
  8
0
 10
5.4899498646999998
 20
-4.9561494532000001
 30
0.0
 40
0.01
 50
89.983316119099996
 51
180.0
  0
ARC
  5
E75
  8
0
 10
3.9919498647
 20
-6.4541494532000003
 30
0.0
 40
0.01
 50
90.0
 51
180.0166839812
  0
ARC
  5
E76
  8
0
 10
3.9919498647
 20
-6.9541494532000003
 30
0.0
 40
0.01
 50
179.9833160188
 51
270.0
  0
ARC
  5
E77
  8
0
 10
5.4899498646999998
 20
-8.4541494532000012
 30
0.0
 40
0.01
 50
180.0
 51
270.0166839812
  0
ARC
  5
10C1
  8
0
 10
5.3236406242000003
 20
15.9354266252
 30
0.0
 40
0.2086908384
 50
180.04978885259999
 51
192.56739646181379
  0
ARC
  5
10C2
  8
0
 10
5.9899498646999998
 20
-8.4541494532000012
 30
0.0
 40
0.01
 50
269.9833160188
 51
360.0
  0
CIRCLE
  5
10C3
  8
0
 10
5.7399498646999998
 20
-6.7041494532000003
 30
0.0
 40
3.399999999999999
  0
ARC
  5
10EC
  8
0
 10
5.9899498646999998
 20
-4.9561494532000001
 30
0.0
 40
0.01
 50
0.0
 51
90.016683880900004
  0
ARC
  5
10ED
  8
0
 10
7.4899498646999998
 20
-6.9541494532000003
 30
0.0
 40
0.01
 50
270.0
 51
0.0166838809
  0
ARC
  5
10EE
  8
0
 10
7.4899498646999998
 20
-6.4541494532000003
 30
0.0
 40
0.01
 50
359.98331611909998
 51
90.0
  0
ARC
  5
120F
  8
0
 10
5.7399498646999998
 20
17.295850546800001
 30
0.0
 40
2.0
 50
288.05923049078348
 51
251.94076950921641
  0
ARC
  5
1215
  8
0
 10
5.7399498646999998
 20
17.295850546800001
 30
0.0
 40
0.625
 50
0.0
 51
180.0
  0
ARC
  5
1216
  8
0
 10
6.1562592234000002
 20
15.9354266213
 30
0.0
 40
0.20869072
 50
347.43260021110501
 51
359.95021219019998
  0
ARC
  5
23F3
  8
0
 10
5.3876655814066821
 20
15.29074832173491
 30
0.0
 40
0.2681311703412621
 50
183.18993146041791
 51
233.16763495137641
  0
ARC
  5
23F4
  8
0
 10
6.0922289473808409
 20
15.290750212503029
 30
0.0
 40
0.2681364681142302
 50
306.8743383105251
 51
356.80972698160508
  0
POLYLINE
  5
23F5
  8
0
 66
     1
 10
0.0
 20
0.0
 30
0.0
  0
VERTEX
  5
33C8
  8
0
 10
3.0262638424978019
 20
12.50947406647021
 30
0.0
  0
VERTEX
  5
33C9
  8
0
 10
3.0048439914999991
 20
13.5374835998
 30
0.0
  0
SEQEND
  5
33CA
  8
0
  0
ARC
  5
23F6
  8
0
 10
4.2067239314185469
 20
13.45362424241109
 30
0.0
 40
1.204999313750593
 50
128.34383305024559
 51
175.83925533027809
  0
ARC
  5
23F7
  8
0
 10
5.474465456917236
 20
11.78497856686074
 30
0.0
 40
3.3004553907784859
 50
94.301289742046109
 51
127.63377655426
  0
ARC
  5
2444
  8
0
 10
5.4026078160349389
 20
15.253300643527449
 30
0.0
 40
0.284205562198973
 50
124.2014775623048
 51
174.0179574082818
  0
ARC
  5
2445
  8
0
 10
5.6658436833954609
 20
14.894459386305289
 30
0.0
 40
0.7291328416842168
 50
99.187644199148679
 51
125.4594277377405
  0
ARC
  5
2446
  8
0
 10
5.7931174345753407
 20
18.523783660427469
 30
0.0
 40
2.9197332803749552
 50
265.21228469255038
 51
268.95660135667941
  0
ARC
  5
2447
  8
0
 10
5.7152586316948932
 20
14.78674488618609
 30
0.0
 40
0.6948070208410591
 50
87.963407578272765
 51
123.1325068769837
  0
ARC
  5
2448
  8
0
 10
5.4642814972975371
 20
15.16255310744163
 30
0.0
 40
0.2429702352185203
 50
122.0094274420026
 51
164.70865333032501
  0
ARC
  5
2449
  8
0
 10
5.4005226489421423
 20
15.185450347681501
 30
0.0
 40
0.1755091838793696
 50
166.42986331479631
 51
207.69881933879819
  0
LINE
  5
244A
  8
0
 10
5.2449505881644711
 20
15.26619833528898
 30
0.0
 11
5.245154025872055
 21
15.07796886539553
 31
0.0
  0
ARC
  5
244B
  8
0
 10
5.7192037743219446
 20
10.824743739366211
 30
0.0
 40
4.2798001756025537
 50
89.6528537337541
 51
96.604963646905077
  0
LINE
  5
244C
  8
0
 10
5.5470768470819944
 20
15.46045761937212
 30
0.0
 11
5.5470771931999989
 21
15.331053175499999
 31
0.0
  0
ARC
  5
244D
  8
0
 10
5.6339076486421531
 20
15.340045054776249
 30
0.0
 40
0.0873041336333487
 50
185.91165909469439
 51
241.5136872766688
  0
ARC
  5
244E
  8
0
 10
5.7194226501472478
 20
15.48113173262486
 30
0.0
 40
0.2522187120004075
 50
239.7254402495407
 51
264.64778159669328
  0
ARC
  5
244F
  8
0
 10
5.7396107176745339
 20
15.599536114851681
 30
0.0
 40
0.3721001713077248
 50
263.25327918711031
 51
270.05222166409129
  0
LINE
  5
2450
  8
0
 10
5.5494242757999981
 20
15.6142379789
 30
0.0
 11
5.5494242757999999
 21
15.888653913800001
 31
0.0
  0
ARC
  5
2451
  8
0
 10
5.7388033911907872
 20
14.85520525953428
 30
0.0
 40
1.050657208774499
 50
89.905922421522533
 51
100.3842195605589
  0
ARC
  5
2452
  8
0
 10
5.5585171313301274
 20
15.889299209617519
 30
0.0
 40
0.0091157242380591
 50
184.05932375137601
 51
235.3449213160377
  0
ARC
  5
2453
  8
0
 10
5.7190719804738874
 20
18.3048107383798
 30
0.0
 40
2.4408254669061229
 50
267.81402834977558
 51
270.50301888590252
  0
ARC
  5
2454
  8
0
 10
5.6235648239939584
 20
16.027361996465221
 30
0.0
 40
0.1616184163469904
 50
244.2433653715768
 51
270.85312754139568
  0
ARC
  5
2455
  8
0
 10
4.339932073298578
 20
12.63492388587439
 30
0.0
 40
1.3195436974686849
 50
185.4553780510316
 51
240.58793204672759
  0
ARC
  5
2456
  8
0
 10
5.5684249037431988
 20
14.44938651996681
 30
0.0
 40
3.5080126975309822
 50
237.66155724120509
 51
272.94230547149652
  0
ARC
  5
2457
  8
0
 10
4.2424521002401683
 20
12.436742595977311
 30
0.0
 40
1.2189659003523829
 50
123.5944291018281
 51
176.23799506523889
  0
ARC
  5
2466
  8
0
 10
5.6249965434158282
 20
10.380233542615221
 30
0.0
 40
3.6969885809501051
 50
88.246423013929373
 51
123.8073225651106
  0
ARC
  5
2467
  8
0
 10
5.7283429951051543
 20
12.12366114300219
 30
0.0
 40
0.6186750547336369
 50
87.737271898550489
 51
121.5674783186176
  0
ARC
  5
2468
  8
0
 10
5.5058231861249123
 20
12.47765915297146
 30
0.0
 40
0.2006160503442113
 50
120.346894521377
 51
172.92078356386949
  0
ARC
  5
2469
  8
0
 10
5.4914060494650014
 20
12.50173162570862
 30
0.0
 40
0.1846707090586298
 50
179.7977875689092
 51
234.0342859271864
  0
ARC
  5
246A
  8
0
 10
5.726892427114449
 20
12.847405765075781
 30
0.0
 40
0.6028778256414208
 50
235.21468331940449
 51
271.24103845328642
  0
ARC
  5
246B
  8
0
 10
5.705620800104775
 20
10.11930708488973
 30
0.0
 40
3.8546243027335652
 50
89.489815645028557
 51
104.2032944583071
  0
ARC
  5
246C
  8
0
 10
5.2306736739127349
 20
11.88746964502141
 30
0.0
 40
2.024152373216729
 50
103.45070844928711
 51
138.2897762246449
  0
ARC
  5
246D
  8
0
 10
4.3121173613017083
 20
12.72272987938009
 30
0.0
 40
0.7827781224681444
 50
139.19481056580949
 51
213.98737379402399
  0
ARC
  5
246E
  8
0
 10
5.2805652957070324
 20
13.570861735187149
 30
0.0
 40
2.0662413932707548
 50
218.48041922600581
 51
262.57258774822299
  0
ARC
  5
246F
  8
0
 10
5.7372921233366876
 20
15.206669694466919
 30
0.0
 40
3.7551345207812341
 50
258.8862539511307
 51
270.00352277853409
  0
ARC
  5
2471
  8
0
 10
5.2166537892745328
 20
13.57806359718912
 30
0.0
 40
0.0944761964497341
 50
84.557641112616196
 51
137.73640631591661
  0
ARC
  5
2472
  8
0
 10
5.1856142426837906
 20
13.6098928366146
 30
0.0
 40
0.0501702357091034
 50
140.79858456057971
 51
215.13075163386719
  0
ARC
  5
2473
  8
0
 10
5.2121402339797767
 20
13.627543160299339
 30
0.0
 40
0.0820252463623561
 50
214.55163019153929
 51
241.64349224371929
  0
ARC
  5
2474
  8
0
 10
5.2229150552763279
 20
13.56192563231712
 30
0.0
 40
0.050164725064276
 50
187.52032861691649
 51
273.2499404236396
  0
ARC
  5
2475
  8
0
 10
5.2273803962311192
 20
13.5576066967211
 30
0.0
 40
0.0457938246180972
 50
267.97091300464922
 51
348.26872888658158
  0
ARC
  5
2476
  8
0
 10
5.257739262711528
 20
13.604647979336169
 30
0.0
 40
0.0581823909546348
 50
284.40919513093212
 51
7.366350504883882
  0
ARC
  5
2477
  8
0
 10
5.248725789831969
 20
13.595338582931889
 30
0.0
 40
0.0687976087210204
 50
14.2148693871686
 51
59.792915828280499
  0
ARC
  5
2478
  8
0
 10
5.2219627626175074
 20
13.555085454584081
 30
0.0
 40
0.1170854061774027
 50
58.385142412588877
 51
88.212820489968991
  0
ARC
  5
2479
  8
0
 10
5.2221223954189302
 20
13.6105008910775
 30
0.0
 40
0.0592279158490628
 50
82.814563000438824
 51
143.11637292318261
  0
ARC
  5
247A
  8
0
 10
5.1990358939264958
 20
13.6307336568295
 30
0.0
 40
0.0287129446037934
 50
147.76488521882061
 51
178.003971312494
  0
LINE
  5
247B
  8
0
 10
5.1703403710999991
 20
13.631733735099999
 30
0.0
 11
5.1704798035413058
 21
13.573281026227839
 31
0.0
  0
ARC
  5
247C
  8
0
 10
5.3816422368234891
 20
13.59595668272417
 30
0.0
 40
0.2123766009311813
 50
186.1292081748023
 51
191.02010224705529
  0
ARC
  5
247D
  8
0
 10
5.2081566412493121
 20
13.553278770317521
 30
0.0
 40
0.0341061696655978
 50
108.5625145513095
 51
185.74480257730769
  0
ARC
  5
247E
  8
0
 10
5.2195454529100251
 20
13.528110486169201
 30
0.0
 40
0.0616535269155704
 50
66.363511954091109
 51
111.1508689418075
  0
ARC
  5
247F
  8
0
 10
5.2317271124310816
 20
13.548046415603279
 30
0.0
 40
0.0386360448982892
 50
349.05235096500792
 51
71.064952739289211
  0
ARC
  5
2482
  8
0
 10
5.2490349395591798
 20
13.62474787081573
 30
0.0
 40
0.0371093700822737
 50
342.86014221405759
 51
58.310057203511072
  0
ARC
  5
2483
  8
0
 10
5.2267902828314838
 20
13.5957642344934
 30
0.0
 40
0.0735504973016722
 50
55.424747449448461
 51
87.864733858149322
  0
ARC
  5
2485
  8
0
 10
-1029.302945694835
 20
163.82224269955819
 30
0.0
 40
1045.4346407343951
 50
351.73646659383411
 51
351.73913107193619
  0
ARC
  5
2486
  8
0
 10
5.03623411767171
 20
13.62847202801524
 30
0.0
 40
0.2492317551967154
 50
341.23462684726661
 51
345.41497293537441
  0
ARC
  5
2487
  8
0
 10
5.2182037962253212
 20
13.54341760260529
 30
0.0
 40
0.0114672015663258
 50
86.711002848656349
 51
199.53988556434439
  0
ARC
  5
248F
  8
0
 10
5.2221462552851907
 20
13.54657846890068
 30
0.0
 40
0.0163244458271923
 50
205.3770487984234
 51
268.93254906766288
  0
ARC
  5
2490
  8
0
 10
5.224128511738356
 20
13.544242812433991
 30
0.0
 40
0.0141716072561939
 50
260.71564480917721
 51
328.87940216633791
  0
ARC
  5
2491
  8
0
 10
5.226480834151074
 20
13.54189011687293
 30
0.0
 40
0.0109709423913591
 50
333.05232831999058
 51
54.342608502987929
  0
ARC
  5
2492
  8
0
 10
5.221091095671043
 20
13.53634960410816
 30
0.0
 40
0.0186500409851058
 50
50.808975392492528
 51
96.865474111149354
  0
ARC
  5
2498
  8
0
 10
4.8968898025237566
 20
13.503973589436271
 30
0.0
 40
0.0944761964497341
 50
84.557641112616196
 51
137.73640631591661
  0
ARC
  5
2499
  8
0
 10
4.8658502559330152
 20
13.535802828861749
 30
0.0
 40
0.0501702357091034
 50
140.79858456057971
 51
215.13075163386719
  0
ARC
  5
249A
  8
0
 10
4.8923762472290013
 20
13.55345315254649
 30
0.0
 40
0.0820252463623561
 50
214.55163019153929
 51
241.64349224371929
  0
ARC
  5
249B
  8
0
 10
4.9031510685255517
 20
13.487835624564269
 30
0.0
 40
0.050164725064276
 50
187.52032861691649
 51
273.2499404236396
  0
ARC
  5
249C
  8
0
 10
4.9076164094803421
 20
13.48351668896826
 30
0.0
 40
0.0457938246180972
 50
267.97091300464922
 51
348.26872888658158
  0
ARC
  5
249D
  8
0
 10
4.9379752759607518
 20
13.530557971583329
 30
0.0
 40
0.0581823909546348
 50
284.40919513093212
 51
7.3663505048838811
  0
ARC
  5
249E
  8
0
 10
4.9289618030811928
 20
13.52124857517904
 30
0.0
 40
0.0687976087210204
 50
14.2148693871686
 51
59.792915828280499
  0
ARC
  5
249F
  8
0
 10
4.9021987758667311
 20
13.480995446831241
 30
0.0
 40
0.1170854061774027
 50
58.385142412588877
 51
88.212820489968991
  0
ARC
  5
24A0
  8
0
 10
4.9023584086681531
 20
13.536410883324651
 30
0.0
 40
0.0592279158490628
 50
82.814563000438824
 51
143.11637292318261
  0
ARC
  5
24A1
  8
0
 10
4.8792719071757196
 20
13.55664364907666
 30
0.0
 40
0.0287129446037934
 50
147.76488521882061
 51
178.003971312494
  0
LINE
  5
24A2
  8
0
 10
4.8505763843492229
 20
13.55764372734715
 30
0.0
 11
4.8507158167905304
 21
13.499191018475001
 31
0.0
  0
ARC
  5
24A3
  8
0
 10
5.0618782500727129
 20
13.52186667497133
 30
0.0
 40
0.2123766009311813
 50
186.1292081748023
 51
191.02010224705529
  0
ARC
  5
24A4
  8
0
 10
4.8883926544985359
 20
13.47918876256468
 30
0.0
 40
0.0341061696655978
 50
108.5625145513095
 51
185.74480257730769
  0
ARC
  5
24A5
  8
0
 10
4.899781466159248
 20
13.45402047841635
 30
0.0
 40
0.0616535269155704
 50
66.363511954091109
 51
111.1508689418075
  0
ARC
  5
24A6
  8
0
 10
4.9119631256803062
 20
13.47395640785043
 30
0.0
 40
0.0386360448982892
 50
349.05235096500792
 51
71.064952739289211
  0
ARC
  5
24A9
  8
0
 10
4.9292709528084044
 20
13.55065786306289
 30
0.0
 40
0.0371093700822737
 50
342.86014221405759
 51
58.310057203511072
  0
ARC
  5
24AA
  8
0
 10
4.9070262960807076
 20
13.52167422674056
 30
0.0
 40
0.0735504973016722
 50
55.424747449448461
 51
87.864733858149322
  0
ARC
  5
24AC
  8
0
 10
-1029.622709681586
 20
163.74815269180539
 30
0.0
 40
1045.4346407343951
 50
351.73646659383411
 51
351.73913107193619
  0
ARC
  5
24AD
  8
0
 10
4.7164701309209338
 20
13.554382020262389
 30
0.0
 40
0.2492317551967154
 50
341.23462684726661
 51
345.41497293537441
  0
ARC
  5
24AE
  8
0
 10
4.898439809474544
 20
13.469327594852439
 30
0.0
 40
0.0114672015663258
 50
86.711002848656349
 51
199.53988556434439
  0
ARC
  5
24AF
  8
0
 10
4.9023822685344154
 20
13.472488461147829
 30
0.0
 40
0.0163244458271923
 50
205.3770487984234
 51
268.93254906766288
  0
ARC
  5
24B0
  8
0
 10
4.9043645249875789
 20
13.470152804681151
 30
0.0
 40
0.0141716072561939
 50
260.71564480917721
 51
328.87940216633791
  0
ARC
  5
24B1
  8
0
 10
4.9067168474002969
 20
13.467800109120081
 30
0.0
 40
0.0109709423913591
 50
333.05232831999058
 51
54.342608502987929
  0
ARC
  5
24B2
  8
0
 10
4.9013271089202659
 20
13.46225959635531
 30
0.0
 40
0.0186500409851058
 50
50.808975392492528
 51
96.865474111149354
  0
ARC
  5
24B8
  8
0
 10
4.6090373756237577
 20
13.39352117643627
 30
0.0
 40
0.0944761964497341
 50
84.557641112616196
 51
137.73640631591661
  0
ARC
  5
24B9
  8
0
 10
4.5779978290330163
 20
13.42535041586175
 30
0.0
 40
0.0501702357091034
 50
140.79858456057971
 51
215.13075163386719
  0
ARC
  5
24BA
  8
0
 10
4.6045238203290024
 20
13.443000739546489
 30
0.0
 40
0.0820252463623561
 50
214.55163019153929
 51
241.64349224371929
  0
ARC
  5
24BB
  8
0
 10
4.6152986416255528
 20
13.37738321156427
 30
0.0
 40
0.050164725064276
 50
187.52032861691649
 51
273.2499404236396
  0
ARC
  5
24BC
  8
0
 10
4.619763982580344
 20
13.373064275968259
 30
0.0
 40
0.0457938246180972
 50
267.97091300464922
 51
348.26872888658158
  0
ARC
  5
24BD
  8
0
 10
4.6501228490607529
 20
13.42010555858333
 30
0.0
 40
0.0581823909546348
 50
284.40919513093212
 51
7.3663505048838811
  0
ARC
  5
24BE
  8
0
 10
4.6411093761811939
 20
13.410796162179039
 30
0.0
 40
0.0687976087210204
 50
14.2148693871686
 51
59.792915828280499
  0
ARC
  5
24BF
  8
0
 10
4.6143463489667322
 20
13.37054303383124
 30
0.0
 40
0.1170854061774027
 50
58.385142412588877
 51
88.212820489968991
  0
ARC
  5
24C0
  8
0
 10
4.6145059817681551
 20
13.42595847032465
 30
0.0
 40
0.0592279158490628
 50
82.814563000438824
 51
143.11637292318261
  0
ARC
  5
24C1
  8
0
 10
4.5914194802757207
 20
13.446191236076659
 30
0.0
 40
0.0287129446037934
 50
147.76488521882061
 51
178.003971312494
  0
LINE
  5
24C2
  8
0
 10
4.562723957449224
 20
13.447191314347149
 30
0.0
 11
4.5628633898905306
 21
13.388738605474989
 31
0.0
  0
ARC
  5
24C3
  8
0
 10
4.774025823172714
 20
13.41141426197132
 30
0.0
 40
0.2123766009311813
 50
186.1292081748023
 51
191.02010224705529
  0
ARC
  5
24C4
  8
0
 10
4.600540227598537
 20
13.36873634956468
 30
0.0
 40
0.0341061696655978
 50
108.5625145513095
 51
185.74480257730769
  0
ARC
  5
24C5
  8
0
 10
4.61192903925925
 20
13.343568065416351
 30
0.0
 40
0.0616535269155704
 50
66.363511954091109
 51
111.1508689418075
  0
ARC
  5
24C6
  8
0
 10
4.6241106987803073
 20
13.363503994850429
 30
0.0
 40
0.0386360448982892
 50
349.05235096500792
 51
71.064952739289211
  0
ARC
  5
24C9
  8
0
 10
4.6414185259084046
 20
13.440205450062891
 30
0.0
 40
0.0371093700822737
 50
342.86014221405759
 51
58.310057203511072
  0
ARC
  5
24CA
  8
0
 10
4.6191738691807087
 20
13.411221813740561
 30
0.0
 40
0.0735504973016722
 50
55.424747449448461
 51
87.864733858149322
  0
ARC
  5
24CC
  8
0
 10
-1029.9105621084859
 20
163.6377002788054
 30
0.0
 40
1045.4346407343951
 50
351.73646659383411
 51
351.73913107193619
  0
ARC
  5
24CD
  8
0
 10
4.4286177040209349
 20
13.44392960726239
 30
0.0
 40
0.2492317551967154
 50
341.23462684726661
 51
345.41497293537441
  0
ARC
  5
24CE
  8
0
 10
4.610587382574546
 20
13.35887518185244
 30
0.0
 40
0.0114672015663258
 50
86.711002848656349
 51
199.53988556434439
  0
ARC
  5
24CF
  8
0
 10
4.6145298416344156
 20
13.36203604814783
 30
0.0
 40
0.0163244458271923
 50
205.3770487984234
 51
268.93254906766288
  0
ARC
  5
24D0
  8
0
 10
4.61651209808758
 20
13.359700391681139
 30
0.0
 40
0.0141716072561939
 50
260.71564480917721
 51
328.87940216633791
  0
ARC
  5
24D1
  8
0
 10
4.618864420500298
 20
13.35734769612008
 30
0.0
 40
0.0109709423913591
 50
333.05232831999058
 51
54.342608502987929
  0
ARC
  5
24D2
  8
0
 10
4.613474682020267
 20
13.35180718335531
 30
0.0
 40
0.0186500409851058
 50
50.808975392492528
 51
96.865474111149354
  0
ARC
  5
24D8
  8
0
 10
4.3641819808911713
 20
13.25266573247896
 30
0.0
 40
0.0944761964497341
 50
84.557641112616196
 51
137.73640631591661
  0
ARC
  5
24D9
  8
0
 10
4.333142434300429
 20
13.284494971904451
 30
0.0
 40
0.0501702357091034
 50
140.79858456057971
 51
215.13075163386719
  0
ARC
  5
24DA
  8
0
 10
4.3596684255964151
 20
13.30214529558919
 30
0.0
 40
0.0820252463623561
 50
214.55163019153929
 51
241.64349224371929
  0
ARC
  5
24DB
  8
0
 10
4.3704432468929664
 20
13.236527767606971
 30
0.0
 40
0.050164725064276
 50
187.52032861691649
 51
273.2499404236396
  0
ARC
  5
24DC
  8
0
 10
4.3749085878477558
 20
13.232208832010951
 30
0.0
 40
0.0457938246180972
 50
267.97091300464922
 51
348.26872888658158
  0
ARC
  5
24DD
  8
0
 10
4.4052674543281656
 20
13.27925011462602
 30
0.0
 40
0.0581823909546348
 50
284.40919513093212
 51
7.3663505048838811
  0
ARC
  5
24DE
  8
0
 10
4.3962539814486066
 20
13.26994071822174
 30
0.0
 40
0.0687976087210204
 50
14.2148693871686
 51
59.792915828280499
  0
ARC
  5
24DF
  8
0
 10
4.369490954234144
 20
13.229687589873929
 30
0.0
 40
0.1170854061774027
 50
58.385142412588877
 51
88.212820489968991
  0
ARC
  5
24E0
  8
0
 10
4.3696505870355669
 20
13.28510302636735
 30
0.0
 40
0.0592279158490628
 50
82.814563000438824
 51
143.11637292318261
  0
ARC
  5
24E1
  8
0
 10
4.3465640855431342
 20
13.305335792119349
 30
0.0
 40
0.0287129446037934
 50
147.76488521882061
 51
178.003971312494
  0
LINE
  5
24E2
  8
0
 10
4.3178685627166367
 20
13.30633587038985
 30
0.0
 11
4.3180079951579442
 21
13.24788316151769
 31
0.0
  0
ARC
  5
24E3
  8
0
 10
4.5291704284401266
 20
13.27055881801402
 30
0.0
 40
0.2123766009311813
 50
186.1292081748023
 51
191.02010224705529
  0
ARC
  5
24E4
  8
0
 10
4.3556848328659497
 20
13.227880905607369
 30
0.0
 40
0.0341061696655978
 50
108.5625145513095
 51
185.74480257730769
  0
ARC
  5
24E5
  8
0
 10
4.3670736445266618
 20
13.202712621459041
 30
0.0
 40
0.0616535269155704
 50
66.363511954091109
 51
111.1508689418075
  0
ARC
  5
24E6
  8
0
 10
4.37925530404772
 20
13.22264855089313
 30
0.0
 40
0.0386360448982892
 50
349.05235096500792
 51
71.064952739289211
  0
ARC
  5
24E9
  8
0
 10
4.3965631311758182
 20
13.29935000610558
 30
0.0
 40
0.0371093700822737
 50
342.86014221405759
 51
58.310057203511072
  0
ARC
  5
24EA
  8
0
 10
4.3743184744481223
 20
13.27036636978325
 30
0.0
 40
0.0735504973016722
 50
55.424747449448461
 51
87.864733858149322
  0
ARC
  5
24EC
  8
0
 10
-1030.1554175032179
 20
163.4968448348481
 30
0.0
 40
1045.4346407343951
 50
351.73646659383411
 51
351.73913107193619
  0
ARC
  5
24ED
  8
0
 10
4.1837623092883476
 20
13.303074163305091
 30
0.0
 40
0.2492317551967154
 50
341.23462684726661
 51
345.41497293537441
  0
ARC
  5
24EE
  8
0
 10
4.3657319878419578
 20
13.218019737895141
 30
0.0
 40
0.0114672015663258
 50
86.711002848656349
 51
199.53988556434439
  0
ARC
  5
24EF
  8
0
 10
4.3696744469018292
 20
13.221180604190531
 30
0.0
 40
0.0163244458271923
 50
205.3770487984234
 51
268.93254906766288
  0
ARC
  5
24F0
  8
0
 10
4.3716567033549927
 20
13.21884494772384
 30
0.0
 40
0.0141716072561939
 50
260.71564480917721
 51
328.87940216633791
  0
ARC
  5
24F1
  8
0
 10
4.3740090257677107
 20
13.21649225216278
 30
0.0
 40
0.0109709423913591
 50
333.05232831999058
 51
54.342608502987929
  0
ARC
  5
24F2
  8
0
 10
4.3686192872876797
 20
13.210951739398009
 30
0.0
 40
0.0186500409851058
 50
50.808975392492528
 51
96.865474111149354
  0
ARC
  5
24F8
  8
0
 10
4.1718615090126896
 20
13.088211152483311
 30
0.0
 40
0.0944761964497341
 50
84.557641112616196
 51
137.73640631591661
  0
ARC
  5
24F9
  8
0
 10
4.1408219624219482
 20
13.120040391908789
 30
0.0
 40
0.0501702357091034
 50
140.79858456057971
 51
215.13075163386719
  0
ARC
  5
24FA
  8
0
 10
4.1673479537179343
 20
13.13769071559353
 30
0.0
 40
0.0820252463623561
 50
214.55163019153929
 51
241.64349224371929
  0
ARC
  5
24FB
  8
0
 10
4.1781227750144847
 20
13.072073187611309
 30
0.0
 40
0.050164725064276
 50
187.52032861691649
 51
273.2499404236396
  0
ARC
  5
24FC
  8
0
 10
4.182588115969275
 20
13.067754252015289
 30
0.0
 40
0.0457938246180972
 50
267.97091300464922
 51
348.26872888658158
  0
ARC
  5
24FD
  8
0
 10
4.2129469824496848
 20
13.11479553463036
 30
0.0
 40
0.0581823909546348
 50
284.40919513093212
 51
7.3663505048838811
  0
ARC
  5
24FE
  8
0
 10
4.2039335095701258
 20
13.10548613822608
 30
0.0
 40
0.0687976087210204
 50
14.2148693871686
 51
59.792915828280499
  0
ARC
  5
24FF
  8
0
 10
4.1771704823556641
 20
13.06523300987827
 30
0.0
 40
0.1170854061774027
 50
58.385142412588877
 51
88.212820489968991
  0
ARC
  5
2500
  8
0
 10
4.1773301151570861
 20
13.120648446371691
 30
0.0
 40
0.0592279158490628
 50
82.814563000438824
 51
143.11637292318261
  0
ARC
  5
2501
  8
0
 10
4.1542436136646526
 20
13.14088121212369
 30
0.0
 40
0.0287129446037934
 50
147.76488521882061
 51
178.003971312494
  0
LINE
  5
2502
  8
0
 10
4.1255480908381559
 20
13.14188129039419
 30
0.0
 11
4.1256875232794634
 21
13.08342858152203
 31
0.0
  0
ARC
  5
2503
  8
0
 10
4.3368499565616458
 20
13.106104238018361
 30
0.0
 40
0.2123766009311813
 50
186.1292081748023
 51
191.02010224705529
  0
ARC
  5
2504
  8
0
 10
4.1633643609874689
 20
13.06342632561171
 30
0.0
 40
0.0341061696655978
 50
108.5625145513095
 51
185.74480257730769
  0
ARC
  5
2505
  8
0
 10
4.174753172648181
 20
13.038258041463379
 30
0.0
 40
0.0616535269155704
 50
66.363511954091109
 51
111.1508689418075
  0
ARC
  5
2506
  8
0
 10
4.1869348321692392
 20
13.058193970897459
 30
0.0
 40
0.0386360448982892
 50
349.05235096500792
 51
71.064952739289211
  0
ARC
  5
2509
  8
0
 10
4.2042426592973374
 20
13.134895426109919
 30
0.0
 40
0.0371093700822737
 50
342.86014221405759
 51
58.310057203511072
  0
ARC
  5
250A
  8
0
 10
4.1819980025696406
 20
13.105911789787591
 30
0.0
 40
0.0735504973016722
 50
55.424747449448461
 51
87.864733858149322
  0
ARC
  5
250C
  8
0
 10
-1030.3477379750971
 20
163.33239025485241
 30
0.0
 40
1045.4346407343951
 50
351.73646659383411
 51
351.73913107193619
  0
ARC
  5
250D
  8
0
 10
3.9914418374098668
 20
13.138619583309429
 30
0.0
 40
0.2492317551967154
 50
341.23462684726661
 51
345.41497293537441
  0
ARC
  5
250E
  8
0
 10
4.173411515963477
 20
13.053565157899479
 30
0.0
 40
0.0114672015663258
 50
86.711002848656349
 51
199.53988556434439
  0
ARC
  5
250F
  8
0
 10
4.1773539750233484
 20
13.056726024194869
 30
0.0
 40
0.0163244458271923
 50
205.3770487984234
 51
268.93254906766288
  0
ARC
  5
2510
  8
0
 10
4.1793362314765119
 20
13.05439036772818
 30
0.0
 40
0.0141716072561939
 50
260.71564480917721
 51
328.87940216633791
  0
ARC
  5
2511
  8
0
 10
4.1816885538892299
 20
13.052037672167121
 30
0.0
 40
0.0109709423913591
 50
333.05232831999058
 51
54.342608502987929
  0
ARC
  5
2512
  8
0
 10
4.1762988154091989
 20
13.04649715940235
 30
0.0
 40
0.0186500409851058
 50
50.808975392492528
 51
96.865474111149354
  0
ARC
  5
2518
  8
0
 10
4.0393279609237576
 20
12.90414768583627
 30
0.0
 40
0.0944761964497341
 50
84.557641112616196
 51
137.73640631591661
  0
ARC
  5
2519
  8
0
 10
4.0082884143330162
 20
12.93597692526175
 30
0.0
 40
0.0501702357091034
 50
140.79858456057971
 51
215.13075163386719
  0
ARC
  5
251A
  8
0
 10
4.0348144056290014
 20
12.953627248946489
 30
0.0
 40
0.0820252463623561
 50
214.55163019153929
 51
241.64349224371929
  0
ARC
  5
251B
  8
0
 10
4.0455892269255527
 20
12.88800972096427
 30
0.0
 40
0.050164725064276
 50
187.52032861691649
 51
273.2499404236396
  0
ARC
  5
251C
  8
0
 10
4.050054567880343
 20
12.883690785368261
 30
0.0
 40
0.0457938246180972
 50
267.97091300464922
 51
348.26872888658158
  0
ARC
  5
251D
  8
0
 10
4.0804134343607528
 20
12.93073206798333
 30
0.0
 40
0.0581823909546348
 50
284.40919513093212
 51
7.3663505048838811
  0
ARC
  5
251E
  8
0
 10
4.0713999614811938
 20
12.921422671579039
 30
0.0
 40
0.0687976087210204
 50
14.2148693871686
 51
59.792915828280499
  0
ARC
  5
251F
  8
0
 10
4.0446369342667321
 20
12.881169543231239
 30
0.0
 40
0.1170854061774027
 50
58.385142412588877
 51
88.212820489968991
  0
ARC
  5
2520
  8
0
 10
4.044796567068154
 20
12.93658497972465
 30
0.0
 40
0.0592279158490628
 50
82.814563000438824
 51
143.11637292318261
  0
ARC
  5
2521
  8
0
 10
4.0217100655757214
 20
12.956817745476661
 30
0.0
 40
0.0287129446037934
 50
147.76488521882061
 51
178.003971312494
  0
LINE
  5
2522
  8
0
 10
3.9930145427492238
 20
12.957817823747151
 30
0.0
 11
3.9931539751905301
 21
12.899365114874991
 31
0.0
  0
ARC
  5
2523
  8
0
 10
4.2043164084727129
 20
12.92204077137132
 30
0.0
 40
0.2123766009311813
 50
186.1292081748023
 51
191.02010224705529
  0
ARC
  5
2524
  8
0
 10
4.0308308128985368
 20
12.879362858964679
 30
0.0
 40
0.0341061696655978
 50
108.5625145513095
 51
185.74480257730769
  0
ARC
  5
2525
  8
0
 10
4.042219624559249
 20
12.854194574816351
 30
0.0
 40
0.0616535269155704
 50
66.363511954091109
 51
111.1508689418075
  0
ARC
  5
2526
  8
0
 10
4.0544012840803063
 20
12.874130504250431
 30
0.0
 40
0.0386360448982892
 50
349.05235096500792
 51
71.064952739289211
  0
ARC
  5
2529
  8
0
 10
4.0717091112084036
 20
12.95083195946289
 30
0.0
 40
0.0371093700822737
 50
342.86014221405759
 51
58.310057203511072
  0
ARC
  5
252A
  8
0
 10
4.0494644544807086
 20
12.92184832314056
 30
0.0
 40
0.0735504973016722
 50
55.424747449448461
 51
87.864733858149322
  0
ARC
  5
252C
  8
0
 10
-1030.480271523186
 20
163.1483267882054
 30
0.0
 40
1045.4346407343951
 50
351.73646659383411
 51
351.73913107193619
  0
ARC
  5
252D
  8
0
 10
3.8589082893209352
 20
12.95455611666239
 30
0.0
 40
0.2492317551967154
 50
341.23462684726661
 51
345.41497293537441
  0
ARC
  5
252E
  8
0
 10
4.040877967874545
 20
12.86950169125244
 30
0.0
 40
0.0114672015663258
 50
86.711002848656349
 51
199.53988556434439
  0
ARC
  5
252F
  8
0
 10
4.0448204269344163
 20
12.87266255754783
 30
0.0
 40
0.0163244458271923
 50
205.3770487984234
 51
268.93254906766288
  0
ARC
  5
2530
  8
0
 10
4.0468026833875799
 20
12.870326901081141
 30
0.0
 40
0.0141716072561939
 50
260.71564480917721
 51
328.87940216633791
  0
ARC
  5
2531
  8
0
 10
4.049155005800297
 20
12.867974205520079
 30
0.0
 40
0.0109709423913591
 50
333.05232831999058
 51
54.342608502987929
  0
ARC
  5
2532
  8
0
 10
4.0437652673202669
 20
12.86243369275531
 30
0.0
 40
0.0186500409851058
 50
50.808975392492528
 51
96.865474111149354
  0
ARC
  5
2538
  8
0
 10
3.971793236823757
 20
12.71052105213627
 30
0.0
 40
0.0944761964497341
 50
84.557641112616196
 51
137.73640631591661
  0
ARC
  5
2539
  8
0
 10
3.9407536902330151
 20
12.742350291561751
 30
0.0
 40
0.0501702357091034
 50
140.79858456057971
 51
215.13075163386719
  0
ARC
  5
253A
  8
0
 10
3.9672796815290008
 20
12.76000061524649
 30
0.0
 40
0.0820252463623561
 50
214.55163019153929
 51
241.64349224371929
  0
ARC
  5
253B
  8
0
 10
3.9780545028255521
 20
12.694383087264271
 30
0.0
 40
0.050164725064276
 50
187.52032861691649
 51
273.2499404236396
  0
ARC
  5
253C
  8
0
 10
3.9825198437803428
 20
12.69006415166826
 30
0.0
 40
0.0457938246180972
 50
267.97091300464922
 51
348.26872888658158
  0
ARC
  5
253D
  8
0
 10
4.012878710260753
 20
12.737105434283331
 30
0.0
 40
0.0581823909546348
 50
284.40919513093212
 51
7.3663505048838811
  0
ARC
  5
253E
  8
0
 10
4.003865237381194
 20
12.72779603787904
 30
0.0
 40
0.0687976087210204
 50
14.2148693871686
 51
59.792915828280499
  0
ARC
  5
253F
  8
0
 10
3.977102210166731
 20
12.68754290953124
 30
0.0
 40
0.1170854061774027
 50
58.385142412588877
 51
88.212820489968991
  0
ARC
  5
2540
  8
0
 10
3.9772618429681539
 20
12.74295834602465
 30
0.0
 40
0.0592279158490628
 50
82.814563000438824
 51
143.11637292318261
  0
ARC
  5
2541
  8
0
 10
3.9541753414757199
 20
12.76319111177666
 30
0.0
 40
0.0287129446037934
 50
147.76488521882061
 51
178.003971312494
  0
LINE
  5
2542
  8
0
 10
3.9254798186492241
 20
12.76419119004715
 30
0.0
 11
3.9256192510905299
 21
12.70573848117499
 31
0.0
  0
ARC
  5
2543
  8
0
 10
4.1367816843727141
 20
12.72841413767132
 30
0.0
 40
0.2123766009311813
 50
186.1292081748023
 51
191.02010224705529
  0
ARC
  5
2544
  8
0
 10
3.9632960887985371
 20
12.68573622526468
 30
0.0
 40
0.0341061696655978
 50
108.5625145513095
 51
185.74480257730769
  0
ARC
  5
2545
  8
0
 10
3.9746849004592488
 20
12.66056794111635
 30
0.0
 40
0.0616535269155704
 50
66.363511954091109
 51
111.1508689418075
  0
ARC
  5
2546
  8
0
 10
3.9868665599803061
 20
12.68050387055043
 30
0.0
 40
0.0386360448982892
 50
349.05235096500792
 51
71.064952739289211
  0
ARC
  5
2549
  8
0
 10
4.0041743871084039
 20
12.757205325762889
 30
0.0
 40
0.0371093700822737
 50
342.86014221405759
 51
58.310057203511072
  0
ARC
  5
254A
  8
0
 10
3.981929730380708
 20
12.728221689440559
 30
0.0
 40
0.0735504973016722
 50
55.424747449448461
 51
87.864733858149322
  0
ARC
  5
254C
  8
0
 10
-1030.547806247286
 20
162.95470015450539
 30
0.0
 40
1045.4346407343951
 50
351.73646659383411
 51
351.73913107193619
  0
ARC
  5
254D
  8
0
 10
3.791373565220935
 20
12.760929482962389
 30
0.0
 40
0.2492317551967154
 50
341.23462684726661
 51
345.41497293537441
  0
ARC
  5
254E
  8
0
 10
3.9733432437745448
 20
12.675875057552441
 30
0.0
 40
0.0114672015663258
 50
86.711002848656349
 51
199.53988556434439
  0
ARC
  5
254F
  8
0
 10
3.9772857028344148
 20
12.679035923847829
 30
0.0
 40
0.0163244458271923
 50
205.3770487984234
 51
268.93254906766288
  0
ARC
  5
2550
  8
0
 10
3.9792679592875801
 20
12.67670026738114
 30
0.0
 40
0.0141716072561939
 50
260.71564480917721
 51
328.87940216633791
  0
ARC
  5
2551
  8
0
 10
3.9816202817002981
 20
12.67434757182008
 30
0.0
 40
0.0109709423913591
 50
333.05232831999058
 51
54.342608502987929
  0
ARC
  5
2552
  8
0
 10
3.9762305432202671
 20
12.668807059055309
 30
0.0
 40
0.0186500409851058
 50
50.808975392492528
 51
96.865474111149354
  0
ARC
  5
2558
  8
0
 10
3.9654201312389259
 20
12.49666428917212
 30
0.0
 40
0.0944761964497341
 50
84.557641112616196
 51
137.73640631591661
  0
ARC
  5
2559
  8
0
 10
3.9343805846481841
 20
12.5284935285976
 30
0.0
 40
0.0501702357091034
 50
140.79858456057971
 51
215.13075163386719
  0
ARC
  5
255A
  8
0
 10
3.9609065759441702
 20
12.54614385228234
 30
0.0
 40
0.0820252463623561
 50
214.55163019153929
 51
241.64349224371929
  0
ARC
  5
255B
  8
0
 10
3.971681397240721
 20
12.48052632430012
 30
0.0
 40
0.050164725064276
 50
187.52032861691649
 51
273.2499404236396
  0
ARC
  5
255C
  8
0
 10
3.9761467381955109
 20
12.476207388704109
 30
0.0
 40
0.0457938246180972
 50
267.97091300464922
 51
348.26872888658158
  0
ARC
  5
255D
  8
0
 10
4.0065056046759207
 20
12.52324867131918
 30
0.0
 40
0.0581823909546348
 50
284.40919513093212
 51
7.3663505048838811
  0
ARC
  5
255E
  8
0
 10
3.9974921317963621
 20
12.51393927491489
 30
0.0
 40
0.0687976087210204
 50
14.2148693871686
 51
59.792915828280499
  0
ARC
  5
255F
  8
0
 10
3.9707291045818991
 20
12.47368614656709
 30
0.0
 40
0.1170854061774027
 50
58.385142412588877
 51
88.212820489968991
  0
ARC
  5
2560
  8
0
 10
3.9708887373833219
 20
12.5291015830605
 30
0.0
 40
0.0592279158490628
 50
82.814563000438824
 51
143.11637292318261
  0
ARC
  5
2561
  8
0
 10
3.9478022358908889
 20
12.54933434881251
 30
0.0
 40
0.0287129446037934
 50
147.76488521882061
 51
178.003971312494
  0
LINE
  5
2562
  8
0
 10
3.9191067130643922
 20
12.550334427083
 30
0.0
 11
3.9192461455056988
 21
12.491881718210839
 31
0.0
  0
ARC
  5
2563
  8
0
 10
4.1304085787878817
 20
12.51455737470717
 30
0.0
 40
0.2123766009311813
 50
186.1292081748023
 51
191.02010224705529
  0
ARC
  5
2564
  8
0
 10
3.9569229832137052
 20
12.47187946230053
 30
0.0
 40
0.0341061696655978
 50
108.5625145513095
 51
185.74480257730769
  0
ARC
  5
2565
  8
0
 10
3.9683117948744169
 20
12.446711178152199
 30
0.0
 40
0.0616535269155704
 50
66.363511954091109
 51
111.1508689418075
  0
ARC
  5
2566
  8
0
 10
3.9804934543954751
 20
12.466647107586279
 30
0.0
 40
0.0386360448982892
 50
349.05235096500792
 51
71.064952739289211
  0
ARC
  5
2569
  8
0
 10
3.9978012815235728
 20
12.543348562798741
 30
0.0
 40
0.0371093700822737
 50
342.86014221405759
 51
58.310057203511072
  0
ARC
  5
256A
  8
0
 10
3.9755566247958769
 20
12.514364926476411
 30
0.0
 40
0.0735504973016722
 50
55.424747449448461
 51
87.864733858149322
  0
ARC
  5
256C
  8
0
 10
-1030.5541793528701
 20
162.74084339154129
 30
0.0
 40
1045.4346407343951
 50
351.73646659383411
 51
351.73913107193619
  0
ARC
  5
256D
  8
0
 10
3.7850004596361031
 20
12.547072719998241
 30
0.0
 40
0.2492317551967154
 50
341.23462684726661
 51
345.41497293537441
  0
ARC
  5
256E
  8
0
 10
3.9669701381897129
 20
12.46201829458829
 30
0.0
 40
0.0114672015663258
 50
86.711002848656349
 51
199.53988556434439
  0
ARC
  5
256F
  8
0
 10
3.9709125972495838
 20
12.465179160883681
 30
0.0
 40
0.0163244458271923
 50
205.3770487984234
 51
268.93254906766288
  0
ARC
  5
2570
  8
0
 10
3.9728948537027482
 20
12.462843504417
 30
0.0
 40
0.0141716072561939
 50
260.71564480917721
 51
328.87940216633791
  0
ARC
  5
2571
  8
0
 10
3.9752471761154662
 20
12.46049080885593
 30
0.0
 40
0.0109709423913591
 50
333.05232831999058
 51
54.342608502987929
  0
ARC
  5
2572
  8
0
 10
3.9698574376354352
 20
12.454950296091161
 30
0.0
 40
0.0186500409851058
 50
50.808975392492528
 51
96.865474111149354
  0
ARC
  5
2578
  8
0
 10
4.0375099633237568
 20
12.317638606436271
 30
0.0
 40
0.0944761964497341
 50
84.557641112616196
 51
137.73640631591661
  0
ARC
  5
2579
  8
0
 10
4.0064704167330154
 20
12.349467845861749
 30
0.0
 40
0.0501702357091034
 50
140.79858456057971
 51
215.13075163386719
  0
ARC
  5
257A
  8
0
 10
4.0329964080290006
 20
12.36711816954649
 30
0.0
 40
0.0820252463623561
 50
214.55163019153929
 51
241.64349224371929
  0
ARC
  5
257B
  8
0
 10
4.0437712293255519
 20
12.30150064156428
 30
0.0
 40
0.050164725064276
 50
187.52032861691649
 51
273.2499404236396
  0
ARC
  5
257C
  8
0
 10
4.0482365702803431
 20
12.29718170596826
 30
0.0
 40
0.0457938246180972
 50
267.97091300464922
 51
348.26872888658158
  0
ARC
  5
257D
  8
0
 10
4.078595436760752
 20
12.344222988583329
 30
0.0
 40
0.0581823909546348
 50
284.40919513093212
 51
7.3663505048838873
  0
ARC
  5
257E
  8
0
 10
4.069581963881193
 20
12.334913592179049
 30
0.0
 40
0.0687976087210204
 50
14.2148693871686
 51
59.792915828280499
  0
ARC
  5
257F
  8
0
 10
4.0428189366667313
 20
12.29466046383124
 30
0.0
 40
0.1170854061774027
 50
58.385142412588877
 51
88.212820489968991
  0
ARC
  5
2580
  8
0
 10
4.0429785694681541
 20
12.35007590032466
 30
0.0
 40
0.0592279158490628
 50
82.814563000438824
 51
143.11637292318261
  0
ARC
  5
2581
  8
0
 10
4.0198920679757197
 20
12.37030866607666
 30
0.0
 40
0.0287129446037934
 50
147.76488521882061
 51
178.003971312494
  0
LINE
  5
2582
  8
0
 10
3.9911965451492231
 20
12.37130874434715
 30
0.0
 11
3.9913359775905302
 21
12.312856035475001
 31
0.0
  0
ARC
  5
2583
  8
0
 10
4.202498410872713
 20
12.33553169197133
 30
0.0
 40
0.2123766009311813
 50
186.1292081748023
 51
191.02010224705529
  0
ARC
  5
2584
  8
0
 10
4.0290128152985361
 20
12.29285377956468
 30
0.0
 40
0.0341061696655978
 50
108.5625145513095
 51
185.74480257730769
  0
ARC
  5
2585
  8
0
 10
4.0404016269592491
 20
12.26768549541635
 30
0.0
 40
0.0616535269155704
 50
66.363511954091109
 51
111.1508689418075
  0
ARC
  5
2586
  8
0
 10
4.0525832864803064
 20
12.28762142485043
 30
0.0
 40
0.0386360448982892
 50
349.05235096500792
 51
71.064952739289211
  0
ARC
  5
2589
  8
0
 10
4.0698911136084037
 20
12.36432288006289
 30
0.0
 40
0.0371093700822737
 50
342.86014221405759
 51
58.310057203511072
  0
ARC
  5
258A
  8
0
 10
4.0476464568807078
 20
12.33533924374056
 30
0.0
 40
0.0735504973016722
 50
55.424747449448461
 51
87.864733858149322
  0
ARC
  5
258C
  8
0
 10
-1030.4820895207861
 20
162.56181770880539
 30
0.0
 40
1045.4346407343951
 50
351.73646659383411
 51
351.73913107193619
  0
ARC
  5
258D
  8
0
 10
3.857090291720934
 20
12.3680470372624
 30
0.0
 40
0.2492317551967154
 50
341.23462684726661
 51
345.41497293537441
  0
ARC
  5
258E
  8
0
 10
4.0390599702745451
 20
12.28299261185245
 30
0.0
 40
0.0114672015663258
 50
86.711002848656349
 51
199.53988556434439
  0
ARC
  5
258F
  8
0
 10
4.0430024293344147
 20
12.286153478147829
 30
0.0
 40
0.0163244458271923
 50
205.3770487984234
 51
268.93254906766288
  0
ARC
  5
2590
  8
0
 10
4.0449846857875791
 20
12.283817821681151
 30
0.0
 40
0.0141716072561939
 50
260.71564480917721
 51
328.87940216633791
  0
ARC
  5
2591
  8
0
 10
4.0473370082002971
 20
12.28146512612008
 30
0.0
 40
0.0109709423913591
 50
333.05232831999058
 51
54.342608502987929
  0
ARC
  5
2592
  8
0
 10
4.0419472697202661
 20
12.27592461335532
 30
0.0
 40
0.0186500409851058
 50
50.808975392492528
 51
96.865474111149354
  0
ARC
  5
2598
  8
0
 10
4.1718653589237569
 20
12.133127034436271
 30
0.0
 40
0.0944761964497341
 50
84.557641112616196
 51
137.73640631591661
  0
ARC
  5
2599
  8
0
 10
4.1408258123330146
 20
12.164956273861749
 30
0.0
 40
0.0501702357091034
 50
140.79858456057971
 51
215.13075163386711
  0
ARC
  5
259A
  8
0
 10
4.1673518036290007
 20
12.18260659754649
 30
0.0
 40
0.0820252463623561
 50
214.55163019153929
 51
241.64349224371929
  0
ARC
  5
259B
  8
0
 10
4.178126624925552
 20
12.116989069564269
 30
0.0
 40
0.050164725064276
 50
187.52032861691649
 51
273.2499404236396
  0
ARC
  5
259C
  8
0
 10
4.1825919658803432
 20
12.11267013396826
 30
0.0
 40
0.0457938246180972
 50
267.97091300464922
 51
348.26872888658158
  0
ARC
  5
259D
  8
0
 10
4.2129508323607521
 20
12.15971141658332
 30
0.0
 40
0.0581823909546348
 50
284.40919513093212
 51
7.3663505048838873
  0
ARC
  5
259E
  8
0
 10
4.2039373594811931
 20
12.15040202017904
 30
0.0
 40
0.0687976087210204
 50
14.2148693871686
 51
59.792915828280499
  0
ARC
  5
259F
  8
0
 10
4.1771743322667314
 20
12.110148891831241
 30
0.0
 40
0.1170854061774027
 50
58.385142412588877
 51
88.212820489968991
  0
ARC
  5
25A0
  8
0
 10
4.1773339650681542
 20
12.165564328324651
 30
0.0
 40
0.0592279158490628
 50
82.814563000438824
 51
143.11637292318261
  0
ARC
  5
25A1
  8
0
 10
4.1542474635757198
 20
12.18579709407666
 30
0.0
 40
0.0287129446037934
 50
147.76488521882061
 51
178.003971312494
  0
LINE
  5
25A2
  8
0
 10
4.125551940749224
 20
12.18679717234715
 30
0.0
 11
4.1256913731905298
 21
12.128344463475001
 31
0.0
  0
ARC
  5
25A3
  8
0
 10
4.336853806472714
 20
12.151020119971321
 30
0.0
 40
0.2123766009311813
 50
186.1292081748023
 51
191.02010224705529
  0
ARC
  5
25A4
  8
0
 10
4.163368210898537
 20
12.10834220756468
 30
0.0
 40
0.0341061696655978
 50
108.5625145513095
 51
185.74480257730769
  0
ARC
  5
25A5
  8
0
 10
4.1747570225592492
 20
12.08317392341635
 30
0.0
 40
0.0616535269155704
 50
66.363511954091109
 51
111.1508689418075
  0
ARC
  5
25A6
  8
0
 10
4.1869386820803056
 20
12.10310985285043
 30
0.0
 40
0.0386360448982892
 50
349.05235096500792
 51
71.064952739289211
  0
ARC
  5
25A9
  8
0
 10
4.2042465092084038
 20
12.17981130806289
 30
0.0
 40
0.0371093700822737
 50
342.86014221405759
 51
58.310057203511072
  0
ARC
  5
25AA
  8
0
 10
4.1820018524807079
 20
12.15082767174056
 30
0.0
 40
0.0735504973016722
 50
55.424747449448461
 51
87.864733858149322
  0
ARC
  5
25AC
  8
0
 10
-1030.347734125186
 20
162.3773061368054
 30
0.0
 40
1045.4346407343951
 50
351.73646659383411
 51
351.73913107193619
  0
ARC
  5
25AD
  8
0
 10
3.9914456873209341
 20
12.1835354652624
 30
0.0
 40
0.2492317551967154
 50
341.23462684726661
 51
345.41497293537441
  0
ARC
  5
25AE
  8
0
 10
4.1734153658745452
 20
12.098481039852439
 30
0.0
 40
0.0114672015663258
 50
86.711002848656349
 51
199.53988556434439
  0
ARC
  5
25AF
  8
0
 10
4.1773578249344148
 20
12.10164190614783
 30
0.0
 40
0.0163244458271923
 50
205.3770487984234
 51
268.93254906766288
  0
ARC
  5
25B0
  8
0
 10
4.1793400813875801
 20
12.09930624968114
 30
0.0
 40
0.0141716072561939
 50
260.71564480917721
 51
328.87940216633791
  0
ARC
  5
25B1
  8
0
 10
4.1816924038002981
 20
12.096953554120081
 30
0.0
 40
0.0109709423913591
 50
333.05232831999058
 51
54.342608502987929
  0
ARC
  5
25B2
  8
0
 10
4.1763026653202671
 20
12.09141304135531
 30
0.0
 40
0.0186500409851058
 50
50.808975392492528
 51
96.865474111149354
  0
ARC
  5
25B8
  8
0
 10
4.3643312782237569
 20
11.96908644843627
 30
0.0
 40
0.0944761964497341
 50
84.557641112616196
 51
137.73640631591661
  0
ARC
  5
25B9
  8
0
 10
4.3332917316330146
 20
12.00091568786176
 30
0.0
 40
0.0501702357091034
 50
140.79858456057971
 51
215.13075163386711
  0
ARC
  5
25BA
  8
0
 10
4.3598177229290007
 20
12.018566011546501
 30
0.0
 40
0.0820252463623561
 50
214.55163019153929
 51
241.64349224371929
  0
ARC
  5
25BB
  8
0
 10
4.370592544225552
 20
11.952948483564279
 30
0.0
 40
0.050164725064276
 50
187.52032861691649
 51
273.2499404236396
  0
ARC
  5
25BC
  8
0
 10
4.3750578851803432
 20
11.94862954796826
 30
0.0
 40
0.0457938246180972
 50
267.97091300464922
 51
348.26872888658158
  0
ARC
  5
25BD
  8
0
 10
4.4054167516607521
 20
11.995670830583331
 30
0.0
 40
0.0581823909546348
 50
284.40919513093212
 51
7.3663505048838873
  0
ARC
  5
25BE
  8
0
 10
4.3964032787811931
 20
11.986361434179051
 30
0.0
 40
0.0687976087210204
 50
14.2148693871686
 51
59.792915828280499
  0
ARC
  5
25BF
  8
0
 10
4.3696402515667314
 20
11.94610830583124
 30
0.0
 40
0.1170854061774027
 50
58.385142412588877
 51
88.212820489968991
  0
ARC
  5
25C0
  8
0
 10
4.3697998843681543
 20
12.001523742324659
 30
0.0
 40
0.0592279158490628
 50
82.814563000438824
 51
143.11637292318261
  0
ARC
  5
25C1
  8
0
 10
4.3467133828757198
 20
12.02175650807666
 30
0.0
 40
0.0287129446037934
 50
147.76488521882061
 51
178.003971312494
  0
LINE
  5
25C2
  8
0
 10
4.3180178600492241
 20
12.02275658634716
 30
0.0
 11
4.3181572924905298
 21
11.964303877475
 31
0.0
  0
ARC
  5
25C3
  8
0
 10
4.529319725772714
 20
11.986979533971329
 30
0.0
 40
0.2123766009311813
 50
186.1292081748023
 51
191.02010224705529
  0
ARC
  5
25C4
  8
0
 10
4.355834130198537
 20
11.94430162156468
 30
0.0
 40
0.0341061696655978
 50
108.5625145513095
 51
185.74480257730769
  0
ARC
  5
25C5
  8
0
 10
4.3672229418592492
 20
11.91913333741635
 30
0.0
 40
0.0616535269155704
 50
66.363511954091109
 51
111.1508689418075
  0
ARC
  5
25C6
  8
0
 10
4.3794046013803056
 20
11.93906926685043
 30
0.0
 40
0.0386360448982892
 50
349.05235096500792
 51
71.064952739289211
  0
ARC
  5
25C9
  8
0
 10
4.3967124285084038
 20
12.015770722062889
 30
0.0
 40
0.0371093700822737
 50
342.86014221405759
 51
58.310057203511072
  0
ARC
  5
25CA
  8
0
 10
4.3744677717807079
 20
11.986787085740559
 30
0.0
 40
0.0735504973016722
 50
55.424747449448461
 51
87.864733858149322
  0
ARC
  5
25CC
  8
0
 10
-1030.1552682058859
 20
162.2132655508054
 30
0.0
 40
1045.4346407343951
 50
351.73646659383411
 51
351.73913107193619
  0
ARC
  5
25CD
  8
0
 10
4.1839116066209341
 20
12.0194948792624
 30
0.0
 40
0.2492317551967154
 50
341.23462684726661
 51
345.41497293537441
  0
ARC
  5
25CE
  8
0
 10
4.3658812851745452
 20
11.934440453852449
 30
0.0
 40
0.0114672015663258
 50
86.711002848656349
 51
199.53988556434439
  0
ARC
  5
25CF
  8
0
 10
4.3698237442344148
 20
11.93760132014784
 30
0.0
 40
0.0163244458271923
 50
205.3770487984234
 51
268.93254906766288
  0
ARC
  5
25D0
  8
0
 10
4.3718060006875801
 20
11.93526566368115
 30
0.0
 40
0.0141716072561939
 50
260.71564480917721
 51
328.8794021663378
  0
ARC
  5
25D1
  8
0
 10
4.3741583231002981
 20
11.932912968120091
 30
0.0
 40
0.0109709423913591
 50
333.05232831999058
 51
54.342608502987929
  0
ARC
  5
25D2
  8
0
 10
4.3687685846202671
 20
11.92737245535532
 30
0.0
 40
0.0186500409851058
 50
50.808975392492528
 51
96.865474111149354
  0
ARC
  5
25D8
  8
0
 10
4.6085038740237581
 20
11.810581232786269
 30
0.0
 40
0.0944761964497341
 50
84.557641112616196
 51
137.73640631591661
  0
ARC
  5
25D9
  8
0
 10
4.5774643274330149
 20
11.84241047221175
 30
0.0
 40
0.0501702357091034
 50
140.79858456057971
 51
215.13075163386711
  0
ARC
  5
25DA
  8
0
 10
4.603990318729001
 20
11.860060795896491
 30
0.0
 40
0.0820252463623561
 50
214.55163019153929
 51
241.64349224371929
  0
ARC
  5
25DB
  8
0
 10
4.6147651400255532
 20
11.79444326791427
 30
0.0
 40
0.050164725064276
 50
187.52032861691649
 51
273.2499404236396
  0
ARC
  5
25DC
  8
0
 10
4.6192304809803426
 20
11.790124332318261
 30
0.0
 40
0.0457938246180972
 50
267.97091300464922
 51
348.26872888658158
  0
ARC
  5
25DD
  8
0
 10
4.6495893474607533
 20
11.83716561493333
 30
0.0
 40
0.0581823909546348
 50
284.40919513093212
 51
7.3663505048838873
  0
ARC
  5
25DE
  8
0
 10
4.6405758745811942
 20
11.827856218529041
 30
0.0
 40
0.0687976087210204
 50
14.2148693871686
 51
59.792915828280499
  0
ARC
  5
25DF
  8
0
 10
4.6138128473667308
 20
11.787603090181239
 30
0.0
 40
0.1170854061774027
 50
58.385142412588877
 51
88.212820489968991
  0
ARC
  5
25E0
  8
0
 10
4.6139724801681536
 20
11.84301852667466
 30
0.0
 40
0.0592279158490628
 50
82.814563000438824
 51
143.11637292318261
  0
ARC
  5
25E1
  8
0
 10
4.590885978675721
 20
11.863251292426661
 30
0.0
 40
0.0287129446037934
 50
147.76488521882061
 51
178.003971312494
  0
LINE
  5
25E2
  8
0
 10
4.5621904558492243
 20
11.864251370697151
 30
0.0
 11
4.5623298882905301
 21
11.805798661824991
 31
0.0
  0
ARC
  5
25E3
  8
0
 10
4.7734923215727143
 20
11.828474318321319
 30
0.0
 40
0.2123766009311813
 50
186.1292081748023
 51
191.02010224705529
  0
ARC
  5
25E4
  8
0
 10
4.6000067259985373
 20
11.785796405914679
 30
0.0
 40
0.0341061696655978
 50
108.5625145513095
 51
185.74480257730769
  0
ARC
  5
25E5
  8
0
 10
4.6113955376592486
 20
11.76062812176635
 30
0.0
 40
0.0616535269155704
 50
66.363511954091109
 51
111.1508689418075
  0
ARC
  5
25E6
  8
0
 10
4.6235771971803059
 20
11.780564051200431
 30
0.0
 40
0.0386360448982892
 50
349.05235096500792
 51
71.064952739289211
  0
ARC
  5
25E9
  8
0
 10
4.6408850243084041
 20
11.85726550641289
 30
0.0
 40
0.0371093700822737
 50
342.86014221405759
 51
58.310057203511072
  0
ARC
  5
25EA
  8
0
 10
4.6186403675807091
 20
11.82828187009056
 30
0.0
 40
0.0735504973016722
 50
55.424747449448461
 51
87.864733858149322
  0
ARC
  5
25EC
  8
0
 10
-1029.911095610086
 20
162.05476033515541
 30
0.0
 40
1045.4346407343951
 50
351.73646659383411
 51
351.73913107193619
  0
ARC
  5
25ED
  8
0
 10
4.4280842024209353
 20
11.860989663612401
 30
0.0
 40
0.2492317551967154
 50
341.23462684726661
 51
345.41497293537441
  0
ARC
  5
25EE
  8
0
 10
4.6100538809745446
 20
11.77593523820244
 30
0.0
 40
0.0114672015663258
 50
86.711002848656349
 51
199.53988556434439
  0
ARC
  5
25EF
  8
0
 10
4.6139963400344151
 20
11.77909610449783
 30
0.0
 40
0.0163244458271923
 50
205.3770487984234
 51
268.93254906766288
  0
ARC
  5
25F0
  8
0
 10
4.6159785964875804
 20
11.776760448031141
 30
0.0
 40
0.0141716072561939
 50
260.71564480917721
 51
328.8794021663378
  0
ARC
  5
25F1
  8
0
 10
4.6183309189002983
 20
11.774407752470079
 30
0.0
 40
0.0109709423913591
 50
333.05232831999058
 51
54.342608502987929
  0
ARC
  5
25F2
  8
0
 10
4.6129411804202674
 20
11.76886723970531
 30
0.0
 40
0.0186500409851058
 50
50.808975392492528
 51
96.865474111149354
  0
ARC
  5
25F8
  8
0
 10
4.8966050643616121
 20
11.707951512535811
 30
0.0
 40
0.0944761964497341
 50
84.557641112616196
 51
137.73640631591661
  0
ARC
  5
25F9
  8
0
 10
4.865565517770869
 20
11.7397807519613
 30
0.0
 40
0.0501702357091034
 50
140.79858456057971
 51
215.13075163386711
  0
ARC
  5
25FA
  8
0
 10
4.8920915090668551
 20
11.757431075646039
 30
0.0
 40
0.0820252463623561
 50
214.55163019153929
 51
241.64349224371929
  0
ARC
  5
25FB
  8
0
 10
4.9028663303634072
 20
11.69181354766382
 30
0.0
 40
0.050164725064276
 50
187.52032861691649
 51
273.2499404236396
  0
ARC
  5
25FC
  8
0
 10
4.9073316713181967
 20
11.6874946120678
 30
0.0
 40
0.0457938246180972
 50
267.97091300464922
 51
348.26872888658158
  0
ARC
  5
25FD
  8
0
 10
4.9376905377986073
 20
11.734535894682869
 30
0.0
 40
0.0581823909546348
 50
284.40919513093212
 51
7.3663505048838873
  0
ARC
  5
25FE
  8
0
 10
4.9286770649190483
 20
11.725226498278589
 30
0.0
 40
0.0687976087210204
 50
14.2148693871686
 51
59.792915828280499
  0
ARC
  5
25FF
  8
0
 10
4.9019140377045849
 20
11.684973369930781
 30
0.0
 40
0.1170854061774027
 50
58.385142412588877
 51
88.212820489968991
  0
ARC
  5
2600
  8
0
 10
4.9020736705060077
 20
11.7403888064242
 30
0.0
 40
0.0592279158490628
 50
82.814563000438824
 51
143.11637292318261
  0
ARC
  5
2601
  8
0
 10
4.8789871690135751
 20
11.7606215721762
 30
0.0
 40
0.0287129446037934
 50
147.76488521882061
 51
178.003971312494
  0
LINE
  5
2602
  8
0
 10
4.8502916461870784
 20
11.761621650446701
 30
0.0
 11
4.8504310786283851
 21
11.703168941574541
 31
0.0
  0
ARC
  5
2603
  8
0
 10
5.0615935119105684
 20
11.72584459807087
 30
0.0
 40
0.2123766009311813
 50
186.1292081748023
 51
191.02010224705529
  0
ARC
  5
2604
  8
0
 10
4.8881079163363914
 20
11.68316668566422
 30
0.0
 40
0.0341061696655978
 50
108.5625145513095
 51
185.74480257730769
  0
ARC
  5
2605
  8
0
 10
4.8994967279971027
 20
11.65799840151589
 30
0.0
 40
0.0616535269155704
 50
66.363511954091109
 51
111.1508689418075
  0
ARC
  5
2606
  8
0
 10
4.91167838751816
 20
11.67793433094997
 30
0.0
 40
0.0386360448982892
 50
349.05235096500792
 51
71.064952739289211
  0
ARC
  5
2609
  8
0
 10
4.9289862146462591
 20
11.75463578616243
 30
0.0
 40
0.0371093700822737
 50
342.86014221405759
 51
58.310057203511072
  0
ARC
  5
260A
  8
0
 10
4.9067415579185631
 20
11.7256521498401
 30
0.0
 40
0.0735504973016722
 50
55.424747449448461
 51
87.864733858149322
  0
ARC
  5
260C
  8
0
 10
-1029.622994419748
 20
161.952130614905
 30
0.0
 40
1045.4346407343951
 50
351.73646659383411
 51
351.73913107193619
  0
ARC
  5
260D
  8
0
 10
4.7161853927587893
 20
11.75835994336194
 30
0.0
 40
0.2492317551967154
 50
341.23462684726661
 51
345.41497293537441
  0
ARC
  5
260E
  8
0
 10
4.8981550713123987
 20
11.67330551795199
 30
0.0
 40
0.0114672015663258
 50
86.711002848656349
 51
199.53988556434439
  0
ARC
  5
260F
  8
0
 10
4.90209753037227
 20
11.67646638424738
 30
0.0
 40
0.0163244458271923
 50
205.3770487984234
 51
268.93254906766288
  0
ARC
  5
2610
  8
0
 10
4.9040797868254344
 20
11.674130727780691
 30
0.0
 40
0.0141716072561939
 50
260.71564480917721
 51
328.8794021663378
  0
ARC
  5
2611
  8
0
 10
4.9064321092381524
 20
11.671778032219629
 30
0.0
 40
0.0109709423913591
 50
333.05232831999058
 51
54.342608502987929
  0
ARC
  5
2612
  8
0
 10
4.9010423707581214
 20
11.66623751945486
 30
0.0
 40
0.0186500409851058
 50
50.808975392492528
 51
96.865474111149354
  0
ARC
  5
26B8
  8
0
 10
5.1638464926237573
 20
12.994737781936269
 30
0.0
 40
0.0944761964497341
 50
84.557641112616196
 51
137.73640631591661
  0
ARC
  5
26B9
  8
0
 10
5.132806946033015
 20
13.02656702136175
 30
0.0
 40
0.0501702357091034
 50
140.79858456057971
 51
215.13075163386719
  0
ARC
  5
26BA
  8
0
 10
5.1593329373290011
 20
13.044217345046491
 30
0.0
 40
0.0820252463623561
 50
214.55163019153929
 51
241.64349224371929
  0
ARC
  5
26BB
  8
0
 10
5.1701077586255524
 20
12.97859981706428
 30
0.0
 40
0.050164725064276
 50
187.52032861691649
 51
273.2499404236396
  0
ARC
  5
26BC
  8
0
 10
5.1745730995803418
 20
12.97428088146826
 30
0.0
 40
0.0457938246180972
 50
267.97091300464922
 51
348.26872888658158
  0
ARC
  5
26BD
  8
0
 10
5.2049319660607516
 20
13.02132216408333
 30
0.0
 40
0.0581823909546348
 50
284.40919513093212
 51
7.3663505048838811
  0
ARC
  5
26BE
  8
0
 10
5.1959184931811926
 20
13.012012767679041
 30
0.0
 40
0.0687976087210204
 50
14.2148693871686
 51
59.792915828280499
  0
ARC
  5
26BF
  8
0
 10
5.16915546596673
 20
12.971759639331241
 30
0.0
 40
0.1170854061774027
 50
58.385142412588877
 51
88.212820489968991
  0
ARC
  5
26C0
  8
0
 10
5.1693150987681529
 20
13.027175075824649
 30
0.0
 40
0.0592279158490628
 50
82.814563000438824
 51
143.11637292318261
  0
ARC
  5
26C1
  8
0
 10
5.1462285972757202
 20
13.047407841576661
 30
0.0
 40
0.0287129446037934
 50
147.76488521882061
 51
178.003971312494
  0
LINE
  5
26C2
  8
0
 10
5.1175330744492227
 20
13.048407919847151
 30
0.0
 11
5.1176725068905302
 21
12.989955210974999
 31
0.0
  0
ARC
  5
26C3
  8
0
 10
5.3288349401727126
 20
13.012630867471319
 30
0.0
 40
0.2123766009311813
 50
186.1292081748023
 51
191.02010224705529
  0
ARC
  5
26C4
  8
0
 10
5.1553493445985357
 20
12.969952955064681
 30
0.0
 40
0.0341061696655978
 50
108.5625145513095
 51
185.74480257730769
  0
ARC
  5
26C5
  8
0
 10
5.1667381562592478
 20
12.94478467091635
 30
0.0
 40
0.0616535269155704
 50
66.363511954091109
 51
111.1508689418075
  0
ARC
  5
26C6
  8
0
 10
5.178919815780306
 20
12.964720600350431
 30
0.0
 40
0.0386360448982892
 50
349.05235096500792
 51
71.064952739289211
  0
ARC
  5
26C9
  8
0
 10
5.1962276429084042
 20
13.04142205556289
 30
0.0
 40
0.0371093700822737
 50
342.86014221405759
 51
58.310057203511072
  0
ARC
  5
26CA
  8
0
 10
5.1739829861807083
 20
13.01243841924056
 30
0.0
 40
0.0735504973016722
 50
55.424747449448461
 51
87.864733858149322
  0
ARC
  5
26CC
  8
0
 10
-1029.355752991486
 20
163.23891688430541
 30
0.0
 40
1045.4346407343951
 50
351.73646659383411
 51
351.73913107193619
  0
ARC
  5
26CD
  8
0
 10
4.9834268210209336
 20
13.04514621276239
 30
0.0
 40
0.2492317551967154
 50
341.23462684726661
 51
345.41497293537441
  0
ARC
  5
26CE
  8
0
 10
5.1653964995745438
 20
12.96009178735245
 30
0.0
 40
0.0114672015663258
 50
86.711002848656349
 51
199.53988556434439
  0
ARC
  5
26CF
  8
0
 10
5.1693389586344152
 20
12.96325265364783
 30
0.0
 40
0.0163244458271923
 50
205.3770487984234
 51
268.93254906766288
  0
ARC
  5
26D0
  8
0
 10
5.1713212150875787
 20
12.960916997181149
 30
0.0
 40
0.0141716072561939
 50
260.71564480917721
 51
328.87940216633791
  0
ARC
  5
26D1
  8
0
 10
5.1736735375002967
 20
12.958564301620081
 30
0.0
 40
0.0109709423913591
 50
333.05232831999058
 51
54.342608502987929
  0
ARC
  5
26D2
  8
0
 10
5.1682837990202657
 20
12.95302378885531
 30
0.0
 40
0.0186500409851058
 50
50.808975392492528
 51
96.865474111149354
  0
ARC
  5
26D8
  8
0
 10
5.1965409171237571
 20
13.29062459203627
 30
0.0
 40
0.0944761964497341
 50
84.557641112616196
 51
137.73640631591661
  0
ARC
  5
26D9
  8
0
 10
5.1655013705330148
 20
13.32245383146175
 30
0.0
 40
0.0501702357091034
 50
140.79858456057971
 51
215.13075163386719
  0
ARC
  5
26DA
  8
0
 10
5.1920273618290009
 20
13.34010415514649
 30
0.0
 40
0.0820252463623561
 50
214.55163019153929
 51
241.64349224371929
  0
ARC
  5
26DB
  8
0
 10
5.2028021831255531
 20
13.274486627164279
 30
0.0
 40
0.050164725064276
 50
187.52032861691649
 51
273.2499404236396
  0
ARC
  5
26DC
  8
0
 10
5.2072675240803434
 20
13.270167691568259
 30
0.0
 40
0.0457938246180972
 50
267.97091300464922
 51
348.26872888658158
  0
ARC
  5
26DD
  8
0
 10
5.2376263905607532
 20
13.31720897418333
 30
0.0
 40
0.0581823909546348
 50
284.40919513093212
 51
7.3663505048838811
  0
ARC
  5
26DE
  8
0
 10
5.2286129176811942
 20
13.30789957777904
 30
0.0
 40
0.0687976087210204
 50
14.2148693871686
 51
59.792915828280499
  0
ARC
  5
26DF
  8
0
 10
5.2018498904667307
 20
13.26764644943124
 30
0.0
 40
0.1170854061774027
 50
58.385142412588877
 51
88.212820489968991
  0
ARC
  5
26E0
  8
0
 10
5.2020095232681536
 20
13.323061885924661
 30
0.0
 40
0.0592279158490628
 50
82.814563000438824
 51
143.11637292318261
  0
ARC
  5
26E1
  8
0
 10
5.1789230217757201
 20
13.34329465167666
 30
0.0
 40
0.0287129446037934
 50
147.76488521882061
 51
178.003971312494
  0
LINE
  5
26E2
  8
0
 10
5.1502274989492243
 20
13.344294729947149
 30
0.0
 11
5.15036693139053
 21
13.285842021075
 31
0.0
  0
ARC
  5
26E3
  8
0
 10
5.3615293646727142
 20
13.30851767757132
 30
0.0
 40
0.2123766009311813
 50
186.1292081748023
 51
191.02010224705529
  0
ARC
  5
26E4
  8
0
 10
5.1880437690985373
 20
13.26583976516468
 30
0.0
 40
0.0341061696655978
 50
108.5625145513095
 51
185.74480257730769
  0
ARC
  5
26E5
  8
0
 10
5.1994325807592494
 20
13.240671481016349
 30
0.0
 40
0.0616535269155704
 50
66.363511954091109
 51
111.1508689418075
  0
ARC
  5
26E6
  8
0
 10
5.2116142402803058
 20
13.260607410450429
 30
0.0
 40
0.0386360448982892
 50
349.05235096500792
 51
71.064952739289211
  0
ARC
  5
26E9
  8
0
 10
5.228922067408404
 20
13.337308865662891
 30
0.0
 40
0.0371093700822737
 50
342.86014221405759
 51
58.310057203511072
  0
ARC
  5
26EA
  8
0
 10
5.2066774106807081
 20
13.308325229340561
 30
0.0
 40
0.0735504973016722
 50
55.424747449448461
 51
87.864733858149322
  0
ARC
  5
26EC
  8
0
 10
-1029.323058566986
 20
163.53480369440541
 30
0.0
 40
1045.4346407343951
 50
351.73646659383411
 51
351.73913107193619
  0
ARC
  5
26ED
  8
0
 10
5.0161212455209352
 20
13.341033022862399
 30
0.0
 40
0.2492317551967154
 50
341.23462684726661
 51
345.41497293537441
  0
ARC
  5
26EE
  8
0
 10
5.1980909240745454
 20
13.255978597452451
 30
0.0
 40
0.0114672015663258
 50
86.711002848656349
 51
199.53988556434439
  0
ARC
  5
26EF
  8
0
 10
5.202033383134415
 20
13.259139463747831
 30
0.0
 40
0.0163244458271923
 50
205.3770487984234
 51
268.93254906766288
  0
ARC
  5
26F0
  8
0
 10
5.2040156395875803
 20
13.25680380728115
 30
0.0
 40
0.0141716072561939
 50
260.71564480917721
 51
328.87940216633791
  0
ARC
  5
26F1
  8
0
 10
5.2063679620002983
 20
13.25445111172008
 30
0.0
 40
0.0109709423913591
 50
333.05232831999058
 51
54.342608502987929
  0
ARC
  5
26F2
  8
0
 10
5.2009782235202673
 20
13.248910598955311
 30
0.0
 40
0.0186500409851058
 50
50.808975392492528
 51
96.865474111149354
  0
ARC
  5
26F8
  8
0
 10
4.7448416937906606
 20
13.117489130115461
 30
0.0
 40
0.0944761964497341
 50
84.557641112616196
 51
137.73640631591661
  0
ARC
  5
26F9
  8
0
 10
4.7138021471999192
 20
13.149318369540939
 30
0.0
 40
0.0501702357091034
 50
140.79858456057971
 51
215.13075163386719
  0
ARC
  5
26FA
  8
0
 10
4.7403281384959053
 20
13.16696869322568
 30
0.0
 40
0.0820252463623561
 50
214.55163019153929
 51
241.64349224371929
  0
ARC
  5
26FB
  8
0
 10
4.7511029597924557
 20
13.101351165243461
 30
0.0
 40
0.050164725064276
 50
187.52032861691649
 51
273.2499404236396
  0
ARC
  5
26FC
  8
0
 10
4.755568300747246
 20
13.097032229647439
 30
0.0
 40
0.0457938246180972
 50
267.97091300464922
 51
348.26872888658158
  0
ARC
  5
26FD
  8
0
 10
4.7859271672276558
 20
13.14407351226251
 30
0.0
 40
0.0581823909546348
 50
284.40919513093212
 51
7.3663505048838811
  0
ARC
  5
26FE
  8
0
 10
4.7769136943480968
 20
13.13476411585823
 30
0.0
 40
0.0687976087210204
 50
14.2148693871686
 51
59.792915828280499
  0
ARC
  5
26FF
  8
0
 10
4.7501506671336351
 20
13.09451098751043
 30
0.0
 40
0.1170854061774027
 50
58.385142412588877
 51
88.212820489968991
  0
ARC
  5
2700
  8
0
 10
4.750310299935057
 20
13.149926424003841
 30
0.0
 40
0.0592279158490628
 50
82.814563000438824
 51
143.11637292318261
  0
ARC
  5
2701
  8
0
 10
4.7272237984426244
 20
13.17015918975585
 30
0.0
 40
0.0287129446037934
 50
147.76488521882061
 51
178.003971312494
  0
LINE
  5
2702
  8
0
 10
4.6985282756161268
 20
13.17115926802634
 30
0.0
 11
4.6986677080574344
 21
13.11270655915418
 31
0.0
  0
ARC
  5
2703
  8
0
 10
4.9098301413396168
 20
13.135382215650511
 30
0.0
 40
0.2123766009311813
 50
186.1292081748023
 51
191.02010224705529
  0
ARC
  5
2704
  8
0
 10
4.7363445457654398
 20
13.09270430324386
 30
0.0
 40
0.0341061696655978
 50
108.5625145513095
 51
185.74480257730769
  0
ARC
  5
2705
  8
0
 10
4.747733357426152
 20
13.06753601909554
 30
0.0
 40
0.0616535269155704
 50
66.363511954091109
 51
111.1508689418075
  0
ARC
  5
2706
  8
0
 10
4.7599150169472102
 20
13.08747194852962
 30
0.0
 40
0.0386360448982892
 50
349.05235096500792
 51
71.064952739289211
  0
ARC
  5
2709
  8
0
 10
4.7772228440753084
 20
13.164173403742071
 30
0.0
 40
0.0371093700822737
 50
342.86014221405759
 51
58.310057203511072
  0
ARC
  5
270A
  8
0
 10
4.7549781873476116
 20
13.135189767419741
 30
0.0
 40
0.0735504973016722
 50
55.424747449448461
 51
87.864733858149322
  0
ARC
  5
270C
  8
0
 10
-1029.774757790319
 20
163.36166823248459
 30
0.0
 40
1045.4346407343951
 50
351.73646659383411
 51
351.73913107193619
  0
ARC
  5
270D
  8
0
 10
4.5644220221878378
 20
13.167897560941579
 30
0.0
 40
0.2492317551967154
 50
341.23462684726661
 51
345.41497293537441
  0
ARC
  5
270E
  8
0
 10
4.746391700741448
 20
13.082843135531631
 30
0.0
 40
0.0114672015663258
 50
86.711002848656349
 51
199.53988556434439
  0
ARC
  5
270F
  8
0
 10
4.7503341598013193
 20
13.086004001827019
 30
0.0
 40
0.0163244458271923
 50
205.3770487984234
 51
268.93254906766288
  0
ARC
  5
2710
  8
0
 10
4.7523164162544829
 20
13.08366834536033
 30
0.0
 40
0.0141716072561939
 50
260.71564480917721
 51
328.87940216633791
  0
ARC
  5
2711
  8
0
 10
4.7546687386672009
 20
13.08131564979927
 30
0.0
 40
0.0109709423913591
 50
333.05232831999058
 51
54.342608502987929
  0
ARC
  5
2712
  8
0
 10
4.7492790001871699
 20
13.075775137034499
 30
0.0
 40
0.0186500409851058
 50
50.808975392492528
 51
96.865474111149354
  0
ARC
  5
2718
  8
0
 10
4.4430067718237574
 20
12.858211089236271
 30
0.0
 40
0.0944761964497341
 50
84.557641112616196
 51
137.73640631591661
  0
ARC
  5
2719
  8
0
 10
4.4119672252330151
 20
12.89004032866176
 30
0.0
 40
0.0501702357091034
 50
140.79858456057971
 51
215.13075163386719
  0
ARC
  5
271A
  8
0
 10
4.4384932165290012
 20
12.90769065234649
 30
0.0
 40
0.0820252463623561
 50
214.55163019153929
 51
241.64349224371929
  0
ARC
  5
271B
  8
0
 10
4.4492680378255516
 20
12.84207312436428
 30
0.0
 40
0.050164725064276
 50
187.52032861691649
 51
273.2499404236396
  0
ARC
  5
271C
  8
0
 10
4.4537333787803419
 20
12.83775418876826
 30
0.0
 40
0.0457938246180972
 50
267.97091300464922
 51
348.26872888658158
  0
ARC
  5
271D
  8
0
 10
4.4840922452607517
 20
12.884795471383329
 30
0.0
 40
0.0581823909546348
 50
284.40919513093212
 51
7.3663505048838811
  0
ARC
  5
271E
  8
0
 10
4.4750787723811927
 20
12.875486074979049
 30
0.0
 40
0.0687976087210204
 50
14.2148693871686
 51
59.792915828280499
  0
ARC
  5
271F
  8
0
 10
4.448315745166731
 20
12.83523294663124
 30
0.0
 40
0.1170854061774027
 50
58.385142412588877
 51
88.212820489968991
  0
ARC
  5
2720
  8
0
 10
4.448475377968153
 20
12.89064838312466
 30
0.0
 40
0.0592279158490628
 50
82.814563000438824
 51
143.11637292318261
  0
ARC
  5
2721
  8
0
 10
4.4253888764757203
 20
12.91088114887666
 30
0.0
 40
0.0287129446037934
 50
147.76488521882061
 51
178.003971312494
  0
LINE
  5
2722
  8
0
 10
4.3966933536492228
 20
12.91188122714715
 30
0.0
 11
4.3968327860905303
 21
12.853428518275001
 31
0.0
  0
ARC
  5
2723
  8
0
 10
4.6079952193727127
 20
12.876104174771321
 30
0.0
 40
0.2123766009311813
 50
186.1292081748023
 51
191.02010224705529
  0
ARC
  5
2724
  8
0
 10
4.4345096237985357
 20
12.83342626236468
 30
0.0
 40
0.0341061696655978
 50
108.5625145513095
 51
185.74480257730769
  0
ARC
  5
2725
  8
0
 10
4.4458984354592479
 20
12.80825797821635
 30
0.0
 40
0.0616535269155704
 50
66.363511954091109
 51
111.1508689418075
  0
ARC
  5
2726
  8
0
 10
4.4580800949803061
 20
12.82819390765043
 30
0.0
 40
0.0386360448982892
 50
349.05235096500792
 51
71.064952739289211
  0
ARC
  5
2729
  8
0
 10
4.4753879221084043
 20
12.90489536286289
 30
0.0
 40
0.0371093700822737
 50
342.86014221405759
 51
58.310057203511072
  0
ARC
  5
272A
  8
0
 10
4.4531432653807084
 20
12.87591172654056
 30
0.0
 40
0.0735504973016722
 50
55.424747449448461
 51
87.864733858149322
  0
ARC
  5
272C
  8
0
 10
-1030.0765927122859
 20
163.10239019160539
 30
0.0
 40
1045.4346407343951
 50
351.73646659383411
 51
351.73913107193619
  0
ARC
  5
272D
  8
0
 10
4.2625871002209337
 20
12.9086195200624
 30
0.0
 40
0.2492317551967154
 50
341.23462684726661
 51
345.41497293537441
  0
ARC
  5
272E
  8
0
 10
4.4445567787745439
 20
12.82356509465245
 30
0.0
 40
0.0114672015663258
 50
86.711002848656349
 51
199.53988556434439
  0
ARC
  5
272F
  8
0
 10
4.4484992378344153
 20
12.82672596094784
 30
0.0
 40
0.0163244458271923
 50
205.3770487984234
 51
268.93254906766288
  0
ARC
  5
2730
  8
0
 10
4.4504814942875788
 20
12.824390304481151
 30
0.0
 40
0.0141716072561939
 50
260.71564480917721
 51
328.87940216633791
  0
ARC
  5
2731
  8
0
 10
4.4528338167002968
 20
12.82203760892008
 30
0.0
 40
0.0109709423913591
 50
333.05232831999058
 51
54.342608502987929
  0
ARC
  5
2732
  8
0
 10
4.4474440782202658
 20
12.81649709615531
 30
0.0
 40
0.0186500409851058
 50
50.808975392492528
 51
96.865474111149354
  0
ARC
  5
2738
  8
0
 10
4.3369908769237568
 20
12.551914801421219
 30
0.0
 40
0.0944761964497341
 50
84.557641112616196
 51
137.73640631591661
  0
ARC
  5
2739
  8
0
 10
4.3059513303330146
 20
12.58374404084671
 30
0.0
 40
0.0501702357091034
 50
140.79858456057971
 51
215.13075163386719
  0
ARC
  5
273A
  8
0
 10
4.3324773216290007
 20
12.601394364531449
 30
0.0
 40
0.0820252463623561
 50
214.55163019153929
 51
241.64349224371929
  0
ARC
  5
273B
  8
0
 10
4.343252142925552
 20
12.53577683654923
 30
0.0
 40
0.050164725064276
 50
187.52032861691649
 51
273.2499404236396
  0
ARC
  5
273C
  8
0
 10
4.3477174838803432
 20
12.53145790095321
 30
0.0
 40
0.0457938246180972
 50
267.97091300464922
 51
348.26872888658158
  0
ARC
  5
273D
  8
0
 10
4.378076350360752
 20
12.57849918356828
 30
0.0
 40
0.0581823909546348
 50
284.40919513093212
 51
7.3663505048838811
  0
ARC
  5
273E
  8
0
 10
4.369062877481193
 20
12.569189787163999
 30
0.0
 40
0.0687976087210204
 50
14.2148693871686
 51
59.792915828280499
  0
ARC
  5
273F
  8
0
 10
4.3422998502667314
 20
12.528936658816191
 30
0.0
 40
0.1170854061774027
 50
58.385142412588877
 51
88.212820489968991
  0
ARC
  5
2740
  8
0
 10
4.3424594830681542
 20
12.58435209530961
 30
0.0
 40
0.0592279158490628
 50
82.814563000438824
 51
143.11637292318261
  0
ARC
  5
2741
  8
0
 10
4.3193729815757198
 20
12.60458486106161
 30
0.0
 40
0.0287129446037934
 50
147.76488521882061
 51
178.003971312494
  0
LINE
  5
2742
  8
0
 10
4.290677458749224
 20
12.605584939332109
 30
0.0
 11
4.2908168911905298
 21
12.547132230459949
 31
0.0
  0
ARC
  5
2743
  8
0
 10
4.5019793244727131
 20
12.56980788695628
 30
0.0
 40
0.2123766009311813
 50
186.1292081748023
 51
191.02010224705529
  0
ARC
  5
2744
  8
0
 10
4.328493728898537
 20
12.527129974549631
 30
0.0
 40
0.0341061696655978
 50
108.5625145513095
 51
185.74480257730769
  0
ARC
  5
2745
  8
0
 10
4.3398825405592492
 20
12.5019616904013
 30
0.0
 40
0.0616535269155704
 50
66.363511954091109
 51
111.1508689418075
  0
ARC
  5
2746
  8
0
 10
4.3520642000803056
 20
12.52189761983538
 30
0.0
 40
0.0386360448982892
 50
349.05235096500792
 51
71.064952739289211
  0
ARC
  5
2749
  8
0
 10
4.3693720272084038
 20
12.59859907504784
 30
0.0
 40
0.0371093700822737
 50
342.86014221405759
 51
58.310057203511072
  0
ARC
  5
274A
  8
0
 10
4.3471273704807079
 20
12.56961543872551
 30
0.0
 40
0.0735504973016722
 50
55.424747449448461
 51
87.864733858149322
  0
ARC
  5
274C
  8
0
 10
-1030.182608607186
 20
162.79609390379039
 30
0.0
 40
1045.4346407343951
 50
351.73646659383411
 51
351.73913107193619
  0
ARC
  5
274D
  8
0
 10
4.156571205320934
 20
12.60232323224735
 30
0.0
 40
0.2492317551967154
 50
341.23462684726661
 51
345.41497293537441
  0
ARC
  5
274E
  8
0
 10
4.3385408838745452
 20
12.5172688068374
 30
0.0
 40
0.0114672015663258
 50
86.711002848656349
 51
199.53988556434439
  0
ARC
  5
274F
  8
0
 10
4.3424833429344147
 20
12.52042967313279
 30
0.0
 40
0.0163244458271923
 50
205.3770487984234
 51
268.93254906766288
  0
ARC
  5
2750
  8
0
 10
4.34446559938758
 20
12.518094016666099
 30
0.0
 40
0.0141716072561939
 50
260.71564480917721
 51
328.87940216633791
  0
ARC
  5
2751
  8
0
 10
4.346817921800298
 20
12.51574132110504
 30
0.0
 40
0.0109709423913591
 50
333.05232831999058
 51
54.342608502987929
  0
ARC
  5
2752
  8
0
 10
4.341428183320267
 20
12.51020080834027
 30
0.0
 40
0.0186500409851058
 50
50.808975392492528
 51
96.865474111149354
  0
ARC
  5
2758
  8
0
 10
4.4429853899237566
 20
12.24718034523627
 30
0.0
 40
0.0944761964497341
 50
84.557641112616196
 51
137.73640631591661
  0
ARC
  5
2759
  8
0
 10
4.4119458433330152
 20
12.27900958466175
 30
0.0
 40
0.0501702357091034
 50
140.79858456057971
 51
215.13075163386719
  0
ARC
  5
275A
  8
0
 10
4.4384718346290013
 20
12.29665990834649
 30
0.0
 40
0.0820252463623561
 50
214.55163019153929
 51
241.64349224371929
  0
ARC
  5
275B
  8
0
 10
4.4492466559255517
 20
12.23104238036427
 30
0.0
 40
0.050164725064276
 50
187.52032861691649
 51
273.2499404236396
  0
ARC
  5
275C
  8
0
 10
4.453711996880342
 20
12.226723444768259
 30
0.0
 40
0.0457938246180972
 50
267.97091300464922
 51
348.26872888658158
  0
ARC
  5
275D
  8
0
 10
4.4840708633607518
 20
12.27376472738332
 30
0.0
 40
0.0581823909546348
 50
284.40919513093212
 51
7.3663505048838873
  0
ARC
  5
275E
  8
0
 10
4.4750573904811928
 20
12.26445533097904
 30
0.0
 40
0.0687976087210204
 50
14.2148693871686
 51
59.792915828280499
  0
ARC
  5
275F
  8
0
 10
4.4482943632667311
 20
12.22420220263124
 30
0.0
 40
0.1170854061774027
 50
58.385142412588877
 51
88.212820489968991
  0
ARC
  5
2760
  8
0
 10
4.4484539960681531
 20
12.27961763912465
 30
0.0
 40
0.0592279158490628
 50
82.814563000438824
 51
143.11637292318261
  0
ARC
  5
2761
  8
0
 10
4.4253674945757204
 20
12.299850404876659
 30
0.0
 40
0.0287129446037934
 50
147.76488521882061
 51
178.003971312494
  0
LINE
  5
2762
  8
0
 10
4.3966719717492229
 20
12.300850483147149
 30
0.0
 11
4.3968114041905304
 21
12.242397774275
 31
0.0
  0
ARC
  5
2763
  8
0
 10
4.6079738374727128
 20
12.26507343077132
 30
0.0
 40
0.2123766009311813
 50
186.1292081748023
 51
191.02010224705529
  0
ARC
  5
2764
  8
0
 10
4.4344882418985359
 20
12.22239551836468
 30
0.0
 40
0.0341061696655978
 50
108.5625145513095
 51
185.74480257730769
  0
ARC
  5
2765
  8
0
 10
4.445877053559248
 20
12.197227234216349
 30
0.0
 40
0.0616535269155704
 50
66.363511954091109
 51
111.1508689418075
  0
ARC
  5
2766
  8
0
 10
4.4580587130803062
 20
12.217163163650429
 30
0.0
 40
0.0386360448982892
 50
349.05235096500792
 51
71.064952739289211
  0
ARC
  5
2769
  8
0
 10
4.4753665402084044
 20
12.293864618862891
 30
0.0
 40
0.0371093700822737
 50
342.86014221405759
 51
58.310057203511072
  0
ARC
  5
276A
  8
0
 10
4.4531218834807076
 20
12.264880982540561
 30
0.0
 40
0.0735504973016722
 50
55.424747449448461
 51
87.864733858149322
  0
ARC
  5
276C
  8
0
 10
-1030.076614094186
 20
162.49135944760539
 30
0.0
 40
1045.4346407343951
 50
351.73646659383411
 51
351.73913107193619
  0
ARC
  5
276D
  8
0
 10
4.2625657183209338
 20
12.297588776062391
 30
0.0
 40
0.2492317551967154
 50
341.23462684726661
 51
345.41497293537441
  0
ARC
  5
276E
  8
0
 10
4.444535396874544
 20
12.21253435065244
 30
0.0
 40
0.0114672015663258
 50
86.711002848656349
 51
199.53988556434439
  0
ARC
  5
276F
  8
0
 10
4.4484778559344154
 20
12.215695216947831
 30
0.0
 40
0.0163244458271923
 50
205.3770487984234
 51
268.93254906766288
  0
ARC
  5
2770
  8
0
 10
4.4504601123875789
 20
12.213359560481139
 30
0.0
 40
0.0141716072561939
 50
260.71564480917721
 51
328.87940216633791
  0
ARC
  5
2771
  8
0
 10
4.4528124348002969
 20
12.21100686492008
 30
0.0
 40
0.0109709423913591
 50
333.05232831999058
 51
54.342608502987929
  0
ARC
  5
2772
  8
0
 10
4.4474226963202659
 20
12.205466352155311
 30
0.0
 40
0.0186500409851058
 50
50.808975392492528
 51
96.865474111149354
  0
ARC
  5
2778
  8
0
 10
4.7448393338237578
 20
11.98804371673627
 30
0.0
 40
0.0944761964497341
 50
84.557641112616196
 51
137.73640631591661
  0
ARC
  5
2779
  8
0
 10
4.7137997872330164
 20
12.01987295616175
 30
0.0
 40
0.0501702357091034
 50
140.79858456057971
 51
215.13075163386711
  0
ARC
  5
277A
  8
0
 10
4.7403257785290016
 20
12.037523279846489
 30
0.0
 40
0.0820252463623561
 50
214.55163019153929
 51
241.64349224371929
  0
ARC
  5
277B
  8
0
 10
4.7511005998255529
 20
11.971905751864281
 30
0.0
 40
0.050164725064276
 50
187.52032861691649
 51
273.2499404236396
  0
ARC
  5
277C
  8
0
 10
4.7555659407803441
 20
11.967586816268261
 30
0.0
 40
0.0457938246180972
 50
267.97091300464922
 51
348.26872888658158
  0
ARC
  5
277D
  8
0
 10
4.785924807260753
 20
12.01462809888333
 30
0.0
 40
0.0581823909546348
 50
284.40919513093212
 51
7.3663505048838873
  0
ARC
  5
277E
  8
0
 10
4.776911334381194
 20
12.005318702479039
 30
0.0
 40
0.0687976087210204
 50
14.2148693871686
 51
59.792915828280499
  0
ARC
  5
277F
  8
0
 10
4.7501483071667323
 20
11.96506557413124
 30
0.0
 40
0.1170854061774027
 50
58.385142412588877
 51
88.212820489968991
  0
ARC
  5
2780
  8
0
 10
4.7503079399681551
 20
12.02048101062465
 30
0.0
 40
0.0592279158490628
 50
82.814563000438824
 51
143.11637292318261
  0
ARC
  5
2781
  8
0
 10
4.7272214384757207
 20
12.040713776376659
 30
0.0
 40
0.0287129446037934
 50
147.76488521882061
 51
178.003971312494
  0
LINE
  5
2782
  8
0
 10
4.6985259156492241
 20
12.041713854647149
 30
0.0
 11
4.6986653480905307
 21
11.983261145775
 31
0.0
  0
ARC
  5
2783
  8
0
 10
4.909827781372714
 20
12.00593680227133
 30
0.0
 40
0.2123766009311813
 50
186.1292081748023
 51
191.02010224705529
  0
ARC
  5
2784
  8
0
 10
4.7363421857985371
 20
11.963258889864679
 30
0.0
 40
0.0341061696655978
 50
108.5625145513095
 51
185.74480257730769
  0
ARC
  5
2785
  8
0
 10
4.7477309974592501
 20
11.938090605716351
 30
0.0
 40
0.0616535269155704
 50
66.363511954091109
 51
111.1508689418075
  0
ARC
  5
2786
  8
0
 10
4.7599126569803074
 20
11.958026535150429
 30
0.0
 40
0.0386360448982892
 50
349.05235096500792
 51
71.064952739289211
  0
ARC
  5
2789
  8
0
 10
4.7772204841084047
 20
12.034727990362891
 30
0.0
 40
0.0371093700822737
 50
342.86014221405759
 51
58.310057203511072
  0
ARC
  5
278A
  8
0
 10
4.7549758273807088
 20
12.00574435404056
 30
0.0
 40
0.0735504973016722
 50
55.424747449448461
 51
87.864733858149322
  0
ARC
  5
278C
  8
0
 10
-1029.7747601502861
 20
162.2322228191054
 30
0.0
 40
1045.4346407343951
 50
351.73646659383411
 51
351.73913107193619
  0
ARC
  5
278D
  8
0
 10
4.564419662220935
 20
12.03845214756239
 30
0.0
 40
0.2492317551967154
 50
341.23462684726661
 51
345.41497293537441
  0
ARC
  5
278E
  8
0
 10
4.7463893407745461
 20
11.953397722152451
 30
0.0
 40
0.0114672015663258
 50
86.711002848656349
 51
199.53988556434439
  0
ARC
  5
278F
  8
0
 10
4.7503317998344157
 20
11.95655858844783
 30
0.0
 40
0.0163244458271923
 50
205.3770487984234
 51
268.93254906766288
  0
ARC
  5
2790
  8
0
 10
4.7523140562875801
 20
11.95422293198115
 30
0.0
 40
0.0141716072561939
 50
260.71564480917721
 51
328.8794021663378
  0
ARC
  5
2791
  8
0
 10
4.7546663787002981
 20
11.95187023642008
 30
0.0
 40
0.0109709423913591
 50
333.05232831999058
 51
54.342608502987929
  0
ARC
  5
2792
  8
0
 10
4.7492766402202671
 20
11.94632972365531
 30
0.0
 40
0.0186500409851058
 50
50.808975392492528
 51
96.865474111149354
  0
ARC
  5
2798
  8
0
 10
4.882958437423758
 20
12.186690506336269
 30
0.0
 40
0.0944761964497341
 50
84.557641112616196
 51
137.73640631591661
  0
ARC
  5
2799
  8
0
 10
4.8519188908330149
 20
12.21851974576175
 30
0.0
 40
0.0501702357091034
 50
140.79858456057971
 51
215.13075163386719
  0
ARC
  5
279A
  8
0
 10
4.878444882129001
 20
12.236170069446491
 30
0.0
 40
0.0820252463623561
 50
214.55163019153929
 51
241.64349224371929
  0
ARC
  5
279B
  8
0
 10
4.8892197034255531
 20
12.17055254146427
 30
0.0
 40
0.050164725064276
 50
187.52032861691649
 51
273.2499404236396
  0
ARC
  5
279C
  8
0
 10
4.8936850443803426
 20
12.166233605868261
 30
0.0
 40
0.0457938246180972
 50
267.97091300464922
 51
348.26872888658158
  0
ARC
  5
279D
  8
0
 10
4.9240439108607532
 20
12.21327488848333
 30
0.0
 40
0.0581823909546348
 50
284.40919513093212
 51
7.3663505048838873
  0
ARC
  5
279E
  8
0
 10
4.9150304379811942
 20
12.203965492079041
 30
0.0
 40
0.0687976087210204
 50
14.2148693871686
 51
59.792915828280499
  0
ARC
  5
279F
  8
0
 10
4.8882674107667308
 20
12.163712363731239
 30
0.0
 40
0.1170854061774027
 50
58.385142412588877
 51
88.212820489968991
  0
ARC
  5
27A0
  8
0
 10
4.8884270435681536
 20
12.21912780022466
 30
0.0
 40
0.0592279158490628
 50
82.814563000438824
 51
143.11637292318261
  0
ARC
  5
27A1
  8
0
 10
4.8653405420757201
 20
12.239360565976661
 30
0.0
 40
0.0287129446037934
 50
147.76488521882061
 51
178.003971312494
  0
LINE
  5
27A2
  8
0
 10
4.8366450192492243
 20
12.240360644247151
 30
0.0
 11
4.8367844516905301
 21
12.181907935374999
 31
0.0
  0
ARC
  5
27A3
  8
0
 10
5.0479468849727143
 20
12.204583591871319
 30
0.0
 40
0.2123766009311813
 50
186.1292081748023
 51
191.02010224705529
  0
ARC
  5
27A4
  8
0
 10
4.8744612893985373
 20
12.161905679464679
 30
0.0
 40
0.0341061696655978
 50
108.5625145513095
 51
185.74480257730769
  0
ARC
  5
27A5
  8
0
 10
4.8858501010592494
 20
12.13673739531635
 30
0.0
 40
0.0616535269155704
 50
66.363511954091109
 51
111.1508689418075
  0
ARC
  5
27A6
  8
0
 10
4.8980317605803059
 20
12.156673324750431
 30
0.0
 40
0.0386360448982892
 50
349.05235096500792
 51
71.064952739289211
  0
ARC
  5
27A9
  8
0
 10
4.9153395877084041
 20
12.23337477996289
 30
0.0
 40
0.0371093700822737
 50
342.86014221405759
 51
58.310057203511072
  0
ARC
  5
27AA
  8
0
 10
4.893094930980709
 20
12.20439114364056
 30
0.0
 40
0.0735504973016722
 50
55.424747449448461
 51
87.864733858149322
  0
ARC
  5
27AC
  8
0
 10
-1029.636641046686
 20
162.43086960870539
 30
0.0
 40
1045.4346407343951
 50
351.73646659383411
 51
351.73913107193619
  0
ARC
  5
27AD
  8
0
 10
4.7025387658209352
 20
12.237098937162401
 30
0.0
 40
0.2492317551967154
 50
341.23462684726661
 51
345.41497293537441
  0
ARC
  5
27AE
  8
0
 10
4.8845084443745446
 20
12.15204451175244
 30
0.0
 40
0.0114672015663258
 50
86.711002848656349
 51
199.53988556434439
  0
ARC
  5
27AF
  8
0
 10
4.888450903434415
 20
12.15520537804783
 30
0.0
 40
0.0163244458271923
 50
205.3770487984234
 51
268.93254906766288
  0
ARC
  5
27B0
  8
0
 10
4.8904331598875803
 20
12.152869721581141
 30
0.0
 40
0.0141716072561939
 50
260.71564480917721
 51
328.87940216633791
  0
ARC
  5
27B1
  8
0
 10
4.8927854823002983
 20
12.150517026020079
 30
0.0
 40
0.0109709423913591
 50
333.05232831999058
 51
54.342608502987929
  0
ARC
  5
27B2
  8
0
 10
4.8873957438202673
 20
12.14497651325531
 30
0.0
 40
0.0186500409851058
 50
50.808975392492528
 51
96.865474111149354
  0
ARC
  5
27B8
  8
0
 10
4.728806358923757
 20
12.395199082936269
 30
0.0
 40
0.0944761964497341
 50
84.557641112616196
 51
137.73640631591661
  0
ARC
  5
27B9
  8
0
 10
4.6977668123330147
 20
12.42702832236175
 30
0.0
 40
0.0501702357091034
 50
140.79858456057971
 51
215.13075163386719
  0
ARC
  5
27BA
  8
0
 10
4.7242928036290008
 20
12.444678646046491
 30
0.0
 40
0.0820252463623561
 50
214.55163019153929
 51
241.64349224371929
  0
ARC
  5
27BB
  8
0
 10
4.7350676249255521
 20
12.37906111806428
 30
0.0
 40
0.050164725064276
 50
187.52032861691649
 51
273.2499404236396
  0
ARC
  5
27BC
  8
0
 10
4.7395329658803433
 20
12.37474218246826
 30
0.0
 40
0.0457938246180972
 50
267.97091300464922
 51
348.26872888658158
  0
ARC
  5
27BD
  8
0
 10
4.7698918323607531
 20
12.42178346508333
 30
0.0
 40
0.0581823909546348
 50
284.40919513093212
 51
7.3663505048838873
  0
ARC
  5
27BE
  8
0
 10
4.7608783594811941
 20
12.412474068679041
 30
0.0
 40
0.0687976087210204
 50
14.2148693871686
 51
59.792915828280499
  0
ARC
  5
27BF
  8
0
 10
4.7341153322667306
 20
12.372220940331241
 30
0.0
 40
0.1170854061774027
 50
58.385142412588877
 51
88.212820489968991
  0
ARC
  5
27C0
  8
0
 10
4.7342749650681544
 20
12.42763637682466
 30
0.0
 40
0.0592279158490628
 50
82.814563000438824
 51
143.11637292318261
  0
ARC
  5
27C1
  8
0
 10
4.71118846357572
 20
12.447869142576661
 30
0.0
 40
0.0287129446037934
 50
147.76488521882061
 51
178.003971312494
  0
LINE
  5
27C2
  8
0
 10
4.6824929407492242
 20
12.448869220847151
 30
0.0
 11
4.6826323731905299
 21
12.39041651197499
 31
0.0
  0
ARC
  5
27C3
  8
0
 10
4.8937948064727141
 20
12.413092168471319
 30
0.0
 40
0.2123766009311813
 50
186.1292081748023
 51
191.02010224705529
  0
ARC
  5
27C4
  8
0
 10
4.7203092108985372
 20
12.370414256064681
 30
0.0
 40
0.0341061696655978
 50
108.5625145513095
 51
185.74480257730769
  0
ARC
  5
27C5
  8
0
 10
4.7316980225592493
 20
12.34524597191635
 30
0.0
 40
0.0616535269155704
 50
66.363511954091109
 51
111.1508689418075
  0
ARC
  5
27C6
  8
0
 10
4.7438796820803057
 20
12.36518190135043
 30
0.0
 40
0.0386360448982892
 50
349.05235096500792
 51
71.064952739289211
  0
ARC
  5
27C9
  8
0
 10
4.7611875092084039
 20
12.44188335656289
 30
0.0
 40
0.0371093700822737
 50
342.86014221405759
 51
58.310057203511072
  0
ARC
  5
27CA
  8
0
 10
4.738942852480708
 20
12.41289972024056
 30
0.0
 40
0.0735504973016722
 50
55.424747449448461
 51
87.864733858149322
  0
ARC
  5
27CC
  8
0
 10
-1029.7907931251859
 20
162.63937818530539
 30
0.0
 40
1045.4346407343951
 50
351.73646659383411
 51
351.73913107193619
  0
ARC
  5
27CD
  8
0
 10
4.5483866873209351
 20
12.4456075137624
 30
0.0
 40
0.2492317551967154
 50
341.23462684726661
 51
345.41497293537441
  0
ARC
  5
27CE
  8
0
 10
4.7303563658745453
 20
12.36055308835245
 30
0.0
 40
0.0114672015663258
 50
86.711002848656349
 51
199.53988556434439
  0
ARC
  5
27CF
  8
0
 10
4.7342988249344149
 20
12.36371395464783
 30
0.0
 40
0.0163244458271923
 50
205.3770487984234
 51
268.93254906766288
  0
ARC
  5
27D0
  8
0
 10
4.7362810813875802
 20
12.361378298181149
 30
0.0
 40
0.0141716072561939
 50
260.71564480917721
 51
328.87940216633791
  0
ARC
  5
27D1
  8
0
 10
4.7386334038002982
 20
12.359025602620081
 30
0.0
 40
0.0109709423913591
 50
333.05232831999058
 51
54.342608502987929
  0
ARC
  5
27D2
  8
0
 10
4.7332436653202672
 20
12.35348508985531
 30
0.0
 40
0.0186500409851058
 50
50.808975392492528
 51
96.865474111149354
  0
ARC
  5
27D8
  8
0
 10
4.730856051223757
 20
12.62434147993627
 30
0.0
 40
0.0944761964497341
 50
84.557641112616196
 51
137.73640631591661
  0
ARC
  5
27D9
  8
0
 10
4.6998165046330147
 20
12.65617071936175
 30
0.0
 40
0.0501702357091034
 50
140.79858456057971
 51
215.13075163386719
  0
ARC
  5
27DA
  8
0
 10
4.7263424959290008
 20
12.673821043046489
 30
0.0
 40
0.0820252463623561
 50
214.55163019153929
 51
241.64349224371929
  0
ARC
  5
27DB
  8
0
 10
4.7371173172255521
 20
12.60820351506427
 30
0.0
 40
0.050164725064276
 50
187.52032861691649
 51
273.2499404236396
  0
ARC
  5
27DC
  8
0
 10
4.7415826581803433
 20
12.603884579468261
 30
0.0
 40
0.0457938246180972
 50
267.97091300464922
 51
348.26872888658158
  0
ARC
  5
27DD
  8
0
 10
4.7719415246607531
 20
12.650925862083319
 30
0.0
 40
0.0581823909546348
 50
284.40919513093212
 51
7.3663505048838811
  0
ARC
  5
27DE
  8
0
 10
4.762928051781194
 20
12.641616465679039
 30
0.0
 40
0.0687976087210204
 50
14.2148693871686
 51
59.792915828280499
  0
ARC
  5
27DF
  8
0
 10
4.7361650245667306
 20
12.601363337331239
 30
0.0
 40
0.1170854061774027
 50
58.385142412588877
 51
88.212820489968991
  0
ARC
  5
27E0
  8
0
 10
4.7363246573681543
 20
12.65677877382465
 30
0.0
 40
0.0592279158490628
 50
82.814563000438824
 51
143.11637292318261
  0
ARC
  5
27E1
  8
0
 10
4.7132381558757199
 20
12.677011539576659
 30
0.0
 40
0.0287129446037934
 50
147.76488521882061
 51
178.003971312494
  0
LINE
  5
27E2
  8
0
 10
4.6845426330492241
 20
12.678011617847149
 30
0.0
 11
4.6846820654905299
 21
12.619558908974991
 31
0.0
  0
ARC
  5
27E3
  8
0
 10
4.8958444987727141
 20
12.64223456547132
 30
0.0
 40
0.2123766009311813
 50
186.1292081748023
 51
191.02010224705529
  0
ARC
  5
27E4
  8
0
 10
4.7223589031985371
 20
12.599556653064679
 30
0.0
 40
0.0341061696655978
 50
108.5625145513095
 51
185.74480257730769
  0
ARC
  5
27E5
  8
0
 10
4.7337477148592493
 20
12.574388368916351
 30
0.0
 40
0.0616535269155704
 50
66.363511954091109
 51
111.1508689418075
  0
ARC
  5
27E6
  8
0
 10
4.7459293743803057
 20
12.594324298350431
 30
0.0
 40
0.0386360448982892
 50
349.05235096500792
 51
71.064952739289211
  0
ARC
  5
27E9
  8
0
 10
4.7632372015084039
 20
12.671025753562891
 30
0.0
 40
0.0371093700822737
 50
342.86014221405759
 51
58.310057203511072
  0
ARC
  5
27EA
  8
0
 10
4.740992544780708
 20
12.64204211724056
 30
0.0
 40
0.0735504973016722
 50
55.424747449448461
 51
87.864733858149322
  0
ARC
  5
27EC
  8
0
 10
-1029.7887434328859
 20
162.86852058230539
 30
0.0
 40
1045.4346407343951
 50
351.73646659383411
 51
351.73913107193619
  0
ARC
  5
27ED
  8
0
 10
4.5504363796209351
 20
12.67474991076239
 30
0.0
 40
0.2492317551967154
 50
341.23462684726661
 51
345.41497293537441
  0
ARC
  5
27EE
  8
0
 10
4.7324060581745453
 20
12.58969548535244
 30
0.0
 40
0.0114672015663258
 50
86.711002848656349
 51
199.53988556434439
  0
ARC
  5
27EF
  8
0
 10
4.7363485172344149
 20
12.59285635164783
 30
0.0
 40
0.0163244458271923
 50
205.3770487984234
 51
268.93254906766288
  0
ARC
  5
27F0
  8
0
 10
4.7383307736875802
 20
12.590520695181141
 30
0.0
 40
0.0141716072561939
 50
260.71564480917721
 51
328.87940216633791
  0
ARC
  5
27F1
  8
0
 10
4.7406830961002981
 20
12.588167999620079
 30
0.0
 40
0.0109709423913591
 50
333.05232831999058
 51
54.342608502987929
  0
ARC
  5
27F2
  8
0
 10
4.7352933576202672
 20
12.58262748685531
 30
0.0
 40
0.0186500409851058
 50
50.808975392492528
 51
96.865474111149354
  0
ARC
  5
27F8
  8
0
 10
4.8811528790237571
 20
12.83516386753627
 30
0.0
 40
0.0944761964497341
 50
84.557641112616196
 51
137.73640631591661
  0
ARC
  5
27F9
  8
0
 10
4.8501133324330148
 20
12.86699310696175
 30
0.0
 40
0.0501702357091034
 50
140.79858456057971
 51
215.13075163386719
  0
ARC
  5
27FA
  8
0
 10
4.8766393237290009
 20
12.88464343064649
 30
0.0
 40
0.0820252463623561
 50
214.55163019153929
 51
241.64349224371929
  0
ARC
  5
27FB
  8
0
 10
4.887414145025553
 20
12.81902590266427
 30
0.0
 40
0.050164725064276
 50
187.52032861691649
 51
273.2499404236396
  0
ARC
  5
27FC
  8
0
 10
4.8918794859803434
 20
12.814706967068259
 30
0.0
 40
0.0457938246180972
 50
267.97091300464922
 51
348.26872888658158
  0
ARC
  5
27FD
  8
0
 10
4.9222383524607531
 20
12.86174824968332
 30
0.0
 40
0.0581823909546348
 50
284.40919513093212
 51
7.3663505048838811
  0
ARC
  5
27FE
  8
0
 10
4.9132248795811941
 20
12.85243885327904
 30
0.0
 40
0.0687976087210204
 50
14.2148693871686
 51
59.792915828280499
  0
ARC
  5
27FF
  8
0
 10
4.8864618523667307
 20
12.81218572493124
 30
0.0
 40
0.1170854061774027
 50
58.385142412588877
 51
88.212820489968991
  0
ARC
  5
2800
  8
0
 10
4.8866214851681544
 20
12.86760116142465
 30
0.0
 40
0.0592279158490628
 50
82.814563000438824
 51
143.11637292318261
  0
ARC
  5
2801
  8
0
 10
4.86353498367572
 20
12.88783392717666
 30
0.0
 40
0.0287129446037934
 50
147.76488521882061
 51
178.003971312494
  0
LINE
  5
2802
  8
0
 10
4.8348394608492242
 20
12.88883400544715
 30
0.0
 11
4.83497889329053
 21
12.830381296574989
 31
0.0
  0
ARC
  5
2803
  8
0
 10
5.0461413265727142
 20
12.85305695307132
 30
0.0
 40
0.2123766009311813
 50
186.1292081748023
 51
191.02010224705529
  0
ARC
  5
2804
  8
0
 10
4.8726557309985372
 20
12.81037904066468
 30
0.0
 40
0.0341061696655978
 50
108.5625145513095
 51
185.74480257730769
  0
ARC
  5
2805
  8
0
 10
4.8840445426592494
 20
12.785210756516349
 30
0.0
 40
0.0616535269155704
 50
66.363511954091109
 51
111.1508689418075
  0
ARC
  5
2806
  8
0
 10
4.8962262021803058
 20
12.805146685950429
 30
0.0
 40
0.0386360448982892
 50
349.05235096500792
 51
71.064952739289211
  0
ARC
  5
2809
  8
0
 10
4.913534029308404
 20
12.881848141162889
 30
0.0
 40
0.0371093700822737
 50
342.86014221405759
 51
58.310057203511072
  0
ARC
  5
280A
  8
0
 10
4.8912893725807081
 20
12.852864504840561
 30
0.0
 40
0.0735504973016722
 50
55.424747449448461
 51
87.864733858149322
  0
ARC
  5
280C
  8
0
 10
-1029.6384466050861
 20
163.07934296990541
 30
0.0
 40
1045.4346407343951
 50
351.73646659383411
 51
351.73913107193619
  0
ARC
  5
280D
  8
0
 10
4.7007332074209351
 20
12.885572298362391
 30
0.0
 40
0.2492317551967154
 50
341.23462684726661
 51
345.41497293537441
  0
ARC
  5
280E
  8
0
 10
4.8827028859745454
 20
12.80051787295244
 30
0.0
 40
0.0114672015663258
 50
86.711002848656349
 51
199.53988556434439
  0
ARC
  5
280F
  8
0
 10
4.8866453450344149
 20
12.803678739247831
 30
0.0
 40
0.0163244458271923
 50
205.3770487984234
 51
268.93254906766288
  0
ARC
  5
2810
  8
0
 10
4.8886276014875802
 20
12.801343082781139
 30
0.0
 40
0.0141716072561939
 50
260.71564480917721
 51
328.87940216633791
  0
ARC
  5
2811
  8
0
 10
4.8909799239002982
 20
12.79899038722008
 30
0.0
 40
0.0109709423913591
 50
333.05232831999058
 51
54.342608502987929
  0
ARC
  5
2812
  8
0
 10
4.8855901854202672
 20
12.793449874455311
 30
0.0
 40
0.0186500409851058
 50
50.808975392492528
 51
96.865474111149354
  0
ARC
  5
2818
  8
0
 10
5.0821829665237583
 20
12.48433172813627
 30
0.0
 40
0.0944761964497341
 50
84.557641112616196
 51
137.73640631591661
  0
ARC
  5
2819
  8
0
 10
5.0511434199330161
 20
12.516160967561749
 30
0.0
 40
0.0501702357091034
 50
140.79858456057971
 51
215.13075163386719
  0
ARC
  5
281A
  8
0
 10
5.0776694112290022
 20
12.53381129124649
 30
0.0
 40
0.0820252463623561
 50
214.55163019153929
 51
241.64349224371929
  0
ARC
  5
281B
  8
0
 10
5.0884442325255526
 20
12.468193763264271
 30
0.0
 40
0.050164725064276
 50
187.52032861691649
 51
273.2499404236396
  0
ARC
  5
281C
  8
0
 10
5.0929095734803429
 20
12.46387482766826
 30
0.0
 40
0.0457938246180972
 50
267.97091300464922
 51
348.26872888658158
  0
ARC
  5
281D
  8
0
 10
5.1232684399607527
 20
12.51091611028332
 30
0.0
 40
0.0581823909546348
 50
284.40919513093212
 51
7.3663505048838811
  0
ARC
  5
281E
  8
0
 10
5.1142549670811936
 20
12.50160671387904
 30
0.0
 40
0.0687976087210204
 50
14.2148693871686
 51
59.792915828280499
  0
ARC
  5
281F
  8
0
 10
5.0874919398667311
 20
12.46135358553124
 30
0.0
 40
0.1170854061774027
 50
58.385142412588877
 51
88.212820489968991
  0
ARC
  5
2820
  8
0
 10
5.0876515726681539
 20
12.516769022024651
 30
0.0
 40
0.0592279158490628
 50
82.814563000438824
 51
143.11637292318261
  0
ARC
  5
2821
  8
0
 10
5.0645650711757213
 20
12.53700178777666
 30
0.0
 40
0.0287129446037934
 50
147.76488521882061
 51
178.003971312494
  0
LINE
  5
2822
  8
0
 10
5.0358695483492237
 20
12.53800186604715
 30
0.0
 11
5.0360089807905313
 21
12.479549157175001
 31
0.0
  0
ARC
  5
2823
  8
0
 10
5.2471714140727137
 20
12.502224813671321
 30
0.0
 40
0.2123766009311813
 50
186.1292081748023
 51
191.02010224705529
  0
ARC
  5
2824
  8
0
 10
5.0736858184985367
 20
12.45954690126468
 30
0.0
 40
0.0341061696655978
 50
108.5625145513095
 51
185.74480257730769
  0
ARC
  5
2825
  8
0
 10
5.0850746301592489
 20
12.43437861711635
 30
0.0
 40
0.0616535269155704
 50
66.363511954091109
 51
111.1508689418075
  0
ARC
  5
2826
  8
0
 10
5.0972562896803071
 20
12.45431454655043
 30
0.0
 40
0.0386360448982892
 50
349.05235096500792
 51
71.064952739289211
  0
ARC
  5
2829
  8
0
 10
5.1145641168084053
 20
12.53101600176289
 30
0.0
 40
0.0371093700822737
 50
342.86014221405759
 51
58.310057203511072
  0
ARC
  5
282A
  8
0
 10
5.0923194600807093
 20
12.502032365440559
 30
0.0
 40
0.0735504973016722
 50
55.424747449448461
 51
87.864733858149322
  0
ARC
  5
282C
  8
0
 10
-1029.4374165175859
 20
162.7285108305054
 30
0.0
 40
1045.4346407343951
 50
351.73646659383411
 51
351.73913107193619
  0
ARC
  5
282D
  8
0
 10
4.9017632949209347
 20
12.534740158962389
 30
0.0
 40
0.2492317551967154
 50
341.23462684726661
 51
345.41497293537441
  0
ARC
  5
282E
  8
0
 10
5.0837329734745449
 20
12.449685733552441
 30
0.0
 40
0.0114672015663258
 50
86.711002848656349
 51
199.53988556434439
  0
ARC
  5
282F
  8
0
 10
5.0876754325344162
 20
12.452846599847829
 30
0.0
 40
0.0163244458271923
 50
205.3770487984234
 51
268.93254906766288
  0
ARC
  5
2830
  8
0
 10
5.0896576889875798
 20
12.45051094338115
 30
0.0
 40
0.0141716072561939
 50
260.71564480917721
 51
328.87940216633791
  0
ARC
  5
2831
  8
0
 10
5.0920100114002977
 20
12.44815824782008
 30
0.0
 40
0.0109709423913591
 50
333.05232831999058
 51
54.342608502987929
  0
ARC
  5
2832
  8
0
 10
5.0866202729202667
 20
12.442617735055309
 30
0.0
 40
0.0186500409851058
 50
50.808975392492528
 51
96.865474111149354
  0
ARC
  5
2838
  8
0
 10
5.1627078811237581
 20
12.022450349136269
 30
0.0
 40
0.0944761964497341
 50
84.557641112616196
 51
137.73640631591661
  0
ARC
  5
2839
  8
0
 10
5.131668334533015
 20
12.05427958856175
 30
0.0
 40
0.0501702357091034
 50
140.79858456057971
 51
215.13075163386711
  0
ARC
  5
283A
  8
0
 10
5.1581943258290011
 20
12.071929912246491
 30
0.0
 40
0.0820252463623561
 50
214.55163019153929
 51
241.64349224371929
  0
ARC
  5
283B
  8
0
 10
5.1689691471255532
 20
12.00631238426427
 30
0.0
 40
0.050164725064276
 50
187.52032861691649
 51
273.2499404236396
  0
ARC
  5
283C
  8
0
 10
5.1734344880803427
 20
12.00199344866826
 30
0.0
 40
0.0457938246180972
 50
267.97091300464922
 51
348.26872888658158
  0
ARC
  5
283D
  8
0
 10
5.2037933545607533
 20
12.04903473128333
 30
0.0
 40
0.0581823909546348
 50
284.40919513093212
 51
7.3663505048838873
  0
ARC
  5
283E
  8
0
 10
5.1947798816811943
 20
12.03972533487905
 30
0.0
 40
0.0687976087210204
 50
14.2148693871686
 51
59.792915828280499
  0
ARC
  5
283F
  8
0
 10
5.1680168544667309
 20
11.999472206531239
 30
0.0
 40
0.1170854061774027
 50
58.385142412588877
 51
88.212820489968991
  0
ARC
  5
2840
  8
0
 10
5.1681764872681537
 20
12.054887643024649
 30
0.0
 40
0.0592279158490628
 50
82.814563000438824
 51
143.11637292318261
  0
ARC
  5
2841
  8
0
 10
5.1450899857757211
 20
12.075120408776661
 30
0.0
 40
0.0287129446037934
 50
147.76488521882061
 51
178.003971312494
  0
LINE
  5
2842
  8
0
 10
5.1163944629492244
 20
12.076120487047151
 30
0.0
 11
5.1165338953905311
 21
12.017667778174999
 31
0.0
  0
ARC
  5
2843
  8
0
 10
5.3276963286727144
 20
12.04034343467133
 30
0.0
 40
0.2123766009311813
 50
186.1292081748023
 51
191.02010224705529
  0
ARC
  5
2844
  8
0
 10
5.1542107330985374
 20
11.997665522264681
 30
0.0
 40
0.0341061696655978
 50
108.5625145513095
 51
185.74480257730769
  0
ARC
  5
2845
  8
0
 10
5.1655995447592487
 20
11.97249723811635
 30
0.0
 40
0.0616535269155704
 50
66.363511954091109
 51
111.1508689418075
  0
ARC
  5
2846
  8
0
 10
5.177781204280306
 20
11.992433167550431
 30
0.0
 40
0.0386360448982892
 50
349.05235096500792
 51
71.064952739289211
  0
ARC
  5
2849
  8
0
 10
5.1950890314084051
 20
12.06913462276289
 30
0.0
 40
0.0371093700822737
 50
342.86014221405759
 51
58.310057203511072
  0
ARC
  5
284A
  8
0
 10
5.1728443746807091
 20
12.04015098644056
 30
0.0
 40
0.0735504973016722
 50
55.424747449448461
 51
87.864733858149322
  0
ARC
  5
284C
  8
0
 10
-1029.356891602986
 20
162.26662945150539
 30
0.0
 40
1045.4346407343951
 50
351.73646659383411
 51
351.73913107193619
  0
ARC
  5
284D
  8
0
 10
4.9822882095209353
 20
12.072858779962401
 30
0.0
 40
0.2492317551967154
 50
341.23462684726661
 51
345.41497293537441
  0
ARC
  5
284E
  8
0
 10
5.1642578880745447
 20
11.98780435455244
 30
0.0
 40
0.0114672015663258
 50
86.711002848656349
 51
199.53988556434439
  0
ARC
  5
284F
  8
0
 10
5.168200347134416
 20
11.99096522084783
 30
0.0
 40
0.0163244458271923
 50
205.3770487984234
 51
268.93254906766288
  0
ARC
  5
2850
  8
0
 10
5.1701826035875804
 20
11.988629564381149
 30
0.0
 40
0.0141716072561939
 50
260.71564480917721
 51
328.8794021663378
  0
ARC
  5
2851
  8
0
 10
5.1725349260002984
 20
11.986276868820079
 30
0.0
 40
0.0109709423913591
 50
333.05232831999058
 51
54.342608502987929
  0
ARC
  5
2852
  8
0
 10
5.1671451875202674
 20
11.98073635605531
 30
0.0
 40
0.0186500409851058
 50
50.808975392492528
 51
96.865474111149354
  0
ARC
  5
2858
  8
0
 10
5.1965236372237573
 20
11.81480850733627
 30
0.0
 40
0.0944761964497341
 50
84.557641112616196
 51
137.73640631591661
  0
ARC
  5
2859
  8
0
 10
5.1654840906330151
 20
11.846637746761751
 30
0.0
 40
0.0501702357091034
 50
140.79858456057971
 51
215.13075163386711
  0
ARC
  5
285A
  8
0
 10
5.1920100819290012
 20
11.86428807044649
 30
0.0
 40
0.0820252463623561
 50
214.55163019153929
 51
241.64349224371929
  0
ARC
  5
285B
  8
0
 10
5.2027849032255524
 20
11.798670542464279
 30
0.0
 40
0.050164725064276
 50
187.52032861691649
 51
273.2499404236396
  0
ARC
  5
285C
  8
0
 10
5.2072502441803419
 20
11.794351606868259
 30
0.0
 40
0.0457938246180972
 50
267.97091300464922
 51
348.26872888658158
  0
ARC
  5
285D
  8
0
 10
5.2376091106607516
 20
11.84139288948333
 30
0.0
 40
0.0581823909546348
 50
284.40919513093212
 51
7.3663505048838873
  0
ARC
  5
285E
  8
0
 10
5.2285956377811926
 20
11.83208349307904
 30
0.0
 40
0.0687976087210204
 50
14.2148693871686
 51
59.792915828280499
  0
ARC
  5
285F
  8
0
 10
5.2018326105667301
 20
11.79183036473124
 30
0.0
 40
0.1170854061774027
 50
58.385142412588877
 51
88.212820489968991
  0
ARC
  5
2860
  8
0
 10
5.2019922433681529
 20
11.84724580122465
 30
0.0
 40
0.0592279158490628
 50
82.814563000438824
 51
143.11637292318261
  0
ARC
  5
2861
  8
0
 10
5.1789057418757203
 20
11.86747856697666
 30
0.0
 40
0.0287129446037934
 50
147.76488521882061
 51
178.003971312494
  0
LINE
  5
2862
  8
0
 10
5.1502102190492227
 20
11.86847864524715
 30
0.0
 11
5.1503496514905303
 21
11.810025936375
 31
0.0
  0
ARC
  5
2863
  8
0
 10
5.3615120847727127
 20
11.832701592871331
 30
0.0
 40
0.2123766009311813
 50
186.1292081748023
 51
191.02010224705529
  0
ARC
  5
2864
  8
0
 10
5.1880264891985357
 20
11.79002368046468
 30
0.0
 40
0.0341061696655978
 50
108.5625145513095
 51
185.74480257730769
  0
ARC
  5
2865
  8
0
 10
5.1994153008592479
 20
11.764855396316349
 30
0.0
 40
0.0616535269155704
 50
66.363511954091109
 51
111.1508689418075
  0
ARC
  5
2866
  8
0
 10
5.2115969603803061
 20
11.78479132575043
 30
0.0
 40
0.0386360448982892
 50
349.05235096500792
 51
71.064952739289211
  0
ARC
  5
2869
  8
0
 10
5.2289047875084043
 20
11.861492780962889
 30
0.0
 40
0.0371093700822737
 50
342.86014221405759
 51
58.310057203511072
  0
ARC
  5
286A
  8
0
 10
5.2066601307807083
 20
11.832509144640561
 30
0.0
 40
0.0735504973016722
 50
55.424747449448461
 51
87.864733858149322
  0
ARC
  5
286C
  8
0
 10
-1029.323075846886
 20
162.05898760970541
 30
0.0
 40
1045.4346407343951
 50
351.73646659383411
 51
351.73913107193619
  0
ARC
  5
286D
  8
0
 10
5.0161039656209336
 20
11.865216938162391
 30
0.0
 40
0.2492317551967154
 50
341.23462684726661
 51
345.41497293537441
  0
ARC
  5
286E
  8
0
 10
5.1980736441745439
 20
11.780162512752449
 30
0.0
 40
0.0114672015663258
 50
86.711002848656349
 51
199.53988556434439
  0
ARC
  5
286F
  8
0
 10
5.2020161032344152
 20
11.783323379047831
 30
0.0
 40
0.0163244458271923
 50
205.3770487984234
 51
268.93254906766288
  0
ARC
  5
2870
  8
0
 10
5.2039983596875787
 20
11.78098772258115
 30
0.0
 40
0.0141716072561939
 50
260.71564480917721
 51
328.8794021663378
  0
ARC
  5
2871
  8
0
 10
5.2063506821002967
 20
11.77863502702008
 30
0.0
 40
0.0109709423913591
 50
333.05232831999058
 51
54.342608502987929
  0
ARC
  5
2872
  8
0
 10
5.2009609436202657
 20
11.773094514255311
 30
0.0
 40
0.0186500409851058
 50
50.808975392492528
 51
96.865474111149354
  0
ARC
  5
2878
  8
0
 10
5.2166421966237566
 20
11.64084989643627
 30
0.0
 40
0.0944761964497341
 50
84.557641112616196
 51
137.73640631591661
  0
ARC
  5
2879
  8
0
 10
5.1856026500330152
 20
11.672679135861751
 30
0.0
 40
0.0501702357091034
 50
140.79858456057971
 51
215.13075163386711
  0
ARC
  5
287A
  8
0
 10
5.2121286413290013
 20
11.69032945954649
 30
0.0
 40
0.0820252463623561
 50
214.55163019153929
 51
241.64349224371929
  0
ARC
  5
287B
  8
0
 10
5.2229034626255517
 20
11.624711931564271
 30
0.0
 40
0.050164725064276
 50
187.52032861691649
 51
273.2499404236396
  0
ARC
  5
287C
  8
0
 10
5.2273688035803421
 20
11.62039299596826
 30
0.0
 40
0.0457938246180972
 50
267.97091300464922
 51
348.26872888658158
  0
ARC
  5
287D
  8
0
 10
5.2577276700607518
 20
11.667434278583331
 30
0.0
 40
0.0581823909546348
 50
284.40919513093212
 51
7.3663505048838873
  0
ARC
  5
287E
  8
0
 10
5.2487141971811928
 20
11.658124882179051
 30
0.0
 40
0.0687976087210204
 50
14.2148693871686
 51
59.792915828280499
  0
ARC
  5
287F
  8
0
 10
5.2219511699667311
 20
11.61787175383124
 30
0.0
 40
0.1170854061774027
 50
58.385142412588877
 51
88.212820489968991
  0
ARC
  5
2880
  8
0
 10
5.2221108027681531
 20
11.67328719032465
 30
0.0
 40
0.0592279158490628
 50
82.814563000438824
 51
143.11637292318261
  0
ARC
  5
2881
  8
0
 10
5.1990243012757196
 20
11.69351995607666
 30
0.0
 40
0.0287129446037934
 50
147.76488521882061
 51
178.003971312494
  0
LINE
  5
2882
  8
0
 10
5.1703287784492229
 20
11.69452003434715
 30
0.0
 11
5.1704682108905304
 21
11.636067325475
 31
0.0
  0
ARC
  5
2883
  8
0
 10
5.3816306441727129
 20
11.658742981971329
 30
0.0
 40
0.2123766009311813
 50
186.1292081748023
 51
191.02010224705529
  0
ARC
  5
2884
  8
0
 10
5.2081450485985359
 20
11.61606506956468
 30
0.0
 40
0.0341061696655978
 50
108.5625145513095
 51
185.74480257730769
  0
ARC
  5
2885
  8
0
 10
5.219533860259248
 20
11.59089678541635
 30
0.0
 40
0.0616535269155704
 50
66.363511954091109
 51
111.1508689418075
  0
ARC
  5
2886
  8
0
 10
5.2317155197803062
 20
11.61083271485043
 30
0.0
 40
0.0386360448982892
 50
349.05235096500792
 51
71.064952739289211
  0
ARC
  5
2889
  8
0
 10
5.2490233469084044
 20
11.687534170062889
 30
0.0
 40
0.0371093700822737
 50
342.86014221405759
 51
58.310057203511072
  0
ARC
  5
288A
  8
0
 10
5.2267786901807076
 20
11.658550533740559
 30
0.0
 40
0.0735504973016722
 50
55.424747449448461
 51
87.864733858149322
  0
ARC
  5
288C
  8
0
 10
-1029.3029572874859
 20
161.88502899880541
 30
0.0
 40
1045.4346407343951
 50
351.73646659383411
 51
351.73913107193619
  0
ARC
  5
288D
  8
0
 10
5.0362225250209338
 20
11.6912583272624
 30
0.0
 40
0.2492317551967154
 50
341.23462684726661
 51
345.41497293537441
  0
ARC
  5
288E
  8
0
 10
5.2181922035745441
 20
11.606203901852441
 30
0.0
 40
0.0114672015663258
 50
86.711002848656349
 51
199.53988556434439
  0
ARC
  5
288F
  8
0
 10
5.2221346626344154
 20
11.609364768147829
 30
0.0
 40
0.0163244458271923
 50
205.3770487984234
 51
268.93254906766288
  0
ARC
  5
2890
  8
0
 10
5.2241169190875789
 20
11.60702911168115
 30
0.0
 40
0.0141716072561939
 50
260.71564480917721
 51
328.8794021663378
  0
ARC
  5
2891
  8
0
 10
5.2264692415002969
 20
11.60467641612008
 30
0.0
 40
0.0109709423913591
 50
333.05232831999058
 51
54.342608502987929
  0
ARC
  5
2892
  8
0
 10
5.2210795030202659
 20
11.599135903355309
 30
0.0
 40
0.0186500409851058
 50
50.808975392492528
 51
96.865474111149354
  0
ARC
  5
2898
  8
0
 10
5.5307670452237581
 20
11.938030622936269
 30
0.0
 40
0.0944761964497341
 50
84.557641112616196
 51
137.73640631591661
  0
ARC
  5
2899
  8
0
 10
5.4997274986330149
 20
11.96985986236175
 30
0.0
 40
0.0501702357091034
 50
140.79858456057971
 51
215.13075163386711
  0
ARC
  5
289A
  8
0
 10
5.526253489929001
 20
11.987510186046491
 30
0.0
 40
0.0820252463623561
 50
214.55163019153929
 51
241.64349224371929
  0
ARC
  5
289B
  8
0
 10
5.5370283112255532
 20
11.921892658064269
 30
0.0
 40
0.050164725064276
 50
187.52032861691649
 51
273.2499404236396
  0
ARC
  5
289C
  8
0
 10
5.5414936521803426
 20
11.91757372246826
 30
0.0
 40
0.0457938246180972
 50
267.97091300464922
 51
348.26872888658158
  0
ARC
  5
289D
  8
0
 10
5.5718525186607533
 20
11.964615005083321
 30
0.0
 40
0.0581823909546348
 50
284.40919513093212
 51
7.3663505048838891
  0
ARC
  5
289E
  8
0
 10
5.5628390457811943
 20
11.955305608679041
 30
0.0
 40
0.0687976087210204
 50
14.2148693871686
 51
59.792915828280499
  0
ARC
  5
289F
  8
0
 10
5.5360760185667308
 20
11.915052480331241
 30
0.0
 40
0.1170854061774027
 50
58.385142412588877
 51
88.212820489968991
  0
ARC
  5
28A0
  8
0
 10
5.5362356513681537
 20
11.970467916824649
 30
0.0
 40
0.0592279158490628
 50
82.814563000438824
 51
143.11637292318261
  0
ARC
  5
28A1
  8
0
 10
5.513149149875721
 20
11.99070068257666
 30
0.0
 40
0.0287129446037934
 50
147.76488521882061
 51
178.003971312494
  0
LINE
  5
28A2
  8
0
 10
5.4844536270492243
 20
11.99170076084715
 30
0.0
 11
5.4845930594905301
 21
11.933248051974999
 31
0.0
  0
ARC
  5
28A3
  8
0
 10
5.6957554927727143
 20
11.955923708471319
 30
0.0
 40
0.2123766009311813
 50
186.1292081748023
 51
191.02010224705529
  0
ARC
  5
28A4
  8
0
 10
5.5222698971985373
 20
11.913245796064681
 30
0.0
 40
0.0341061696655978
 50
108.5625145513095
 51
185.74480257730769
  0
ARC
  5
28A5
  8
0
 10
5.5336587088592486
 20
11.88807751191635
 30
0.0
 40
0.0616535269155704
 50
66.363511954091109
 51
111.1508689418075
  0
ARC
  5
28A6
  8
0
 10
5.5458403683803059
 20
11.90801344135043
 30
0.0
 40
0.0386360448982892
 50
349.05235096500792
 51
71.064952739289211
  0
ARC
  5
28A9
  8
0
 10
5.563148195508405
 20
11.98471489656289
 30
0.0
 40
0.0371093700822737
 50
342.86014221405759
 51
58.310057203511072
  0
ARC
  5
28AA
  8
0
 10
5.5409035387807091
 20
11.95573126024056
 30
0.0
 40
0.0735504973016722
 50
55.424747449448461
 51
87.864733858149322
  0
ARC
  5
28AC
  8
0
 10
-1028.988832438886
 20
162.1822097253054
 30
0.0
 40
1045.4346407343951
 50
351.73646659383411
 51
351.73913107193619
  0
ARC
  5
28AD
  8
0
 10
5.3503473736209353
 20
11.98843905376239
 30
0.0
 40
0.2492317551967154
 50
341.23462684726661
 51
345.41497293537441
  0
ARC
  5
28AE
  8
0
 10
5.5323170521745446
 20
11.903384628352439
 30
0.0
 40
0.0114672015663258
 50
86.711002848656349
 51
199.53988556434439
  0
ARC
  5
28AF
  8
0
 10
5.5362595112344151
 20
11.90654549464783
 30
0.0
 40
0.0163244458271923
 50
205.3770487984234
 51
268.93254906766288
  0
ARC
  5
28B0
  8
0
 10
5.5382417676875804
 20
11.904209838181149
 30
0.0
 40
0.0141716072561939
 50
260.71564480917721
 51
328.8794021663378
  0
ARC
  5
28B1
  8
0
 10
5.5405940901002984
 20
11.901857142620081
 30
0.0
 40
0.0109709423913591
 50
333.05232831999058
 51
54.342608502987929
  0
ARC
  5
28B2
  8
0
 10
5.5352043516202674
 20
11.89631662985531
 30
0.0
 40
0.0186500409851058
 50
50.808975392492528
 51
96.865474111149354
  0
ARC
  5
28B8
  8
0
 10
5.5559137449237577
 20
11.602979517636269
 30
0.0
 40
0.0944761964497341
 50
84.557641112616196
 51
137.73640631591661
  0
ARC
  5
28B9
  8
0
 10
5.5248741983330163
 20
11.63480875706175
 30
0.0
 40
0.0501702357091034
 50
140.79858456057971
 51
215.13075163386711
  0
ARC
  5
28BA
  8
0
 10
5.5514001896290024
 20
11.652459080746491
 30
0.0
 40
0.0820252463623561
 50
214.55163019153929
 51
241.64349224371929
  0
ARC
  5
28BB
  8
0
 10
5.5621750109255528
 20
11.58684155276427
 30
0.0
 40
0.050164725064276
 50
187.52032861691649
 51
273.2499404236396
  0
ARC
  5
28BC
  8
0
 10
5.566640351880344
 20
11.58252261716826
 30
0.0
 40
0.0457938246180972
 50
267.97091300464922
 51
348.26872888658158
  0
ARC
  5
28BD
  8
0
 10
5.5969992183607529
 20
11.62956389978333
 30
0.0
 40
0.0581823909546348
 50
284.40919513093212
 51
7.3663505048838891
  0
ARC
  5
28BE
  8
0
 10
5.5879857454811939
 20
11.620254503379041
 30
0.0
 40
0.0687976087210204
 50
14.2148693871686
 51
59.792915828280499
  0
ARC
  5
28BF
  8
0
 10
5.5612227182667322
 20
11.580001375031239
 30
0.0
 40
0.1170854061774027
 50
58.385142412588877
 51
88.212820489968991
  0
ARC
  5
28C0
  8
0
 10
5.561382351068155
 20
11.635416811524649
 30
0.0
 40
0.0592279158490628
 50
82.814563000438824
 51
143.11637292318261
  0
ARC
  5
28C1
  8
0
 10
5.5382958495757206
 20
11.655649577276661
 30
0.0
 40
0.0287129446037934
 50
147.76488521882061
 51
178.003971312494
  0
LINE
  5
28C2
  8
0
 10
5.509600326749224
 20
11.656649655547151
 30
0.0
 11
5.5097397591905306
 21
11.598196946674999
 31
0.0
  0
ARC
  5
28C3
  8
0
 10
5.7209021924727139
 20
11.620872603171319
 30
0.0
 40
0.2123766009311813
 50
186.1292081748023
 51
191.02010224705529
  0
ARC
  5
28C4
  8
0
 10
5.5474165968985369
 20
11.578194690764681
 30
0.0
 40
0.0341061696655978
 50
108.5625145513095
 51
185.74480257730769
  0
ARC
  5
28C5
  8
0
 10
5.5588054085592491
 20
11.55302640661635
 30
0.0
 40
0.0616535269155704
 50
66.363511954091109
 51
111.1508689418075
  0
ARC
  5
28C6
  8
0
 10
5.5709870680803073
 20
11.572962336050431
 30
0.0
 40
0.0386360448982892
 50
349.05235096500792
 51
71.064952739289225
  0
ARC
  5
28C9
  8
0
 10
5.5882948952084046
 20
11.64966379126289
 30
0.0
 40
0.0371093700822737
 50
342.86014221405759
 51
58.310057203511072
  0
ARC
  5
28CA
  8
0
 10
5.5660502384807087
 20
11.62068015494056
 30
0.0
 40
0.0735504973016722
 50
55.424747449448461
 51
87.864733858149322
  0
ARC
  5
28CC
  8
0
 10
-1028.9636857391861
 20
161.84715862000539
 30
0.0
 40
1045.4346407343951
 50
351.73646659383411
 51
351.73913107193619
  0
ARC
  5
28CD
  8
0
 10
5.3754940733209349
 20
11.65338794846239
 30
0.0
 40
0.2492317551967154
 50
341.23462684726661
 51
345.41497293537441
  0
ARC
  5
28CE
  8
0
 10
5.5574637518745451
 20
11.56833352305244
 30
0.0
 40
0.0114672015663258
 50
86.711002848656349
 51
199.53988556434439
  0
ARC
  5
28CF
  8
0
 10
5.5614062109344156
 20
11.57149438934783
 30
0.0
 40
0.0163244458271923
 50
205.3770487984234
 51
268.93254906766288
  0
ARC
  5
28D0
  8
0
 10
5.56338846738758
 20
11.569158732881149
 30
0.0
 40
0.0141716072561939
 50
260.71564480917721
 51
328.8794021663378
  0
ARC
  5
28D1
  8
0
 10
5.565740789800298
 20
11.566806037320079
 30
0.0
 40
0.0109709423913591
 50
333.05232831999058
 51
54.342608502987929
  0
ARC
  5
28D2
  8
0
 10
5.560351051320267
 20
11.56126552455531
 30
0.0
 40
0.0186500409851058
 50
50.808975392492528
 51
96.865474111149354
  0
ARC
  5
2918
  8
0
 10
5.2731192823737567
 20
12.730311223536271
 30
0.0
 40
0.0944761964497341
 50
84.557641112616196
 51
137.73640631591661
  0
ARC
  5
2919
  8
0
 10
5.2420797357830153
 20
12.762140462961749
 30
0.0
 40
0.0501702357091034
 50
140.79858456057971
 51
215.13075163386719
  0
ARC
  5
291A
  8
0
 10
5.2686057270790014
 20
12.77979078664649
 30
0.0
 40
0.0820252463623561
 50
214.55163019153929
 51
241.64349224371929
  0
ARC
  5
291B
  8
0
 10
5.2793805483755518
 20
12.71417325866428
 30
0.0
 40
0.050164725064276
 50
187.52032861691649
 51
273.2499404236396
  0
ARC
  5
291C
  8
0
 10
5.283845889330343
 20
12.70985432306826
 30
0.0
 40
0.0457938246180972
 50
267.97091300464922
 51
348.26872888658158
  0
ARC
  5
291D
  8
0
 10
5.3142047558107519
 20
12.756895605683329
 30
0.0
 40
0.0581823909546348
 50
284.40919513093212
 51
7.366350504883882
  0
ARC
  5
291E
  8
0
 10
5.3051912829311929
 20
12.747586209279049
 30
0.0
 40
0.0687976087210204
 50
14.2148693871686
 51
59.792915828280499
  0
ARC
  5
291F
  8
0
 10
5.2784282557167312
 20
12.707333080931241
 30
0.0
 40
0.1170854061774027
 50
58.385142412588877
 51
88.212820489968991
  0
ARC
  5
2920
  8
0
 10
5.2785878885181541
 20
12.76274851742466
 30
0.0
 40
0.0592279158490628
 50
82.814563000438824
 51
143.11637292318261
  0
ARC
  5
2921
  8
0
 10
5.2555013870257197
 20
12.78298128317666
 30
0.0
 40
0.0287129446037934
 50
147.76488521882061
 51
178.003971312494
  0
LINE
  5
2922
  8
0
 10
5.226805864199223
 20
12.78398136144715
 30
0.0
 11
5.2269452966405296
 21
12.725528652575001
 31
0.0
  0
ARC
  5
2923
  8
0
 10
5.438107729922713
 20
12.74820430907133
 30
0.0
 40
0.2123766009311813
 50
186.1292081748023
 51
191.02010224705529
  0
ARC
  5
2924
  8
0
 10
5.264622134348536
 20
12.705526396664681
 30
0.0
 40
0.0341061696655978
 50
108.5625145513095
 51
185.74480257730769
  0
ARC
  5
2925
  8
0
 10
5.276010946009249
 20
12.68035811251635
 30
0.0
 40
0.0616535269155704
 50
66.363511954091109
 51
111.1508689418075
  0
ARC
  5
2926
  8
0
 10
5.2881926055303063
 20
12.70029404195043
 30
0.0
 40
0.0386360448982892
 50
349.05235096500792
 51
71.064952739289211
  0
ARC
  5
2929
  8
0
 10
5.3055004326584037
 20
12.77699549716289
 30
0.0
 40
0.0371093700822737
 50
342.86014221405759
 51
58.310057203511072
  0
ARC
  5
292A
  8
0
 10
5.2832557759307077
 20
12.74801186084056
 30
0.0
 40
0.0735504973016722
 50
55.424747449448461
 51
87.864733858149322
  0
ARC
  5
292C
  8
0
 10
-1029.2464802017359
 20
162.97449032590541
 30
0.0
 40
1045.4346407343951
 50
351.73646659383411
 51
351.73913107193619
  0
ARC
  5
292D
  8
0
 10
5.0926996107709339
 20
12.7807196543624
 30
0.0
 40
0.2492317551967154
 50
341.23462684726661
 51
345.41497293537441
  0
ARC
  5
292E
  8
0
 10
5.274669289324545
 20
12.69566522895245
 30
0.0
 40
0.0114672015663258
 50
86.711002848656349
 51
199.53988556434439
  0
ARC
  5
292F
  8
0
 10
5.2786117483844146
 20
12.69882609524783
 30
0.0
 40
0.0163244458271923
 50
205.3770487984234
 51
268.93254906766288
  0
ARC
  5
2930
  8
0
 10
5.280594004837579
 20
12.696490438781151
 30
0.0
 40
0.0141716072561939
 50
260.71564480917721
 51
328.87940216633791
  0
ARC
  5
2931
  8
0
 10
5.282946327250297
 20
12.694137743220081
 30
0.0
 40
0.0109709423913591
 50
333.05232831999058
 51
54.342608502987929
  0
ARC
  5
2932
  8
0
 10
5.277556588770266
 20
12.68859723045532
 30
0.0
 40
0.0186500409851058
 50
50.808975392492528
 51
96.865474111149354
  0
ARC
  5
2958
  8
0
 10
5.272032513423758
 20
12.22159761173627
 30
0.0
 40
0.0944761964497341
 50
84.557641112616196
 51
137.73640631591661
  0
ARC
  5
2959
  8
0
 10
5.2409929668330149
 20
12.25342685116175
 30
0.0
 40
0.0501702357091034
 50
140.79858456057971
 51
215.13075163386719
  0
ARC
  5
295A
  8
0
 10
5.2675189581290009
 20
12.271077174846489
 30
0.0
 40
0.0820252463623561
 50
214.55163019153929
 51
241.64349224371929
  0
ARC
  5
295B
  8
0
 10
5.2782937794255531
 20
12.205459646864281
 30
0.0
 40
0.050164725064276
 50
187.52032861691649
 51
273.2499404236396
  0
ARC
  5
295C
  8
0
 10
5.2827591203803426
 20
12.201140711268261
 30
0.0
 40
0.0457938246180972
 50
267.97091300464922
 51
348.26872888658158
  0
ARC
  5
295D
  8
0
 10
5.3131179868607532
 20
12.24818199388333
 30
0.0
 40
0.0581823909546348
 50
284.40919513093212
 51
7.3663505048838891
  0
ARC
  5
295E
  8
0
 10
5.3041045139811942
 20
12.238872597479039
 30
0.0
 40
0.0687976087210204
 50
14.2148693871686
 51
59.792915828280499
  0
ARC
  5
295F
  8
0
 10
5.2773414867667308
 20
12.19861946913124
 30
0.0
 40
0.1170854061774027
 50
58.385142412588877
 51
88.212820489968991
  0
ARC
  5
2960
  8
0
 10
5.2775011195681536
 20
12.25403490562466
 30
0.0
 40
0.0592279158490628
 50
82.814563000438824
 51
143.11637292318261
  0
ARC
  5
2961
  8
0
 10
5.2544146180757201
 20
12.274267671376659
 30
0.0
 40
0.0287129446037934
 50
147.76488521882061
 51
178.003971312494
  0
LINE
  5
2962
  8
0
 10
5.2257190952492243
 20
12.275267749647149
 30
0.0
 11
5.2258585276905301
 21
12.216815040775
 31
0.0
  0
ARC
  5
2963
  8
0
 10
5.4370209609727143
 20
12.23949069727132
 30
0.0
 40
0.2123766009311813
 50
186.1292081748023
 51
191.02010224705529
  0
ARC
  5
2964
  8
0
 10
5.2635353653985373
 20
12.196812784864679
 30
0.0
 40
0.0341061696655978
 50
108.5625145513095
 51
185.74480257730769
  0
ARC
  5
2965
  8
0
 10
5.2749241770592494
 20
12.171644500716351
 30
0.0
 40
0.0616535269155704
 50
66.363511954091109
 51
111.1508689418075
  0
ARC
  5
2966
  8
0
 10
5.2871058365803059
 20
12.191580430150429
 30
0.0
 40
0.0386360448982892
 50
349.05235096500792
 51
71.064952739289211
  0
ARC
  5
2969
  8
0
 10
5.3044136637084041
 20
12.268281885362891
 30
0.0
 40
0.0371093700822737
 50
342.86014221405759
 51
58.310057203511072
  0
ARC
  5
296A
  8
0
 10
5.282169006980709
 20
12.23929824904056
 30
0.0
 40
0.0735504973016722
 50
55.424747449448461
 51
87.864733858149322
  0
ARC
  5
296C
  8
0
 10
-1029.247566970686
 20
162.4657767141054
 30
0.0
 40
1045.4346407343951
 50
351.73646659383411
 51
351.73913107193619
  0
ARC
  5
296D
  8
0
 10
5.0916128418209352
 20
12.272006042562399
 30
0.0
 40
0.2492317551967154
 50
341.23462684726661
 51
345.41497293537441
  0
ARC
  5
296E
  8
0
 10
5.2735825203745446
 20
12.186951617152451
 30
0.0
 40
0.0114672015663258
 50
86.711002848656349
 51
199.53988556434439
  0
ARC
  5
296F
  8
0
 10
5.277524979434415
 20
12.19011248344783
 30
0.0
 40
0.0163244458271923
 50
205.3770487984234
 51
268.93254906766288
  0
ARC
  5
2970
  8
0
 10
5.2795072358875803
 20
12.18777682698115
 30
0.0
 40
0.0141716072561939
 50
260.71564480917721
 51
328.87940216633791
  0
ARC
  5
2971
  8
0
 10
5.2818595583002983
 20
12.18542413142008
 30
0.0
 40
0.0109709423913591
 50
333.05232831999058
 51
54.342608502987929
  0
ARC
  5
2972
  8
0
 10
5.2764698198202673
 20
12.17988361865531
 30
0.0
 40
0.0186500409851058
 50
50.808975392492528
 51
96.865474111149354
  0
POLYLINE
  5
2978
  8
0
 66
     1
 10
0.0
 20
0.0
 30
0.0
  0
VERTEX
  5
33CB
  8
0
 10
8.4547932199021982
 20
12.50947406647021
 30
0.0
  0
VERTEX
  5
33CC
  8
0
 10
8.4762130709000019
 20
13.5374835998
 30
0.0
  0
SEQEND
  5
33CD
  8
0
  0
ARC
  5
2979
  8
0
 10
7.2743331309814527
 20
13.45362424241109
 30
0.0
 40
1.204999313750593
 50
4.1607446697219101
 51
51.656166949754372
  0
ARC
  5
297A
  8
0
 10
6.0065916054827637
 20
11.78497856686074
 30
0.0
 40
3.3004553907784859
 50
52.366223445739891
 51
85.698710257953934
  0
ARC
  5
297B
  8
0
 10
6.0849352095698563
 20
15.25942220302171
 30
0.0
 40
0.2755035513794428
 50
3.413867227073363
 51
56.198522592821483
  0
ARC
  5
297C
  8
0
 10
5.8152133790045388
 20
14.894459386305289
 30
0.0
 40
0.7291328416842168
 50
54.540572262259403
 51
80.812355800851364
  0
ARC
  5
297D
  8
0
 10
5.687939627824659
 20
18.523783660427469
 30
0.0
 40
2.9197332803749552
 50
271.0433986433207
 51
274.7877153074495
  0
ARC
  5
297E
  8
0
 10
5.7657984307051082
 20
14.78674488618609
 30
0.0
 40
0.6948070208410591
 50
56.867493123016239
 51
92.036592421727221
  0
ARC
  5
297F
  8
0
 10
6.0167755651024626
 20
15.16255310744163
 30
0.0
 40
0.2429702352185203
 50
15.29134666967501
 51
57.990572557997353
  0
ARC
  5
2980
  8
0
 10
6.0805344134578592
 20
15.185450347681501
 30
0.0
 40
0.1755091838793696
 50
332.30118101489228
 51
13.570136685203661
  0
LINE
  5
2981
  8
0
 10
6.2361068828635471
 20
15.266575937825531
 30
0.0
 11
6.2359027801247082
 21
15.07796990039942
 31
0.0
  0
ARC
  5
2982
  8
0
 10
5.7618532880780551
 20
10.824743739366211
 30
0.0
 40
4.2798001756025537
 50
83.395036353094923
 51
90.347146266245858
  0
LINE
  5
2983
  8
0
 10
5.9339802153181749
 20
15.4604576825969
 30
0.0
 11
5.9339798692000008
 21
15.331053175499999
 31
0.0
  0
ARC
  5
2984
  8
0
 10
5.8471494137578484
 20
15.340045054776249
 30
0.0
 40
0.0873041336333487
 50
298.4863127233312
 51
354.08834090530559
  0
ARC
  5
2985
  8
0
 10
5.7616344122527519
 20
15.48113173262486
 30
0.0
 40
0.2522187120004075
 50
275.35221840330678
 51
300.27455975045928
  0
ARC
  5
2986
  8
0
 10
5.7414463447254658
 20
15.599536114851681
 30
0.0
 40
0.3721001713077248
 50
269.94777833590859
 51
276.74672081288969
  0
LINE
  5
2987
  8
0
 10
5.9316327866000034
 20
15.6142379789
 30
0.0
 11
5.9316327865999998
 21
15.888653913800001
 31
0.0
  0
ARC
  5
2988
  8
0
 10
5.7422536712092143
 20
14.85520525953428
 30
0.0
 40
1.050657208774499
 50
79.615780439441068
 51
90.094077578477524
  0
ARC
  5
2989
  8
0
 10
5.9225399310698741
 20
15.889299209617519
 30
0.0
 40
0.0091157242380591
 50
304.6550786839623
 51
355.9406762486239
  0
ARC
  5
298A
  8
0
 10
5.761985081926114
 20
18.3048107383798
 30
0.0
 40
2.4408254669061229
 50
269.49698111409748
 51
272.18597165022442
  0
ARC
  5
298B
  8
0
 10
5.8574922384060431
 20
16.027361996465221
 30
0.0
 40
0.1616184163469904
 50
269.14687245860432
 51
295.75663462842323
  0
ARC
  5
298C
  8
0
 10
7.1408112221653219
 20
12.63525806974835
 30
0.0
 40
1.3199888999725271
 50
299.41680844637699
 51
354.53180365020961
  0
ARC
  5
298D
  8
0
 10
5.916037763684356
 20
14.44158535356312
 30
0.0
 40
3.4995999834730012
 50
267.25588301292947
 51
302.35965425801447
  0
ARC
  5
298E
  8
0
 10
7.2386049621598332
 20
12.436742595977311
 30
0.0
 40
1.2189659003523829
 50
3.762004934761269
 51
56.405570898171852
  0
ARC
  5
298F
  8
0
 10
5.8560605189841732
 20
10.380233542615221
 30
0.0
 40
3.6969885809501051
 50
56.192677434889369
 51
91.753576986070655
  0
ARC
  5
2990
  8
0
 10
5.7527140672948471
 20
12.12366114300219
 30
0.0
 40
0.6186750547336369
 50
58.432521681382347
 51
92.262728101449525
  0
ARC
  5
2991
  8
0
 10
5.9752338762750892
 20
12.47765915297146
 30
0.0
 40
0.2006160503442113
 50
7.0792164361305154
 51
59.653105478622997
  0
ARC
  5
2992
  8
0
 10
5.989651012935
 20
12.50173162570862
 30
0.0
 40
0.1846707090586298
 50
305.96571407281363
 51
0.2022124310907412
  0
ARC
  5
2993
  8
0
 10
5.7541646352855507
 20
12.847405765075781
 30
0.0
 40
0.6028778256414208
 50
268.75896154671358
 51
304.7853166805956
  0
ARC
  5
2994
  8
0
 10
5.7754362622952247
 20
10.11930708488973
 30
0.0
 40
3.8546243027335652
 50
75.796705541692845
 51
90.510184354971386
  0
ARC
  5
2995
  8
0
 10
6.2503833884872648
 20
11.88746964502141
 30
0.0
 40
2.024152373216729
 50
41.710223775355061
 51
76.549291550712866
  0
ARC
  5
2996
  8
0
 10
7.1689397010982931
 20
12.72272987938009
 30
0.0
 40
0.7827781224681444
 50
326.01262620597601
 51
40.805189434190432
  0
ARC
  5
2997
  8
0
 10
6.2004917666929691
 20
13.570861735187149
 30
0.0
 40
2.0662413932707548
 50
277.42741225177701
 51
321.51958077399422
  0
ARC
  5
2998
  8
0
 10
5.7437649390633121
 20
15.206669694466919
 30
0.0
 40
3.7551345207812341
 50
269.99647722146591
 51
281.1137460488693
  0
ARC
  5
2999
  8
0
 10
6.2644032731254669
 20
13.57806359718912
 30
0.0
 40
0.0944761964497341
 50
42.263593684083382
 51
95.442358887383818
  0
ARC
  5
299A
  8
0
 10
6.29544281971621
 20
13.6098928366146
 30
0.0
 40
0.0501702357091034
 50
324.86924836613292
 51
39.201415439420259
  0
ARC
  5
299B
  8
0
 10
6.268916828420223
 20
13.627543160299339
 30
0.0
 40
0.0820252463623561
 50
298.35650775628068
 51
325.44836980846071
  0
ARC
  5
299C
  8
0
 10
6.2581420071236717
 20
13.56192563231712
 30
0.0
 40
0.050164725064276
 50
266.7500595763604
 51
352.47967138308343
  0
ARC
  5
299D
  8
0
 10
6.2536766661688823
 20
13.5576066967211
 30
0.0
 40
0.0457938246180972
 50
191.7312711134183
 51
272.02908699535078
  0
ARC
  5
299E
  8
0
 10
6.2233177996884717
 20
13.604647979336169
 30
0.0
 40
0.0581823909546348
 50
172.63364949511609
 51
255.59080486906799
  0
ARC
  5
299F
  8
0
 10
6.2323312725680307
 20
13.595338582931889
 30
0.0
 40
0.0687976087210204
 50
120.2070841717195
 51
165.78513061283141
  0
ARC
  5
29A0
  8
0
 10
6.2590942997824941
 20
13.555085454584081
 30
0.0
 40
0.1170854061774027
 50
91.787179510030995
 51
121.61485758741109
  0
ARC
  5
29A1
  8
0
 10
6.2589346669810713
 20
13.6105008910775
 30
0.0
 40
0.0592279158490628
 50
36.883627076817334
 51
97.185436999561162
  0
ARC
  5
29A2
  8
0
 10
6.2820211684735039
 20
13.6307336568295
 30
0.0
 40
0.0287129446037934
 50
1.996028687505931
 51
32.235114781179391
  0
LINE
  5
29A3
  8
0
 10
6.3107166913000006
 20
13.631733735099999
 30
0.0
 11
6.3105772588586939
 21
13.573281026227839
 31
0.0
  0
ARC
  5
29A4
  8
0
 10
6.0994148255765106
 20
13.59595668272417
 30
0.0
 40
0.2123766009311813
 50
348.97989775294479
 51
353.87079182519773
  0
ARC
  5
29A5
  8
0
 10
6.2729004211506876
 20
13.553278770317521
 30
0.0
 40
0.0341061696655978
 50
354.25519742269228
 51
71.437485448690396
  0
ARC
  5
29A6
  8
0
 10
6.2615116094899763
 20
13.528110486169201
 30
0.0
 40
0.0616535269155704
 50
68.849131058192512
 51
113.63648804590881
  0
ARC
  5
29A7
  8
0
 10
6.2493299499689181
 20
13.548046415603279
 30
0.0
 40
0.0386360448982892
 50
108.9350472607107
 51
190.94764903499211
  0
ARC
  5
29AA
  8
0
 10
6.2320221228408199
 20
13.62474787081573
 30
0.0
 40
0.0371093700822737
 50
121.68994279648889
 51
197.13985778594241
  0
ARC
  5
29AB
  8
0
 10
6.2542667795685158
 20
13.5957642344934
 30
0.0
 40
0.0735504973016722
 50
92.135266141850721
 51
124.5752525505515
  0
ARC
  5
29AD
  8
0
 10
1040.7840027572349
 20
163.82224269955819
 30
0.0
 40
1045.4346407343951
 50
188.26086892806379
 51
188.26353340616589
  0
ARC
  5
29AE
  8
0
 10
6.4448229447282896
 20
13.62847202801524
 30
0.0
 40
0.2492317551967154
 50
194.58502706462551
 51
198.76537315273339
  0
ARC
  5
29AF
  8
0
 10
6.2628532661746803
 20
13.54341760260529
 30
0.0
 40
0.0114672015663258
 50
340.46011443565561
 51
93.288997151343594
  0
ARC
  5
29B0
  8
0
 10
6.258910807114809
 20
13.54657846890068
 30
0.0
 40
0.0163244458271923
 50
271.06745093233701
 51
334.6229512015766
  0
ARC
  5
29B1
  8
0
 10
6.2569285506616454
 20
13.544242812433991
 30
0.0
 40
0.0141716072561939
 50
211.12059783366209
 51
279.28435519082279
  0
ARC
  5
29B2
  8
0
 10
6.2545762282489266
 20
13.54189011687293
 30
0.0
 40
0.0109709423913591
 50
125.657391497012
 51
206.94767168000939
  0
ARC
  5
29B3
  8
0
 10
6.2599659667289584
 20
13.53634960410816
 30
0.0
 40
0.0186500409851058
 50
83.134525888850604
 51
129.19102460750739
  0
ARC
  5
29B9
  8
0
 10
6.5841672598762431
 20
13.503973589436271
 30
0.0
 40
0.0944761964497341
 50
42.263593684083382
 51
95.442358887383818
  0
ARC
  5
29BA
  8
0
 10
6.6152068064669862
 20
13.535802828861749
 30
0.0
 40
0.0501702357091034
 50
324.86924836613292
 51
39.201415439420259
  0
ARC
  5
29BB
  8
0
 10
6.5886808151710001
 20
13.55345315254649
 30
0.0
 40
0.0820252463623561
 50
298.35650775628068
 51
325.44836980846071
  0
ARC
  5
29BC
  8
0
 10
6.577905993874448
 20
13.487835624564269
 30
0.0
 40
0.050164725064276
 50
266.7500595763604
 51
352.47967138308343
  0
ARC
  5
29BD
  8
0
 10
6.5734406529196576
 20
13.48351668896826
 30
0.0
 40
0.0457938246180972
 50
191.7312711134183
 51
272.02908699535078
  0
ARC
  5
29BE
  8
0
 10
6.5430817864392479
 20
13.530557971583329
 30
0.0
 40
0.0581823909546348
 50
172.63364949511609
 51
255.59080486906799
  0
ARC
  5
29BF
  8
0
 10
6.5520952593188069
 20
13.52124857517904
 30
0.0
 40
0.0687976087210204
 50
120.2070841717195
 51
165.78513061283141
  0
ARC
  5
29C0
  8
0
 10
6.5788582865332703
 20
13.480995446831241
 30
0.0
 40
0.1170854061774027
 50
91.787179510030995
 51
121.61485758741109
  0
ARC
  5
29C1
  8
0
 10
6.5786986537318466
 20
13.536410883324651
 30
0.0
 40
0.0592279158490628
 50
36.883627076817334
 51
97.185436999561162
  0
ARC
  5
29C2
  8
0
 10
6.6017851552242801
 20
13.55664364907666
 30
0.0
 40
0.0287129446037934
 50
1.996028687505931
 51
32.235114781179391
  0
LINE
  5
29C3
  8
0
 10
6.6304806780507768
 20
13.55764372734715
 30
0.0
 11
6.630341245609471
 21
13.499191018475001
 31
0.0
  0
ARC
  5
29C4
  8
0
 10
6.4191788123272868
 20
13.52186667497133
 30
0.0
 40
0.2123766009311813
 50
348.97989775294479
 51
353.87079182519773
  0
ARC
  5
29C5
  8
0
 10
6.5926644079014638
 20
13.47918876256468
 30
0.0
 40
0.0341061696655978
 50
354.25519742269228
 51
71.437485448690396
  0
ARC
  5
29C6
  8
0
 10
6.5812755962407516
 20
13.45402047841635
 30
0.0
 40
0.0616535269155704
 50
68.849131058192512
 51
113.63648804590881
  0
ARC
  5
29C7
  8
0
 10
6.5690939367196952
 20
13.47395640785043
 30
0.0
 40
0.0386360448982892
 50
108.9350472607107
 51
190.94764903499211
  0
ARC
  5
29CA
  8
0
 10
6.551786109591597
 20
13.55065786306289
 30
0.0
 40
0.0371093700822737
 50
121.68994279648889
 51
197.13985778594241
  0
ARC
  5
29CB
  8
0
 10
6.5740307663192921
 20
13.52167422674056
 30
0.0
 40
0.0735504973016722
 50
92.135266141850721
 51
124.5752525505515
  0
ARC
  5
29CD
  8
0
 10
1041.1037667439859
 20
163.74815269180539
 30
0.0
 40
1045.4346407343951
 50
188.26086892806379
 51
188.26353340616589
  0
ARC
  5
29CE
  8
0
 10
6.7645869314790659
 20
13.554382020262389
 30
0.0
 40
0.2492317551967154
 50
194.58502706462551
 51
198.76537315273339
  0
ARC
  5
29CF
  8
0
 10
6.5826172529254556
 20
13.469327594852439
 30
0.0
 40
0.0114672015663258
 50
340.46011443565561
 51
93.288997151343594
  0
ARC
  5
29D0
  8
0
 10
6.5786747938655861
 20
13.472488461147829
 30
0.0
 40
0.0163244458271923
 50
271.06745093233701
 51
334.6229512015766
  0
ARC
  5
29D1
  8
0
 10
6.5766925374124208
 20
13.470152804681151
 30
0.0
 40
0.0141716072561939
 50
211.12059783366209
 51
279.28435519082279
  0
ARC
  5
29D2
  8
0
 10
6.5743402149997028
 20
13.467800109120081
 30
0.0
 40
0.0109709423913591
 50
125.657391497012
 51
206.94767168000939
  0
ARC
  5
29D3
  8
0
 10
6.5797299534797338
 20
13.46225959635531
 30
0.0
 40
0.0186500409851058
 50
83.134525888850604
 51
129.19102460750739
  0
ARC
  5
29D9
  8
0
 10
6.872019686776242
 20
13.39352117643627
 30
0.0
 40
0.0944761964497341
 50
42.263593684083382
 51
95.442358887383818
  0
ARC
  5
29DA
  8
0
 10
6.9030592333669851
 20
13.42535041586175
 30
0.0
 40
0.0501702357091034
 50
324.86924836613292
 51
39.201415439420259
  0
ARC
  5
29DB
  8
0
 10
6.876533242070999
 20
13.443000739546489
 30
0.0
 40
0.0820252463623561
 50
298.35650775628068
 51
325.44836980846071
  0
ARC
  5
29DC
  8
0
 10
6.8657584207744469
 20
13.37738321156427
 30
0.0
 40
0.050164725064276
 50
266.7500595763604
 51
352.47967138308343
  0
ARC
  5
29DD
  8
0
 10
6.8612930798196574
 20
13.373064275968259
 30
0.0
 40
0.0457938246180972
 50
191.7312711134183
 51
272.02908699535078
  0
ARC
  5
29DE
  8
0
 10
6.8309342133392468
 20
13.42010555858333
 30
0.0
 40
0.0581823909546348
 50
172.63364949511609
 51
255.59080486906799
  0
ARC
  5
29DF
  8
0
 10
6.8399476862188058
 20
13.410796162179039
 30
0.0
 40
0.0687976087210204
 50
120.2070841717195
 51
165.78513061283141
  0
ARC
  5
29E0
  8
0
 10
6.8667107134332692
 20
13.37054303383124
 30
0.0
 40
0.1170854061774027
 50
91.787179510030995
 51
121.61485758741109
  0
ARC
  5
29E1
  8
0
 10
6.8665510806318464
 20
13.42595847032465
 30
0.0
 40
0.0592279158490628
 50
36.883627076817334
 51
97.185436999561162
  0
ARC
  5
29E2
  8
0
 10
6.889637582124279
 20
13.446191236076659
 30
0.0
 40
0.0287129446037934
 50
1.996028687505931
 51
32.235114781179391
  0
LINE
  5
29E3
  8
0
 10
6.9183331049507757
 20
13.447191314347149
 30
0.0
 11
6.918193672509469
 21
13.388738605474989
 31
0.0
  0
ARC
  5
29E4
  8
0
 10
6.7070312392272857
 20
13.41141426197132
 30
0.0
 40
0.2123766009311813
 50
348.97989775294479
 51
353.87079182519773
  0
ARC
  5
29E5
  8
0
 10
6.8805168348014627
 20
13.36873634956468
 30
0.0
 40
0.0341061696655978
 50
354.25519742269228
 51
71.437485448690396
  0
ARC
  5
29E6
  8
0
 10
6.8691280231407514
 20
13.343568065416351
 30
0.0
 40
0.0616535269155704
 50
68.849131058192512
 51
113.63648804590881
  0
ARC
  5
29E7
  8
0
 10
6.8569463636196941
 20
13.363503994850429
 30
0.0
 40
0.0386360448982892
 50
108.9350472607107
 51
190.94764903499211
  0
ARC
  5
29EA
  8
0
 10
6.839638536491595
 20
13.440205450062891
 30
0.0
 40
0.0371093700822737
 50
121.68994279648889
 51
197.13985778594241
  0
ARC
  5
29EB
  8
0
 10
6.861883193219291
 20
13.411221813740561
 30
0.0
 40
0.0735504973016722
 50
92.135266141850721
 51
124.5752525505515
  0
ARC
  5
29ED
  8
0
 10
1041.3916191708861
 20
163.6377002788054
 30
0.0
 40
1045.4346407343951
 50
188.26086892806379
 51
188.26353340616589
  0
ARC
  5
29EE
  8
0
 10
7.0524393583790648
 20
13.44392960726239
 30
0.0
 40
0.2492317551967154
 50
194.58502706462551
 51
198.76537315273339
  0
ARC
  5
29EF
  8
0
 10
6.8704696798254554
 20
13.35887518185244
 30
0.0
 40
0.0114672015663258
 50
340.46011443565561
 51
93.288997151343594
  0
ARC
  5
29F0
  8
0
 10
6.8665272207655841
 20
13.36203604814783
 30
0.0
 40
0.0163244458271923
 50
271.06745093233701
 51
334.6229512015766
  0
ARC
  5
29F1
  8
0
 10
6.8645449643124197
 20
13.359700391681139
 30
0.0
 40
0.0141716072561939
 50
211.12059783366209
 51
279.28435519082279
  0
ARC
  5
29F2
  8
0
 10
6.8621926418997017
 20
13.35734769612008
 30
0.0
 40
0.0109709423913591
 50
125.657391497012
 51
206.94767168000939
  0
ARC
  5
29F3
  8
0
 10
6.8675823803797327
 20
13.35180718335531
 30
0.0
 40
0.0186500409851058
 50
83.134525888850604
 51
129.19102460750739
  0
ARC
  5
29F9
  8
0
 10
7.1168750815088302
 20
13.25266573247896
 30
0.0
 40
0.0944761964497341
 50
42.263593684083382
 51
95.442358887383818
  0
ARC
  5
29FA
  8
0
 10
7.1479146280995716
 20
13.284494971904451
 30
0.0
 40
0.0501702357091034
 50
324.86924836613292
 51
39.201415439420259
  0
ARC
  5
29FB
  8
0
 10
7.1213886368035864
 20
13.30214529558919
 30
0.0
 40
0.0820252463623561
 50
298.35650775628068
 51
325.44836980846071
  0
ARC
  5
29FC
  8
0
 10
7.1106138155070351
 20
13.236527767606971
 30
0.0
 40
0.050164725064276
 50
266.7500595763604
 51
352.47967138308343
  0
ARC
  5
29FD
  8
0
 10
7.1061484745522439
 20
13.232208832010951
 30
0.0
 40
0.0457938246180972
 50
191.7312711134183
 51
272.02908699535078
  0
ARC
  5
29FE
  8
0
 10
7.0757896080718341
 20
13.27925011462602
 30
0.0
 40
0.0581823909546348
 50
172.63364949511609
 51
255.59080486906799
  0
ARC
  5
29FF
  8
0
 10
7.0848030809513931
 20
13.26994071822174
 30
0.0
 40
0.0687976087210204
 50
120.2070841717195
 51
165.78513061283141
  0
ARC
  5
2A00
  8
0
 10
7.1115661081658557
 20
13.229687589873929
 30
0.0
 40
0.1170854061774027
 50
91.787179510030995
 51
121.61485758741109
  0
ARC
  5
2A01
  8
0
 10
7.1114064753644328
 20
13.28510302636735
 30
0.0
 40
0.0592279158490628
 50
36.883627076817334
 51
97.185436999561162
  0
ARC
  5
2A02
  8
0
 10
7.1344929768568672
 20
13.305335792119349
 30
0.0
 40
0.0287129446037934
 50
1.996028687505931
 51
32.235114781179391
  0
LINE
  5
2A03
  8
0
 10
7.163188499683363
 20
13.30633587038985
 30
0.0
 11
7.1630490672420573
 21
13.24788316151769
 31
0.0
  0
ARC
  5
2A04
  8
0
 10
6.9518866339598731
 20
13.27055881801402
 30
0.0
 40
0.2123766009311813
 50
348.97989775294479
 51
353.87079182519773
  0
ARC
  5
2A05
  8
0
 10
7.12537222953405
 20
13.227880905607369
 30
0.0
 40
0.0341061696655978
 50
354.25519742269228
 51
71.437485448690396
  0
ARC
  5
2A06
  8
0
 10
7.1139834178733379
 20
13.202712621459041
 30
0.0
 40
0.0616535269155704
 50
68.849131058192512
 51
113.63648804590881
  0
ARC
  5
2A07
  8
0
 10
7.1018017583522806
 20
13.22264855089313
 30
0.0
 40
0.0386360448982892
 50
108.9350472607107
 51
190.94764903499211
  0
ARC
  5
2A0A
  8
0
 10
7.0844939312241832
 20
13.29935000610558
 30
0.0
 40
0.0371093700822737
 50
121.68994279648889
 51
197.13985778594241
  0
ARC
  5
2A0B
  8
0
 10
7.1067385879518792
 20
13.27036636978325
 30
0.0
 40
0.0735504973016722
 50
92.135266141850721
 51
124.5752525505515
  0
ARC
  5
2A0D
  8
0
 10
1041.6364745656181
 20
163.4968448348481
 30
0.0
 40
1045.4346407343951
 50
188.26086892806379
 51
188.26353340616589
  0
ARC
  5
2A0E
  8
0
 10
7.2972947531116521
 20
13.303074163305091
 30
0.0
 40
0.2492317551967154
 50
194.58502706462551
 51
198.76537315273339
  0
ARC
  5
2A0F
  8
0
 10
7.1153250745580419
 20
13.218019737895141
 30
0.0
 40
0.0114672015663258
 50
340.46011443565561
 51
93.288997151343594
  0
ARC
  5
2A10
  8
0
 10
7.1113826154981723
 20
13.221180604190531
 30
0.0
 40
0.0163244458271923
 50
271.06745093233701
 51
334.6229512015766
  0
ARC
  5
2A11
  8
0
 10
7.109400359045007
 20
13.21884494772384
 30
0.0
 40
0.0141716072561939
 50
211.12059783366209
 51
279.28435519082279
  0
ARC
  5
2A12
  8
0
 10
7.107048036632289
 20
13.21649225216278
 30
0.0
 40
0.0109709423913591
 50
125.657391497012
 51
206.94767168000939
  0
ARC
  5
2A13
  8
0
 10
7.11243777511232
 20
13.210951739398009
 30
0.0
 40
0.0186500409851058
 50
83.134525888850604
 51
129.19102460750739
  0
ARC
  5
2A19
  8
0
 10
7.3091955533873101
 20
13.088211152483311
 30
0.0
 40
0.0944761964497341
 50
42.263593684083382
 51
95.442358887383818
  0
ARC
  5
2A1A
  8
0
 10
7.3402350999780532
 20
13.120040391908789
 30
0.0
 40
0.0501702357091034
 50
324.86924836613292
 51
39.201415439420259
  0
ARC
  5
2A1B
  8
0
 10
7.3137091086820671
 20
13.13769071559353
 30
0.0
 40
0.0820252463623561
 50
298.35650775628068
 51
325.44836980846071
  0
ARC
  5
2A1C
  8
0
 10
7.302934287385515
 20
13.072073187611309
 30
0.0
 40
0.050164725064276
 50
266.7500595763604
 51
352.47967138308343
  0
ARC
  5
2A1D
  8
0
 10
7.2984689464307246
 20
13.067754252015289
 30
0.0
 40
0.0457938246180972
 50
191.7312711134183
 51
272.02908699535078
  0
ARC
  5
2A1E
  8
0
 10
7.2681100799503149
 20
13.11479553463036
 30
0.0
 40
0.0581823909546348
 50
172.63364949511609
 51
255.59080486906799
  0
ARC
  5
2A1F
  8
0
 10
7.2771235528298739
 20
13.10548613822608
 30
0.0
 40
0.0687976087210204
 50
120.2070841717195
 51
165.78513061283141
  0
ARC
  5
2A20
  8
0
 10
7.3038865800443373
 20
13.06523300987827
 30
0.0
 40
0.1170854061774027
 50
91.787179510030995
 51
121.61485758741109
  0
ARC
  5
2A21
  8
0
 10
7.3037269472429136
 20
13.120648446371691
 30
0.0
 40
0.0592279158490628
 50
36.883627076817334
 51
97.185436999561162
  0
ARC
  5
2A22
  8
0
 10
7.326813448735348
 20
13.14088121212369
 30
0.0
 40
0.0287129446037934
 50
1.996028687505931
 51
32.235114781179391
  0
LINE
  5
2A23
  8
0
 10
7.3555089715618438
 20
13.14188129039419
 30
0.0
 11
7.355369539120538
 21
13.08342858152203
 31
0.0
  0
ARC
  5
2A24
  8
0
 10
7.1442071058383538
 20
13.106104238018361
 30
0.0
 40
0.2123766009311813
 50
348.97989775294479
 51
353.87079182519773
  0
ARC
  5
2A25
  8
0
 10
7.3176927014125308
 20
13.06342632561171
 30
0.0
 40
0.0341061696655978
 50
354.25519742269228
 51
71.437485448690396
  0
ARC
  5
2A26
  8
0
 10
7.3063038897518187
 20
13.038258041463379
 30
0.0
 40
0.0616535269155704
 50
68.849131058192512
 51
113.63648804590881
  0
ARC
  5
2A27
  8
0
 10
7.2941222302307622
 20
13.058193970897459
 30
0.0
 40
0.0386360448982892
 50
108.9350472607107
 51
190.94764903499211
  0
ARC
  5
2A2A
  8
0
 10
7.276814403102664
 20
13.134895426109919
 30
0.0
 40
0.0371093700822737
 50
121.68994279648889
 51
197.13985778594241
  0
ARC
  5
2A2B
  8
0
 10
7.2990590598303591
 20
13.105911789787591
 30
0.0
 40
0.0735504973016722
 50
92.135266141850721
 51
124.5752525505515
  0
ARC
  5
2A2D
  8
0
 10
1041.828795037497
 20
163.33239025485241
 30
0.0
 40
1045.4346407343951
 50
188.26086892806379
 51
188.26353340616589
  0
ARC
  5
2A2E
  8
0
 10
7.4896152249901329
 20
13.138619583309429
 30
0.0
 40
0.2492317551967154
 50
194.58502706462551
 51
198.76537315273339
  0
ARC
  5
2A2F
  8
0
 10
7.3076455464365226
 20
13.053565157899479
 30
0.0
 40
0.0114672015663258
 50
340.46011443565561
 51
93.288997151343594
  0
ARC
  5
2A30
  8
0
 10
7.3037030873766531
 20
13.056726024194869
 30
0.0
 40
0.0163244458271923
 50
271.06745093233701
 51
334.6229512015766
  0
ARC
  5
2A31
  8
0
 10
7.3017208309234878
 20
13.05439036772818
 30
0.0
 40
0.0141716072561939
 50
211.12059783366209
 51
279.28435519082279
  0
ARC
  5
2A32
  8
0
 10
7.2993685085107698
 20
13.052037672167121
 30
0.0
 40
0.0109709423913591
 50
125.657391497012
 51
206.94767168000939
  0
ARC
  5
2A33
  8
0
 10
7.3047582469908008
 20
13.04649715940235
 30
0.0
 40
0.0186500409851058
 50
83.134525888850604
 51
129.19102460750739
  0
ARC
  5
2A39
  8
0
 10
7.441729101476243
 20
12.90414768583627
 30
0.0
 40
0.0944761964497341
 50
42.263593684083382
 51
95.442358887383818
  0
ARC
  5
2A3A
  8
0
 10
7.4727686480669853
 20
12.93597692526175
 30
0.0
 40
0.0501702357091034
 50
324.86924836613292
 51
39.201415439420259
  0
ARC
  5
2A3B
  8
0
 10
7.4462426567710001
 20
12.953627248946489
 30
0.0
 40
0.0820252463623561
 50
298.35650775628068
 51
325.44836980846071
  0
ARC
  5
2A3C
  8
0
 10
7.435467835474447
 20
12.88800972096427
 30
0.0
 40
0.050164725064276
 50
266.7500595763604
 51
352.47967138308343
  0
ARC
  5
2A3D
  8
0
 10
7.4310024945196584
 20
12.883690785368261
 30
0.0
 40
0.0457938246180972
 50
191.7312711134183
 51
272.02908699535078
  0
ARC
  5
2A3E
  8
0
 10
7.4006436280392469
 20
12.93073206798333
 30
0.0
 40
0.0581823909546348
 50
172.63364949511609
 51
255.59080486906799
  0
ARC
  5
2A3F
  8
0
 10
7.4096571009188059
 20
12.921422671579039
 30
0.0
 40
0.0687976087210204
 50
120.2070841717195
 51
165.78513061283141
  0
ARC
  5
2A40
  8
0
 10
7.4364201281332694
 20
12.881169543231239
 30
0.0
 40
0.1170854061774027
 50
91.787179510030995
 51
121.61485758741109
  0
ARC
  5
2A41
  8
0
 10
7.4362604953318474
 20
12.93658497972465
 30
0.0
 40
0.0592279158490628
 50
36.883627076817334
 51
97.185436999561162
  0
ARC
  5
2A42
  8
0
 10
7.45934699682428
 20
12.956817745476661
 30
0.0
 40
0.0287129446037934
 50
1.996028687505931
 51
32.235114781179391
  0
LINE
  5
2A43
  8
0
 10
7.4880425196507767
 20
12.957817823747151
 30
0.0
 11
7.4879030872094701
 21
12.899365114874991
 31
0.0
  0
ARC
  5
2A44
  8
0
 10
7.2767406539272868
 20
12.92204077137132
 30
0.0
 40
0.2123766009311813
 50
348.97989775294479
 51
353.87079182519773
  0
ARC
  5
2A45
  8
0
 10
7.4502262495014628
 20
12.879362858964679
 30
0.0
 40
0.0341061696655978
 50
354.25519742269228
 51
71.437485448690396
  0
ARC
  5
2A46
  8
0
 10
7.4388374378407507
 20
12.854194574816351
 30
0.0
 40
0.0616535269155704
 50
68.849131058192512
 51
113.63648804590881
  0
ARC
  5
2A47
  8
0
 10
7.4266557783196951
 20
12.874130504250431
 30
0.0
 40
0.0386360448982892
 50
108.9350472607107
 51
190.94764903499211
  0
ARC
  5
2A4A
  8
0
 10
7.4093479511915961
 20
12.95083195946289
 30
0.0
 40
0.0371093700822737
 50
121.68994279648889
 51
197.13985778594241
  0
ARC
  5
2A4B
  8
0
 10
7.4315926079192911
 20
12.92184832314056
 30
0.0
 40
0.0735504973016722
 50
92.135266141850721
 51
124.5752525505515
  0
ARC
  5
2A4D
  8
0
 10
1041.961328585586
 20
163.1483267882054
 30
0.0
 40
1045.4346407343951
 50
188.26086892806379
 51
188.26353340616589
  0
ARC
  5
2A4E
  8
0
 10
7.6221487730790658
 20
12.95455611666239
 30
0.0
 40
0.2492317551967154
 50
194.58502706462551
 51
198.76537315273339
  0
ARC
  5
2A4F
  8
0
 10
7.4401790945254556
 20
12.86950169125244
 30
0.0
 40
0.0114672015663258
 50
340.46011443565561
 51
93.288997151343594
  0
ARC
  5
2A50
  8
0
 10
7.4362366354655851
 20
12.87266255754783
 30
0.0
 40
0.0163244458271923
 50
271.06745093233701
 51
334.6229512015766
  0
ARC
  5
2A51
  8
0
 10
7.4342543790124198
 20
12.870326901081141
 30
0.0
 40
0.0141716072561939
 50
211.12059783366209
 51
279.28435519082279
  0
ARC
  5
2A52
  8
0
 10
7.4319020565997027
 20
12.867974205520079
 30
0.0
 40
0.0109709423913591
 50
125.657391497012
 51
206.94767168000939
  0
ARC
  5
2A53
  8
0
 10
7.4372917950797328
 20
12.86243369275531
 30
0.0
 40
0.0186500409851058
 50
83.134525888850604
 51
129.19102460750739
  0
ARC
  5
2A59
  8
0
 10
7.5092638255762427
 20
12.71052105213627
 30
0.0
 40
0.0944761964497341
 50
42.263593684083382
 51
95.442358887383818
  0
ARC
  5
2A5A
  8
0
 10
7.540303372166985
 20
12.742350291561751
 30
0.0
 40
0.0501702357091034
 50
324.86924836613292
 51
39.201415439420259
  0
ARC
  5
2A5B
  8
0
 10
7.5137773808709989
 20
12.76000061524649
 30
0.0
 40
0.0820252463623561
 50
298.35650775628068
 51
325.44836980846071
  0
ARC
  5
2A5C
  8
0
 10
7.5030025595744476
 20
12.694383087264271
 30
0.0
 40
0.050164725064276
 50
266.7500595763604
 51
352.47967138308343
  0
ARC
  5
2A5D
  8
0
 10
7.4985372186196582
 20
12.69006415166826
 30
0.0
 40
0.0457938246180972
 50
191.7312711134183
 51
272.02908699535078
  0
ARC
  5
2A5E
  8
0
 10
7.4681783521392484
 20
12.737105434283331
 30
0.0
 40
0.0581823909546348
 50
172.63364949511609
 51
255.59080486906799
  0
ARC
  5
2A5F
  8
0
 10
7.4771918250188074
 20
12.72779603787904
 30
0.0
 40
0.0687976087210204
 50
120.2070841717195
 51
165.78513061283141
  0
ARC
  5
2A60
  8
0
 10
7.5039548522332691
 20
12.68754290953124
 30
0.0
 40
0.1170854061774027
 50
91.787179510030995
 51
121.61485758741109
  0
ARC
  5
2A61
  8
0
 10
7.5037952194318471
 20
12.74295834602465
 30
0.0
 40
0.0592279158490628
 50
36.883627076817334
 51
97.185436999561162
  0
ARC
  5
2A62
  8
0
 10
7.5268817209242798
 20
12.76319111177666
 30
0.0
 40
0.0287129446037934
 50
1.996028687505931
 51
32.235114781179391
  0
LINE
  5
2A63
  8
0
 10
7.5555772437507773
 20
12.76419119004715
 30
0.0
 11
7.5554378113094698
 21
12.70573848117499
 31
0.0
  0
ARC
  5
2A64
  8
0
 10
7.3442753780272874
 20
12.72841413767132
 30
0.0
 40
0.2123766009311813
 50
348.97989775294479
 51
353.87079182519773
  0
ARC
  5
2A65
  8
0
 10
7.5177609736014643
 20
12.68573622526468
 30
0.0
 40
0.0341061696655978
 50
354.25519742269228
 51
71.437485448690396
  0
ARC
  5
2A66
  8
0
 10
7.5063721619407522
 20
12.66056794111635
 30
0.0
 40
0.0616535269155704
 50
68.849131058192512
 51
113.63648804590881
  0
ARC
  5
2A67
  8
0
 10
7.494190502419694
 20
12.68050387055043
 30
0.0
 40
0.0386360448982892
 50
108.9350472607107
 51
190.94764903499211
  0
ARC
  5
2A6A
  8
0
 10
7.4768826752915958
 20
12.757205325762889
 30
0.0
 40
0.0371093700822737
 50
121.68994279648889
 51
197.13985778594241
  0
ARC
  5
2A6B
  8
0
 10
7.4991273320192917
 20
12.728221689440559
 30
0.0
 40
0.0735504973016722
 50
92.135266141850721
 51
124.5752525505515
  0
ARC
  5
2A6D
  8
0
 10
1042.0288633096859
 20
162.95470015450539
 30
0.0
 40
1045.4346407343951
 50
188.26086892806379
 51
188.26353340616589
  0
ARC
  5
2A6E
  8
0
 10
7.6896834971790664
 20
12.760929482962389
 30
0.0
 40
0.2492317551967154
 50
194.58502706462551
 51
198.76537315273339
  0
ARC
  5
2A6F
  8
0
 10
7.5077138186254562
 20
12.675875057552441
 30
0.0
 40
0.0114672015663258
 50
340.46011443565561
 51
93.288997151343594
  0
ARC
  5
2A70
  8
0
 10
7.5037713595655848
 20
12.679035923847829
 30
0.0
 40
0.0163244458271923
 50
271.06745093233701
 51
334.6229512015766
  0
ARC
  5
2A71
  8
0
 10
7.5017891031124213
 20
12.67670026738114
 30
0.0
 40
0.0141716072561939
 50
211.12059783366209
 51
279.28435519082279
  0
ARC
  5
2A72
  8
0
 10
7.4994367806997033
 20
12.67434757182008
 30
0.0
 40
0.0109709423913591
 50
125.657391497012
 51
206.94767168000939
  0
ARC
  5
2A73
  8
0
 10
7.5048265191797343
 20
12.668807059055309
 30
0.0
 40
0.0186500409851058
 50
83.134525888850604
 51
129.19102460750739
  0
ARC
  5
2A79
  8
0
 10
7.5156369311610751
 20
12.49666428917212
 30
0.0
 40
0.0944761964497341
 50
42.263593684083382
 51
95.442358887383818
  0
ARC
  5
2A7A
  8
0
 10
7.5466764777518174
 20
12.5284935285976
 30
0.0
 40
0.0501702357091034
 50
324.86924836613292
 51
39.201415439420259
  0
ARC
  5
2A7B
  8
0
 10
7.5201504864558313
 20
12.54614385228234
 30
0.0
 40
0.0820252463623561
 50
298.35650775628068
 51
325.44836980846071
  0
ARC
  5
2A7C
  8
0
 10
7.50937566515928
 20
12.48052632430012
 30
0.0
 40
0.050164725064276
 50
266.7500595763604
 51
352.47967138308343
  0
ARC
  5
2A7D
  8
0
 10
7.5049103242044888
 20
12.476207388704109
 30
0.0
 40
0.0457938246180972
 50
191.7312711134183
 51
272.02908699535078
  0
ARC
  5
2A7E
  8
0
 10
7.474551457724079
 20
12.52324867131918
 30
0.0
 40
0.0581823909546348
 50
172.63364949511609
 51
255.59080486906799
  0
ARC
  5
2A7F
  8
0
 10
7.483564930603638
 20
12.51393927491489
 30
0.0
 40
0.0687976087210204
 50
120.2070841717195
 51
165.78513061283141
  0
ARC
  5
2A80
  8
0
 10
7.5103279578181006
 20
12.47368614656709
 30
0.0
 40
0.1170854061774027
 50
91.787179510030995
 51
121.61485758741109
  0
ARC
  5
2A81
  8
0
 10
7.5101683250166777
 20
12.5291015830605
 30
0.0
 40
0.0592279158490628
 50
36.883627076817334
 51
97.185436999561162
  0
ARC
  5
2A82
  8
0
 10
7.5332548265091122
 20
12.54933434881251
 30
0.0
 40
0.0287129446037934
 50
1.996028687505931
 51
32.235114781179391
  0
LINE
  5
2A83
  8
0
 10
7.5619503493356079
 20
12.550334427083
 30
0.0
 11
7.5618109168943022
 21
12.491881718210839
 31
0.0
  0
ARC
  5
2A84
  8
0
 10
7.350648483612118
 20
12.51455737470717
 30
0.0
 40
0.2123766009311813
 50
348.97989775294479
 51
353.87079182519773
  0
ARC
  5
2A85
  8
0
 10
7.524134079186295
 20
12.47187946230053
 30
0.0
 40
0.0341061696655978
 50
354.25519742269228
 51
71.437485448690396
  0
ARC
  5
2A86
  8
0
 10
7.5127452675255828
 20
12.446711178152199
 30
0.0
 40
0.0616535269155704
 50
68.849131058192512
 51
113.63648804590881
  0
ARC
  5
2A87
  8
0
 10
7.5005636080045264
 20
12.466647107586279
 30
0.0
 40
0.0386360448982892
 50
108.9350472607107
 51
190.94764903499211
  0
ARC
  5
2A8A
  8
0
 10
7.4832557808764282
 20
12.543348562798741
 30
0.0
 40
0.0371093700822737
 50
121.68994279648889
 51
197.13985778594241
  0
ARC
  5
2A8B
  8
0
 10
7.5055004376041241
 20
12.514364926476411
 30
0.0
 40
0.0735504973016722
 50
92.135266141850721
 51
124.5752525505515
  0
ARC
  5
2A8D
  8
0
 10
1042.03523641527
 20
162.74084339154129
 30
0.0
 40
1045.4346407343951
 50
188.26086892806379
 51
188.26353340616589
  0
ARC
  5
2A8E
  8
0
 10
7.696056602763897
 20
12.547072719998241
 30
0.0
 40
0.2492317551967154
 50
194.58502706462551
 51
198.76537315273339
  0
ARC
  5
2A8F
  8
0
 10
7.5140869242102868
 20
12.46201829458829
 30
0.0
 40
0.0114672015663258
 50
340.46011443565561
 51
93.288997151343594
  0
ARC
  5
2A90
  8
0
 10
7.5101444651504172
 20
12.465179160883681
 30
0.0
 40
0.0163244458271923
 50
271.06745093233701
 51
334.6229512015766
  0
ARC
  5
2A91
  8
0
 10
7.5081622086972519
 20
12.462843504417
 30
0.0
 40
0.0141716072561939
 50
211.12059783366209
 51
279.28435519082279
  0
ARC
  5
2A92
  8
0
 10
7.5058098862845339
 20
12.46049080885593
 30
0.0
 40
0.0109709423913591
 50
125.657391497012
 51
206.94767168000939
  0
ARC
  5
2A93
  8
0
 10
7.5111996247645649
 20
12.454950296091161
 30
0.0
 40
0.0186500409851058
 50
83.134525888850604
 51
129.19102460750739
  0
ARC
  5
2A99
  8
0
 10
7.4435470990762429
 20
12.317638606436271
 30
0.0
 40
0.0944761964497341
 50
42.263593684083382
 51
95.442358887383818
  0
ARC
  5
2A9A
  8
0
 10
7.4745866456669861
 20
12.349467845861749
 30
0.0
 40
0.0501702357091034
 50
324.86924836613292
 51
39.201415439420259
  0
ARC
  5
2A9B
  8
0
 10
7.4480606543709991
 20
12.36711816954649
 30
0.0
 40
0.0820252463623561
 50
298.35650775628068
 51
325.44836980846071
  0
ARC
  5
2A9C
  8
0
 10
7.4372858330744478
 20
12.30150064156428
 30
0.0
 40
0.050164725064276
 50
266.7500595763604
 51
352.47967138308343
  0
ARC
  5
2A9D
  8
0
 10
7.4328204921196583
 20
12.29718170596826
 30
0.0
 40
0.0457938246180972
 50
191.7312711134183
 51
272.02908699535078
  0
ARC
  5
2A9E
  8
0
 10
7.4024616256392477
 20
12.344222988583329
 30
0.0
 40
0.0581823909546348
 50
172.63364949511609
 51
255.59080486906799
  0
ARC
  5
2A9F
  8
0
 10
7.4114750985188067
 20
12.334913592179049
 30
0.0
 40
0.0687976087210204
 50
120.2070841717195
 51
165.78513061283141
  0
ARC
  5
2AA0
  8
0
 10
7.4382381257332701
 20
12.29466046383124
 30
0.0
 40
0.1170854061774027
 50
91.787179510030995
 51
121.61485758741109
  0
ARC
  5
2AA1
  8
0
 10
7.4380784929318473
 20
12.35007590032466
 30
0.0
 40
0.0592279158490628
 50
36.883627076817334
 51
97.185436999561162
  0
ARC
  5
2AA2
  8
0
 10
7.4611649944242799
 20
12.37030866607666
 30
0.0
 40
0.0287129446037934
 50
1.996028687505931
 51
32.235114781179391
  0
LINE
  5
2AA3
  8
0
 10
7.4898605172507766
 20
12.37130874434715
 30
0.0
 11
7.48972108480947
 21
12.312856035475001
 31
0.0
  0
ARC
  5
2AA4
  8
0
 10
7.2785586515272866
 20
12.33553169197133
 30
0.0
 40
0.2123766009311813
 50
348.97989775294479
 51
353.87079182519773
  0
ARC
  5
2AA5
  8
0
 10
7.4520442471014636
 20
12.29285377956468
 30
0.0
 40
0.0341061696655978
 50
354.25519742269228
 51
71.437485448690396
  0
ARC
  5
2AA6
  8
0
 10
7.4406554354407524
 20
12.26768549541635
 30
0.0
 40
0.0616535269155704
 50
68.849131058192512
 51
113.63648804590881
  0
ARC
  5
2AA7
  8
0
 10
7.428473775919695
 20
12.28762142485043
 30
0.0
 40
0.0386360448982892
 50
108.9350472607107
 51
190.94764903499211
  0
ARC
  5
2AAA
  8
0
 10
7.411165948791596
 20
12.36432288006289
 30
0.0
 40
0.0371093700822737
 50
121.68994279648889
 51
197.13985778594241
  0
ARC
  5
2AAB
  8
0
 10
7.4334106055192919
 20
12.33533924374056
 30
0.0
 40
0.0735504973016722
 50
92.135266141850721
 51
124.5752525505515
  0
ARC
  5
2AAD
  8
0
 10
1041.963146583186
 20
162.56181770880539
 30
0.0
 40
1045.4346407343951
 50
188.26086892806379
 51
188.26353340616589
  0
ARC
  5
2AAE
  8
0
 10
7.6239667706790657
 20
12.3680470372624
 30
0.0
 40
0.2492317551967154
 50
194.58502706462551
 51
198.76537315273339
  0
ARC
  5
2AAF
  8
0
 10
7.4419970921254563
 20
12.28299261185245
 30
0.0
 40
0.0114672015663258
 50
340.46011443565561
 51
93.288997151343594
  0
ARC
  5
2AB0
  8
0
 10
7.438054633065585
 20
12.286153478147829
 30
0.0
 40
0.0163244458271923
 50
271.06745093233701
 51
334.6229512015766
  0
ARC
  5
2AB1
  8
0
 10
7.4360723766124206
 20
12.283817821681151
 30
0.0
 40
0.0141716072561939
 50
211.12059783366209
 51
279.28435519082279
  0
ARC
  5
2AB2
  8
0
 10
7.4337200541997026
 20
12.28146512612008
 30
0.0
 40
0.0109709423913591
 50
125.657391497012
 51
206.94767168000939
  0
ARC
  5
2AB3
  8
0
 10
7.4391097926797336
 20
12.27592461335532
 30
0.0
 40
0.0186500409851058
 50
83.134525888850604
 51
129.19102460750739
  0
ARC
  5
2AB9
  8
0
 10
7.3091917034762428
 20
12.133127034436271
 30
0.0
 40
0.0944761964497341
 50
42.263593684083382
 51
95.442358887383818
  0
ARC
  5
2ABA
  8
0
 10
7.3402312500669851
 20
12.164956273861749
 30
0.0
 40
0.0501702357091034
 50
324.86924836613292
 51
39.201415439420259
  0
ARC
  5
2ABB
  8
0
 10
7.313705258770999
 20
12.18260659754649
 30
0.0
 40
0.0820252463623561
 50
298.35650775628068
 51
325.44836980846071
  0
ARC
  5
2ABC
  8
0
 10
7.3029304374744477
 20
12.116989069564269
 30
0.0
 40
0.050164725064276
 50
266.7500595763604
 51
352.47967138308343
  0
ARC
  5
2ABD
  8
0
 10
7.2984650965196582
 20
12.11267013396826
 30
0.0
 40
0.0457938246180972
 50
191.7312711134183
 51
272.02908699535078
  0
ARC
  5
2ABE
  8
0
 10
7.2681062300392476
 20
12.15971141658332
 30
0.0
 40
0.0581823909546348
 50
172.63364949511609
 51
255.59080486906799
  0
ARC
  5
2ABF
  8
0
 10
7.2771197029188066
 20
12.15040202017904
 30
0.0
 40
0.0687976087210204
 50
120.2070841717195
 51
165.78513061283141
  0
ARC
  5
2AC0
  8
0
 10
7.3038827301332701
 20
12.110148891831241
 30
0.0
 40
0.1170854061774027
 50
91.787179510030995
 51
121.61485758741109
  0
ARC
  5
2AC1
  8
0
 10
7.3037230973318472
 20
12.165564328324651
 30
0.0
 40
0.0592279158490628
 50
36.883627076817334
 51
97.185436999561162
  0
ARC
  5
2AC2
  8
0
 10
7.3268095988242798
 20
12.18579709407666
 30
0.0
 40
0.0287129446037934
 50
1.996028687505931
 51
32.235114781179391
  0
LINE
  5
2AC3
  8
0
 10
7.3555051216507774
 20
12.18679717234715
 30
0.0
 11
7.3553656892094699
 21
12.128344463475001
 31
0.0
  0
ARC
  5
2AC4
  8
0
 10
7.1442032559272874
 20
12.151020119971321
 30
0.0
 40
0.2123766009311813
 50
348.97989775294479
 51
353.87079182519773
  0
ARC
  5
2AC5
  8
0
 10
7.3176888515014644
 20
12.10834220756468
 30
0.0
 40
0.0341061696655978
 50
354.25519742269228
 51
71.437485448690396
  0
ARC
  5
2AC6
  8
0
 10
7.3063000398407523
 20
12.08317392341635
 30
0.0
 40
0.0616535269155704
 50
68.849131058192512
 51
113.63648804590881
  0
ARC
  5
2AC7
  8
0
 10
7.2941183803196941
 20
12.10310985285043
 30
0.0
 40
0.0386360448982892
 50
108.9350472607107
 51
190.94764903499211
  0
ARC
  5
2ACA
  8
0
 10
7.2768105531915959
 20
12.17981130806289
 30
0.0
 40
0.0371093700822737
 50
121.68994279648889
 51
197.13985778594241
  0
ARC
  5
2ACB
  8
0
 10
7.2990552099192918
 20
12.15082767174056
 30
0.0
 40
0.0735504973016722
 50
92.135266141850721
 51
124.5752525505515
  0
ARC
  5
2ACD
  8
0
 10
1041.8287911875859
 20
162.3773061368054
 30
0.0
 40
1045.4346407343951
 50
188.26086892806379
 51
188.26353340616589
  0
ARC
  5
2ACE
  8
0
 10
7.4896113750790656
 20
12.1835354652624
 30
0.0
 40
0.2492317551967154
 50
194.58502706462551
 51
198.76537315273339
  0
ARC
  5
2ACF
  8
0
 10
7.3076416965254563
 20
12.098481039852439
 30
0.0
 40
0.0114672015663258
 50
340.46011443565561
 51
93.288997151343594
  0
ARC
  5
2AD0
  8
0
 10
7.3036992374655849
 20
12.10164190614783
 30
0.0
 40
0.0163244458271923
 50
271.06745093233701
 51
334.6229512015766
  0
ARC
  5
2AD1
  8
0
 10
7.3017169810124214
 20
12.09930624968114
 30
0.0
 40
0.0141716072561939
 50
211.12059783366209
 51
279.28435519082279
  0
ARC
  5
2AD2
  8
0
 10
7.2993646585997034
 20
12.096953554120081
 30
0.0
 40
0.0109709423913591
 50
125.657391497012
 51
206.94767168000939
  0
ARC
  5
2AD3
  8
0
 10
7.3047543970797344
 20
12.09141304135531
 30
0.0
 40
0.0186500409851058
 50
83.134525888850604
 51
129.19102460750739
  0
ARC
  5
2AD9
  8
0
 10
7.1167257841762428
 20
11.96908644843627
 30
0.0
 40
0.0944761964497341
 50
42.263593684083382
 51
95.442358887383818
  0
ARC
  5
2ADA
  8
0
 10
7.1477653307669851
 20
12.00091568786176
 30
0.0
 40
0.0501702357091034
 50
324.86924836613292
 51
39.201415439420259
  0
ARC
  5
2ADB
  8
0
 10
7.121239339470999
 20
12.018566011546501
 30
0.0
 40
0.0820252463623561
 50
298.35650775628068
 51
325.44836980846071
  0
ARC
  5
2ADC
  8
0
 10
7.1104645181744477
 20
11.952948483564279
 30
0.0
 40
0.050164725064276
 50
266.7500595763604
 51
352.47967138308343
  0
ARC
  5
2ADD
  8
0
 10
7.1059991772196582
 20
11.94862954796826
 30
0.0
 40
0.0457938246180972
 50
191.7312711134183
 51
272.02908699535078
  0
ARC
  5
2ADE
  8
0
 10
7.0756403107392476
 20
11.995670830583331
 30
0.0
 40
0.0581823909546348
 50
172.63364949511609
 51
255.59080486906799
  0
ARC
  5
2ADF
  8
0
 10
7.0846537836188066
 20
11.986361434179051
 30
0.0
 40
0.0687976087210204
 50
120.2070841717195
 51
165.78513061283141
  0
ARC
  5
2AE0
  8
0
 10
7.11141681083327
 20
11.94610830583124
 30
0.0
 40
0.1170854061774027
 50
91.787179510030995
 51
121.61485758741109
  0
ARC
  5
2AE1
  8
0
 10
7.1112571780318472
 20
12.001523742324659
 30
0.0
 40
0.0592279158490628
 50
36.883627076817341
 51
97.185436999561162
  0
ARC
  5
2AE2
  8
0
 10
7.1343436795242798
 20
12.02175650807666
 30
0.0
 40
0.0287129446037934
 50
1.996028687505931
 51
32.235114781179391
  0
LINE
  5
2AE3
  8
0
 10
7.1630392023507774
 20
12.02275658634716
 30
0.0
 11
7.1628997699094699
 21
11.964303877475
 31
0.0
  0
ARC
  5
2AE4
  8
0
 10
6.9517373366272874
 20
11.986979533971329
 30
0.0
 40
0.2123766009311813
 50
348.97989775294479
 51
353.87079182519773
  0
ARC
  5
2AE5
  8
0
 10
7.1252229322014644
 20
11.94430162156468
 30
0.0
 40
0.0341061696655978
 50
354.25519742269228
 51
71.437485448690396
  0
ARC
  5
2AE6
  8
0
 10
7.1138341205407523
 20
11.91913333741635
 30
0.0
 40
0.0616535269155704
 50
68.849131058192512
 51
113.63648804590881
  0
ARC
  5
2AE7
  8
0
 10
7.1016524610196941
 20
11.93906926685043
 30
0.0
 40
0.0386360448982892
 50
108.9350472607107
 51
190.94764903499211
  0
ARC
  5
2AEA
  8
0
 10
7.0843446338915959
 20
12.015770722062889
 30
0.0
 40
0.0371093700822737
 50
121.68994279648889
 51
197.13985778594241
  0
ARC
  5
2AEB
  8
0
 10
7.1065892906192918
 20
11.986787085740559
 30
0.0
 40
0.0735504973016722
 50
92.135266141850721
 51
124.5752525505515
  0
ARC
  5
2AED
  8
0
 10
1041.6363252682861
 20
162.2132655508054
 30
0.0
 40
1045.4346407343951
 50
188.26086892806379
 51
188.26353340616589
  0
ARC
  5
2AEE
  8
0
 10
7.2971454557790656
 20
12.0194948792624
 30
0.0
 40
0.2492317551967154
 50
194.58502706462551
 51
198.76537315273339
  0
ARC
  5
2AEF
  8
0
 10
7.1151757772254562
 20
11.934440453852449
 30
0.0
 40
0.0114672015663258
 50
340.46011443565561
 51
93.288997151343594
  0
ARC
  5
2AF0
  8
0
 10
7.1112333181655849
 20
11.93760132014784
 30
0.0
 40
0.0163244458271923
 50
271.06745093233701
 51
334.6229512015766
  0
ARC
  5
2AF1
  8
0
 10
7.1092510617124214
 20
11.93526566368115
 30
0.0
 40
0.0141716072561939
 50
211.12059783366209
 51
279.28435519082279
  0
ARC
  5
2AF2
  8
0
 10
7.1068987392997034
 20
11.932912968120091
 30
0.0
 40
0.0109709423913591
 50
125.657391497012
 51
206.94767168000939
  0
ARC
  5
2AF3
  8
0
 10
7.1122884777797344
 20
11.92737245535532
 30
0.0
 40
0.0186500409851058
 50
83.134525888850604
 51
129.19102460750739
  0
ARC
  5
2AF9
  8
0
 10
6.8725531883762434
 20
11.810581232786269
 30
0.0
 40
0.0944761964497341
 50
42.263593684083382
 51
95.442358887383818
  0
ARC
  5
2AFA
  8
0
 10
6.9035927349669848
 20
11.84241047221175
 30
0.0
 40
0.0501702357091034
 50
324.86924836613292
 51
39.201415439420259
  0
ARC
  5
2AFB
  8
0
 10
6.8770667436709987
 20
11.860060795896491
 30
0.0
 40
0.0820252463623561
 50
298.35650775628068
 51
325.44836980846071
  0
ARC
  5
2AFC
  8
0
 10
6.8662919223744483
 20
11.79444326791427
 30
0.0
 40
0.050164725064276
 50
266.7500595763604
 51
352.47967138308343
  0
ARC
  5
2AFD
  8
0
 10
6.8618265814196571
 20
11.790124332318261
 30
0.0
 40
0.0457938246180972
 50
191.7312711134183
 51
272.02908699535078
  0
ARC
  5
2AFE
  8
0
 10
6.8314677149392482
 20
11.83716561493333
 30
0.0
 40
0.0581823909546348
 50
172.63364949511609
 51
255.59080486906799
  0
ARC
  5
2AFF
  8
0
 10
6.8404811878188072
 20
11.827856218529041
 30
0.0
 40
0.0687976087210204
 50
120.2070841717195
 51
165.78513061283141
  0
ARC
  5
2B00
  8
0
 10
6.8672442150332689
 20
11.787603090181239
 30
0.0
 40
0.1170854061774027
 50
91.787179510030995
 51
121.61485758741109
  0
ARC
  5
2B01
  8
0
 10
6.867084582231846
 20
11.84301852667466
 30
0.0
 40
0.0592279158490628
 50
36.883627076817341
 51
97.185436999561162
  0
ARC
  5
2B02
  8
0
 10
6.8901710837242804
 20
11.863251292426661
 30
0.0
 40
0.0287129446037934
 50
1.996028687505931
 51
32.235114781179391
  0
LINE
  5
2B03
  8
0
 10
6.9188666065507771
 20
11.864251370697151
 30
0.0
 11
6.9187271741094696
 21
11.805798661824991
 31
0.0
  0
ARC
  5
2B04
  8
0
 10
6.7075647408272872
 20
11.828474318321319
 30
0.0
 40
0.2123766009311813
 50
348.97989775294479
 51
353.87079182519773
  0
ARC
  5
2B05
  8
0
 10
6.8810503364014641
 20
11.785796405914679
 30
0.0
 40
0.0341061696655978
 50
354.25519742269228
 51
71.437485448690396
  0
ARC
  5
2B06
  8
0
 10
6.8696615247407511
 20
11.76062812176635
 30
0.0
 40
0.0616535269155704
 50
68.849131058192512
 51
113.63648804590881
  0
ARC
  5
2B07
  8
0
 10
6.8574798652196938
 20
11.780564051200431
 30
0.0
 40
0.0386360448982892
 50
108.9350472607107
 51
190.94764903499211
  0
ARC
  5
2B0A
  8
0
 10
6.8401720380915956
 20
11.85726550641289
 30
0.0
 40
0.0371093700822737
 50
121.68994279648889
 51
197.13985778594241
  0
ARC
  5
2B0B
  8
0
 10
6.8624166948192924
 20
11.82828187009056
 30
0.0
 40
0.0735504973016722
 50
92.135266141850721
 51
124.5752525505515
  0
ARC
  5
2B0D
  8
0
 10
1041.392152672486
 20
162.05476033515541
 30
0.0
 40
1045.4346407343951
 50
188.26086892806379
 51
188.26353340616589
  0
ARC
  5
2B0E
  8
0
 10
7.0529728599790662
 20
11.860989663612401
 30
0.0
 40
0.2492317551967154
 50
194.58502706462551
 51
198.76537315273339
  0
ARC
  5
2B0F
  8
0
 10
6.8710031814254551
 20
11.77593523820244
 30
0.0
 40
0.0114672015663258
 50
340.46011443565561
 51
93.288997151343594
  0
ARC
  5
2B10
  8
0
 10
6.8670607223655846
 20
11.77909610449783
 30
0.0
 40
0.0163244458271923
 50
271.06745093233701
 51
334.6229512015766
  0
ARC
  5
2B11
  8
0
 10
6.8650784659124211
 20
11.776760448031141
 30
0.0
 40
0.0141716072561939
 50
211.12059783366209
 51
279.28435519082279
  0
ARC
  5
2B12
  8
0
 10
6.8627261434997031
 20
11.774407752470079
 30
0.0
 40
0.0109709423913591
 50
125.657391497012
 51
206.94767168000939
  0
ARC
  5
2B13
  8
0
 10
6.8681158819797341
 20
11.76886723970531
 30
0.0
 40
0.0186500409851058
 50
83.134525888850604
 51
129.19102460750739
  0
ARC
  5
2B19
  8
0
 10
6.5844519980383893
 20
11.707951512535811
 30
0.0
 40
0.0944761964497341
 50
42.263593684083382
 51
95.442358887383818
  0
ARC
  5
2B1A
  8
0
 10
6.6154915446291307
 20
11.7397807519613
 30
0.0
 40
0.0501702357091034
 50
324.86924836613292
 51
39.201415439420259
  0
ARC
  5
2B1B
  8
0
 10
6.5889655533331446
 20
11.757431075646039
 30
0.0
 40
0.0820252463623561
 50
298.35650775628068
 51
325.44836980846071
  0
ARC
  5
2B1C
  8
0
 10
6.5781907320365942
 20
11.69181354766382
 30
0.0
 40
0.050164725064276
 50
266.7500595763604
 51
352.47967138308348
  0
ARC
  5
2B1D
  8
0
 10
6.573725391081803
 20
11.6874946120678
 30
0.0
 40
0.0457938246180972
 50
191.73127111341839
 51
272.02908699535078
  0
ARC
  5
2B1E
  8
0
 10
6.5433665246013941
 20
11.734535894682869
 30
0.0
 40
0.0581823909546348
 50
172.63364949511609
 51
255.59080486906799
  0
ARC
  5
2B1F
  8
0
 10
6.5523799974809531
 20
11.725226498278589
 30
0.0
 40
0.0687976087210204
 50
120.2070841717195
 51
165.78513061283141
  0
ARC
  5
2B20
  8
0
 10
6.5791430246954148
 20
11.684973369930781
 30
0.0
 40
0.1170854061774027
 50
91.787179510030995
 51
121.61485758741109
  0
ARC
  5
2B21
  8
0
 10
6.5789833918939919
 20
11.7403888064242
 30
0.0
 40
0.0592279158490628
 50
36.883627076817341
 51
97.185436999561162
  0
ARC
  5
2B22
  8
0
 10
6.6020698933864264
 20
11.7606215721762
 30
0.0
 40
0.0287129446037934
 50
1.996028687505931
 51
32.235114781179391
  0
LINE
  5
2B23
  8
0
 10
6.630765416212923
 20
11.761621650446701
 30
0.0
 11
6.6306259837716164
 21
11.703168941574541
 31
0.0
  0
ARC
  5
2B24
  8
0
 10
6.4194635504894331
 20
11.72584459807087
 30
0.0
 40
0.2123766009311813
 50
348.97989775294479
 51
353.87079182519773
  0
ARC
  5
2B25
  8
0
 10
6.59294914606361
 20
11.68316668566422
 30
0.0
 40
0.0341061696655978
 50
354.25519742269228
 51
71.437485448690396
  0
ARC
  5
2B26
  8
0
 10
6.581560334402897
 20
11.65799840151589
 30
0.0
 40
0.0616535269155704
 50
68.849131058192512
 51
113.63648804590881
  0
ARC
  5
2B27
  8
0
 10
6.5693786748818397
 20
11.67793433094997
 30
0.0
 40
0.0386360448982892
 50
108.9350472607107
 51
190.94764903499211
  0
ARC
  5
2B2A
  8
0
 10
6.5520708477537424
 20
11.75463578616243
 30
0.0
 40
0.0371093700822737
 50
121.68994279648889
 51
197.13985778594241
  0
ARC
  5
2B2B
  8
0
 10
6.5743155044814383
 20
11.7256521498401
 30
0.0
 40
0.0735504973016722
 50
92.135266141850721
 51
124.5752525505515
  0
ARC
  5
2B2D
  8
0
 10
1041.104051482148
 20
161.952130614905
 30
0.0
 40
1045.4346407343951
 50
188.26086892806379
 51
188.26353340616589
  0
ARC
  5
2B2E
  8
0
 10
6.7648716696412121
 20
11.75835994336194
 30
0.0
 40
0.2492317551967154
 50
194.58502706462551
 51
198.76537315273339
  0
ARC
  5
2B2F
  8
0
 10
6.582901991087601
 20
11.67330551795199
 30
0.0
 40
0.0114672015663258
 50
340.46011443565561
 51
93.288997151343594
  0
ARC
  5
2B30
  8
0
 10
6.5789595320277314
 20
11.67646638424738
 30
0.0
 40
0.0163244458271923
 50
271.06745093233701
 51
334.6229512015766
  0
ARC
  5
2B31
  8
0
 10
6.576977275574567
 20
11.674130727780691
 30
0.0
 40
0.0141716072561939
 50
211.12059783366209
 51
279.28435519082279
  0
ARC
  5
2B32
  8
0
 10
6.574624953161849
 20
11.671778032219629
 30
0.0
 40
0.0109709423913591
 50
125.657391497012
 51
206.94767168000939
  0
ARC
  5
2B33
  8
0
 10
6.58001469164188
 20
11.66623751945486
 30
0.0
 40
0.0186500409851058
 50
83.134525888850604
 51
129.19102460750739
  0
ARC
  5
2BCC
  8
0
 10
6.3172105697762442
 20
12.994737781936269
 30
0.0
 40
0.0944761964497341
 50
42.263593684083382
 51
95.442358887383818
  0
ARC
  5
2BCD
  8
0
 10
6.3482501163669864
 20
13.02656702136175
 30
0.0
 40
0.0501702357091034
 50
324.86924836613292
 51
39.201415439420259
  0
ARC
  5
2BCE
  8
0
 10
6.3217241250710003
 20
13.044217345046491
 30
0.0
 40
0.0820252463623561
 50
298.35650775628068
 51
325.44836980846071
  0
ARC
  5
2BCF
  8
0
 10
6.3109493037744491
 20
12.97859981706428
 30
0.0
 40
0.050164725064276
 50
266.7500595763604
 51
352.47967138308343
  0
ARC
  5
2BD0
  8
0
 10
6.3064839628196578
 20
12.97428088146826
 30
0.0
 40
0.0457938246180972
 50
191.7312711134183
 51
272.02908699535078
  0
ARC
  5
2BD1
  8
0
 10
6.2761250963392481
 20
13.02132216408333
 30
0.0
 40
0.0581823909546348
 50
172.63364949511609
 51
255.59080486906799
  0
ARC
  5
2BD2
  8
0
 10
6.2851385692188071
 20
13.012012767679041
 30
0.0
 40
0.0687976087210204
 50
120.2070841717195
 51
165.78513061283141
  0
ARC
  5
2BD3
  8
0
 10
6.3119015964332696
 20
12.971759639331241
 30
0.0
 40
0.1170854061774027
 50
91.787179510030995
 51
121.61485758741109
  0
ARC
  5
2BD4
  8
0
 10
6.3117419636318468
 20
13.027175075824649
 30
0.0
 40
0.0592279158490628
 50
36.883627076817334
 51
97.185436999561162
  0
ARC
  5
2BD5
  8
0
 10
6.3348284651242812
 20
13.047407841576661
 30
0.0
 40
0.0287129446037934
 50
1.996028687505931
 51
32.235114781179391
  0
LINE
  5
2BD6
  8
0
 10
6.363523987950777
 20
13.048407919847151
 30
0.0
 11
6.3633845555094712
 21
12.989955210974999
 31
0.0
  0
ARC
  5
2BD7
  8
0
 10
6.152222122227287
 20
13.012630867471319
 30
0.0
 40
0.2123766009311813
 50
348.97989775294479
 51
353.87079182519773
  0
ARC
  5
2BD8
  8
0
 10
6.325707717801464
 20
12.969952955064681
 30
0.0
 40
0.0341061696655978
 50
354.25519742269228
 51
71.437485448690396
  0
ARC
  5
2BD9
  8
0
 10
6.3143189061407519
 20
12.94478467091635
 30
0.0
 40
0.0616535269155704
 50
68.849131058192512
 51
113.63648804590881
  0
ARC
  5
2BDA
  8
0
 10
6.3021372466196954
 20
12.964720600350431
 30
0.0
 40
0.0386360448982892
 50
108.9350472607107
 51
190.94764903499211
  0
ARC
  5
2BDD
  8
0
 10
6.2848294194915972
 20
13.04142205556289
 30
0.0
 40
0.0371093700822737
 50
121.68994279648889
 51
197.13985778594241
  0
ARC
  5
2BDE
  8
0
 10
6.3070740762192932
 20
13.01243841924056
 30
0.0
 40
0.0735504973016722
 50
92.135266141850721
 51
124.5752525505515
  0
ARC
  5
2BE0
  8
0
 10
1040.836810053886
 20
163.23891688430541
 30
0.0
 40
1045.4346407343951
 50
188.26086892806379
 51
188.26353340616589
  0
ARC
  5
2BE1
  8
0
 10
6.4976302413790661
 20
13.04514621276239
 30
0.0
 40
0.2492317551967154
 50
194.58502706462551
 51
198.76537315273339
  0
ARC
  5
2BE2
  8
0
 10
6.3156605628254558
 20
12.96009178735245
 30
0.0
 40
0.0114672015663258
 50
340.46011443565561
 51
93.288997151343594
  0
ARC
  5
2BE3
  8
0
 10
6.3117181037655863
 20
12.96325265364783
 30
0.0
 40
0.0163244458271923
 50
271.06745093233701
 51
334.6229512015766
  0
ARC
  5
2BE4
  8
0
 10
6.309735847312421
 20
12.960916997181149
 30
0.0
 40
0.0141716072561939
 50
211.12059783366209
 51
279.28435519082279
  0
ARC
  5
2BE5
  8
0
 10
6.307383524899703
 20
12.958564301620081
 30
0.0
 40
0.0109709423913591
 50
125.657391497012
 51
206.94767168000939
  0
ARC
  5
2BE6
  8
0
 10
6.312773263379734
 20
12.95302378885531
 30
0.0
 40
0.0186500409851058
 50
83.134525888850604
 51
129.19102460750739
  0
ARC
  5
2BEC
  8
0
 10
6.2845161452762426
 20
13.29062459203627
 30
0.0
 40
0.0944761964497341
 50
42.263593684083382
 51
95.442358887383818
  0
ARC
  5
2BED
  8
0
 10
6.3155556918669848
 20
13.32245383146175
 30
0.0
 40
0.0501702357091034
 50
324.86924836613292
 51
39.201415439420259
  0
ARC
  5
2BEE
  8
0
 10
6.2890297005709987
 20
13.34010415514649
 30
0.0
 40
0.0820252463623561
 50
298.35650775628068
 51
325.44836980846071
  0
ARC
  5
2BEF
  8
0
 10
6.2782548792744484
 20
13.274486627164279
 30
0.0
 40
0.050164725064276
 50
266.7500595763604
 51
352.47967138308343
  0
ARC
  5
2BF0
  8
0
 10
6.273789538319658
 20
13.270167691568259
 30
0.0
 40
0.0457938246180972
 50
191.7312711134183
 51
272.02908699535078
  0
ARC
  5
2BF1
  8
0
 10
6.2434306718392483
 20
13.31720897418333
 30
0.0
 40
0.0581823909546348
 50
172.63364949511609
 51
255.59080486906799
  0
ARC
  5
2BF2
  8
0
 10
6.2524441447188073
 20
13.30789957777904
 30
0.0
 40
0.0687976087210204
 50
120.2070841717195
 51
165.78513061283141
  0
ARC
  5
2BF3
  8
0
 10
6.2792071719332689
 20
13.26764644943124
 30
0.0
 40
0.1170854061774027
 50
91.787179510030995
 51
121.61485758741109
  0
ARC
  5
2BF4
  8
0
 10
6.2790475391318461
 20
13.323061885924661
 30
0.0
 40
0.0592279158490628
 50
36.883627076817334
 51
97.185436999561162
  0
ARC
  5
2BF5
  8
0
 10
6.3021340406242796
 20
13.34329465167666
 30
0.0
 40
0.0287129446037934
 50
1.996028687505931
 51
32.235114781179391
  0
LINE
  5
2BF6
  8
0
 10
6.3308295634507772
 20
13.344294729947149
 30
0.0
 11
6.3306901310094696
 21
13.285842021075
 31
0.0
  0
ARC
  5
2BF7
  8
0
 10
6.1195276977272872
 20
13.30851767757132
 30
0.0
 40
0.2123766009311813
 50
348.97989775294479
 51
353.87079182519773
  0
ARC
  5
2BF8
  8
0
 10
6.2930132933014642
 20
13.26583976516468
 30
0.0
 40
0.0341061696655978
 50
354.25519742269228
 51
71.437485448690396
  0
ARC
  5
2BF9
  8
0
 10
6.281624481640752
 20
13.240671481016349
 30
0.0
 40
0.0616535269155704
 50
68.849131058192512
 51
113.63648804590881
  0
ARC
  5
2BFA
  8
0
 10
6.2694428221196938
 20
13.260607410450429
 30
0.0
 40
0.0386360448982892
 50
108.9350472607107
 51
190.94764903499211
  0
ARC
  5
2BFD
  8
0
 10
6.2521349949915956
 20
13.337308865662891
 30
0.0
 40
0.0371093700822737
 50
121.68994279648889
 51
197.13985778594241
  0
ARC
  5
2BFE
  8
0
 10
6.2743796517192916
 20
13.308325229340561
 30
0.0
 40
0.0735504973016722
 50
92.135266141850721
 51
124.5752525505515
  0
ARC
  5
2C00
  8
0
 10
1040.8041156293859
 20
163.53480369440541
 30
0.0
 40
1045.4346407343951
 50
188.26086892806379
 51
188.26353340616589
  0
ARC
  5
2C01
  8
0
 10
6.4649358168790663
 20
13.341033022862399
 30
0.0
 40
0.2492317551967154
 50
194.58502706462551
 51
198.76537315273339
  0
ARC
  5
2C02
  8
0
 10
6.282966138325456
 20
13.255978597452451
 30
0.0
 40
0.0114672015663258
 50
340.46011443565561
 51
93.288997151343594
  0
ARC
  5
2C03
  8
0
 10
6.2790236792655847
 20
13.259139463747831
 30
0.0
 40
0.0163244458271923
 50
271.06745093233701
 51
334.6229512015766
  0
ARC
  5
2C04
  8
0
 10
6.2770414228124212
 20
13.25680380728115
 30
0.0
 40
0.0141716072561939
 50
211.12059783366209
 51
279.28435519082279
  0
ARC
  5
2C05
  8
0
 10
6.2746891003997032
 20
13.25445111172008
 30
0.0
 40
0.0109709423913591
 50
125.657391497012
 51
206.94767168000939
  0
ARC
  5
2C06
  8
0
 10
6.2800788388797342
 20
13.248910598955311
 30
0.0
 40
0.0186500409851058
 50
83.134525888850604
 51
129.19102460750739
  0
ARC
  5
2C0C
  8
0
 10
6.73621536860934
 20
13.117489130115461
 30
0.0
 40
0.0944761964497341
 50
42.263593684083382
 51
95.442358887383818
  0
ARC
  5
2C0D
  8
0
 10
6.7672549152000823
 20
13.149318369540939
 30
0.0
 40
0.0501702357091034
 50
324.86924836613292
 51
39.201415439420259
  0
ARC
  5
2C0E
  8
0
 10
6.7407289239040962
 20
13.16696869322568
 30
0.0
 40
0.0820252463623561
 50
298.35650775628068
 51
325.44836980846071
  0
ARC
  5
2C0F
  8
0
 10
6.729954102607544
 20
13.101351165243461
 30
0.0
 40
0.050164725064276
 50
266.7500595763604
 51
352.47967138308343
  0
ARC
  5
2C10
  8
0
 10
6.7254887616527537
 20
13.097032229647439
 30
0.0
 40
0.0457938246180972
 50
191.7312711134183
 51
272.02908699535078
  0
ARC
  5
2C11
  8
0
 10
6.6951298951723439
 20
13.14407351226251
 30
0.0
 40
0.0581823909546348
 50
172.63364949511609
 51
255.59080486906799
  0
ARC
  5
2C12
  8
0
 10
6.7041433680519029
 20
13.13476411585823
 30
0.0
 40
0.0687976087210204
 50
120.2070841717195
 51
165.78513061283141
  0
ARC
  5
2C13
  8
0
 10
6.7309063952663664
 20
13.09451098751043
 30
0.0
 40
0.1170854061774027
 50
91.787179510030995
 51
121.61485758741109
  0
ARC
  5
2C14
  8
0
 10
6.7307467624649426
 20
13.149926424003841
 30
0.0
 40
0.0592279158490628
 50
36.883627076817334
 51
97.185436999561162
  0
ARC
  5
2C15
  8
0
 10
6.753833263957377
 20
13.17015918975585
 30
0.0
 40
0.0287129446037934
 50
1.996028687505931
 51
32.235114781179391
  0
LINE
  5
2C16
  8
0
 10
6.7825287867838728
 20
13.17115926802634
 30
0.0
 11
6.7823893543425671
 21
13.11270655915418
 31
0.0
  0
ARC
  5
2C17
  8
0
 10
6.5712269210603829
 20
13.135382215650511
 30
0.0
 40
0.2123766009311813
 50
348.97989775294479
 51
353.87079182519773
  0
ARC
  5
2C18
  8
0
 10
6.7447125166345598
 20
13.09270430324386
 30
0.0
 40
0.0341061696655978
 50
354.25519742269228
 51
71.437485448690396
  0
ARC
  5
2C19
  8
0
 10
6.7333237049738477
 20
13.06753601909554
 30
0.0
 40
0.0616535269155704
 50
68.849131058192512
 51
113.63648804590881
  0
ARC
  5
2C1A
  8
0
 10
6.7211420454527913
 20
13.08747194852962
 30
0.0
 40
0.0386360448982892
 50
108.9350472607107
 51
190.94764903499211
  0
ARC
  5
2C1D
  8
0
 10
6.7038342183246931
 20
13.164173403742071
 30
0.0
 40
0.0371093700822737
 50
121.68994279648889
 51
197.13985778594241
  0
ARC
  5
2C1E
  8
0
 10
6.7260788750523881
 20
13.135189767419741
 30
0.0
 40
0.0735504973016722
 50
92.135266141850721
 51
124.5752525505515
  0
ARC
  5
2C20
  8
0
 10
1041.2558148527189
 20
163.36166823248459
 30
0.0
 40
1045.4346407343951
 50
188.26086892806379
 51
188.26353340616589
  0
ARC
  5
2C21
  8
0
 10
6.9166350402121619
 20
13.167897560941579
 30
0.0
 40
0.2492317551967154
 50
194.58502706462551
 51
198.76537315273339
  0
ARC
  5
2C22
  8
0
 10
6.7346653616585517
 20
13.082843135531631
 30
0.0
 40
0.0114672015663258
 50
340.46011443565561
 51
93.288997151343594
  0
ARC
  5
2C23
  8
0
 10
6.7307229025986821
 20
13.086004001827019
 30
0.0
 40
0.0163244458271923
 50
271.06745093233701
 51
334.6229512015766
  0
ARC
  5
2C24
  8
0
 10
6.7287406461455168
 20
13.08366834536033
 30
0.0
 40
0.0141716072561939
 50
211.12059783366209
 51
279.28435519082279
  0
ARC
  5
2C25
  8
0
 10
6.7263883237327988
 20
13.08131564979927
 30
0.0
 40
0.0109709423913591
 50
125.657391497012
 51
206.94767168000939
  0
ARC
  5
2C26
  8
0
 10
6.7317780622128298
 20
13.075775137034499
 30
0.0
 40
0.0186500409851058
 50
83.134525888850604
 51
129.19102460750739
  0
ARC
  5
2C2C
  8
0
 10
7.0380502905762441
 20
12.858211089236271
 30
0.0
 40
0.0944761964497341
 50
42.263593684083382
 51
95.442358887383818
  0
ARC
  5
2C2D
  8
0
 10
7.0690898371669864
 20
12.89004032866176
 30
0.0
 40
0.0501702357091034
 50
324.86924836613292
 51
39.201415439420259
  0
ARC
  5
2C2E
  8
0
 10
7.0425638458710003
 20
12.90769065234649
 30
0.0
 40
0.0820252463623561
 50
298.35650775628068
 51
325.44836980846071
  0
ARC
  5
2C2F
  8
0
 10
7.0317890245744481
 20
12.84207312436428
 30
0.0
 40
0.050164725064276
 50
266.7500595763604
 51
352.47967138308343
  0
ARC
  5
2C30
  8
0
 10
7.0273236836196578
 20
12.83775418876826
 30
0.0
 40
0.0457938246180972
 50
191.7312711134183
 51
272.02908699535078
  0
ARC
  5
2C31
  8
0
 10
6.996964817139248
 20
12.884795471383329
 30
0.0
 40
0.0581823909546348
 50
172.63364949511609
 51
255.59080486906799
  0
ARC
  5
2C32
  8
0
 10
7.005978290018807
 20
12.875486074979049
 30
0.0
 40
0.0687976087210204
 50
120.2070841717195
 51
165.78513061283141
  0
ARC
  5
2C33
  8
0
 10
7.0327413172332696
 20
12.83523294663124
 30
0.0
 40
0.1170854061774027
 50
91.787179510030995
 51
121.61485758741109
  0
ARC
  5
2C34
  8
0
 10
7.0325816844318467
 20
12.89064838312466
 30
0.0
 40
0.0592279158490628
 50
36.883627076817334
 51
97.185436999561162
  0
ARC
  5
2C35
  8
0
 10
7.0556681859242811
 20
12.91088114887666
 30
0.0
 40
0.0287129446037934
 50
1.996028687505931
 51
32.235114781179391
  0
LINE
  5
2C36
  8
0
 10
7.0843637087507769
 20
12.91188122714715
 30
0.0
 11
7.0842242763094712
 21
12.853428518275001
 31
0.0
  0
ARC
  5
2C37
  8
0
 10
6.873061843027287
 20
12.876104174771321
 30
0.0
 40
0.2123766009311813
 50
348.97989775294479
 51
353.87079182519773
  0
ARC
  5
2C38
  8
0
 10
7.0465474386014639
 20
12.83342626236468
 30
0.0
 40
0.0341061696655978
 50
354.25519742269228
 51
71.437485448690396
  0
ARC
  5
2C39
  8
0
 10
7.0351586269407518
 20
12.80825797821635
 30
0.0
 40
0.0616535269155704
 50
68.849131058192512
 51
113.63648804590881
  0
ARC
  5
2C3A
  8
0
 10
7.0229769674196953
 20
12.82819390765043
 30
0.0
 40
0.0386360448982892
 50
108.9350472607107
 51
190.94764903499211
  0
ARC
  5
2C3D
  8
0
 10
7.0056691402915972
 20
12.90489536286289
 30
0.0
 40
0.0371093700822737
 50
121.68994279648889
 51
197.13985778594241
  0
ARC
  5
2C3E
  8
0
 10
7.0279137970192931
 20
12.87591172654056
 30
0.0
 40
0.0735504973016722
 50
92.135266141850721
 51
124.5752525505515
  0
ARC
  5
2C40
  8
0
 10
1041.5576497746861
 20
163.10239019160539
 30
0.0
 40
1045.4346407343951
 50
188.26086892806379
 51
188.26353340616589
  0
ARC
  5
2C41
  8
0
 10
7.218469962179066
 20
12.9086195200624
 30
0.0
 40
0.2492317551967154
 50
194.58502706462551
 51
198.76537315273339
  0
ARC
  5
2C42
  8
0
 10
7.0365002836254558
 20
12.82356509465245
 30
0.0
 40
0.0114672015663258
 50
340.46011443565561
 51
93.288997151343594
  0
ARC
  5
2C43
  8
0
 10
7.0325578245655862
 20
12.82672596094784
 30
0.0
 40
0.0163244458271923
 50
271.06745093233701
 51
334.6229512015766
  0
ARC
  5
2C44
  8
0
 10
7.0305755681124209
 20
12.824390304481151
 30
0.0
 40
0.0141716072561939
 50
211.12059783366209
 51
279.28435519082279
  0
ARC
  5
2C45
  8
0
 10
7.0282232456997029
 20
12.82203760892008
 30
0.0
 40
0.0109709423913591
 50
125.657391497012
 51
206.94767168000939
  0
ARC
  5
2C46
  8
0
 10
7.0336129841797339
 20
12.81649709615531
 30
0.0
 40
0.0186500409851058
 50
83.134525888850604
 51
129.19102460750739
  0
ARC
  5
2C4C
  8
0
 10
7.1440661854762428
 20
12.551914801421219
 30
0.0
 40
0.0944761964497341
 50
42.263593684083382
 51
95.442358887383818
  0
ARC
  5
2C4D
  8
0
 10
7.1751057320669851
 20
12.58374404084671
 30
0.0
 40
0.0501702357091034
 50
324.86924836613292
 51
39.201415439420259
  0
ARC
  5
2C4E
  8
0
 10
7.148579740770999
 20
12.601394364531449
 30
0.0
 40
0.0820252463623561
 50
298.35650775628068
 51
325.44836980846071
  0
ARC
  5
2C4F
  8
0
 10
7.1378049194744477
 20
12.53577683654923
 30
0.0
 40
0.050164725064276
 50
266.7500595763604
 51
352.47967138308343
  0
ARC
  5
2C50
  8
0
 10
7.1333395785196583
 20
12.53145790095321
 30
0.0
 40
0.0457938246180972
 50
191.7312711134183
 51
272.02908699535078
  0
ARC
  5
2C51
  8
0
 10
7.1029807120392476
 20
12.57849918356828
 30
0.0
 40
0.0581823909546348
 50
172.63364949511609
 51
255.59080486906799
  0
ARC
  5
2C52
  8
0
 10
7.1119941849188066
 20
12.569189787163999
 30
0.0
 40
0.0687976087210204
 50
120.2070841717195
 51
165.78513061283141
  0
ARC
  5
2C53
  8
0
 10
7.1387572121332701
 20
12.528936658816191
 30
0.0
 40
0.1170854061774027
 50
91.787179510030995
 51
121.61485758741109
  0
ARC
  5
2C54
  8
0
 10
7.1385975793318472
 20
12.58435209530961
 30
0.0
 40
0.0592279158490628
 50
36.883627076817334
 51
97.185436999561162
  0
ARC
  5
2C55
  8
0
 10
7.1616840808242799
 20
12.60458486106161
 30
0.0
 40
0.0287129446037934
 50
1.996028687505931
 51
32.235114781179391
  0
LINE
  5
2C56
  8
0
 10
7.1903796036507774
 20
12.605584939332109
 30
0.0
 11
7.1902401712094699
 21
12.547132230459949
 31
0.0
  0
ARC
  5
2C57
  8
0
 10
6.9790777379272866
 20
12.56980788695628
 30
0.0
 40
0.2123766009311813
 50
348.97989775294479
 51
353.87079182519773
  0
ARC
  5
2C58
  8
0
 10
7.1525633335014636
 20
12.527129974549631
 30
0.0
 40
0.0341061696655978
 50
354.25519742269228
 51
71.437485448690396
  0
ARC
  5
2C59
  8
0
 10
7.1411745218407523
 20
12.5019616904013
 30
0.0
 40
0.0616535269155704
 50
68.849131058192512
 51
113.63648804590881
  0
ARC
  5
2C5A
  8
0
 10
7.1289928623196941
 20
12.52189761983538
 30
0.0
 40
0.0386360448982892
 50
108.9350472607107
 51
190.94764903499211
  0
ARC
  5
2C5D
  8
0
 10
7.1116850351915959
 20
12.59859907504784
 30
0.0
 40
0.0371093700822737
 50
121.68994279648889
 51
197.13985778594241
  0
ARC
  5
2C5E
  8
0
 10
7.1339296919192918
 20
12.56961543872551
 30
0.0
 40
0.0735504973016722
 50
92.135266141850721
 51
124.5752525505515
  0
ARC
  5
2C60
  8
0
 10
1041.663665669586
 20
162.79609390379039
 30
0.0
 40
1045.4346407343951
 50
188.26086892806379
 51
188.26353340616589
  0
ARC
  5
2C61
  8
0
 10
7.3244858570790656
 20
12.60232323224735
 30
0.0
 40
0.2492317551967154
 50
194.58502706462551
 51
198.76537315273339
  0
ARC
  5
2C62
  8
0
 10
7.1425161785254563
 20
12.5172688068374
 30
0.0
 40
0.0114672015663258
 50
340.46011443565561
 51
93.288997151343594
  0
ARC
  5
2C63
  8
0
 10
7.1385737194655849
 20
12.52042967313279
 30
0.0
 40
0.0163244458271923
 50
271.06745093233701
 51
334.6229512015766
  0
ARC
  5
2C64
  8
0
 10
7.1365914630124214
 20
12.518094016666099
 30
0.0
 40
0.0141716072561939
 50
211.12059783366209
 51
279.28435519082279
  0
ARC
  5
2C65
  8
0
 10
7.1342391405997034
 20
12.51574132110504
 30
0.0
 40
0.0109709423913591
 50
125.657391497012
 51
206.94767168000939
  0
ARC
  5
2C66
  8
0
 10
7.1396288790797344
 20
12.51020080834027
 30
0.0
 40
0.0186500409851058
 50
83.134525888850604
 51
129.19102460750739
  0
ARC
  5
2C6C
  8
0
 10
7.0380716724762431
 20
12.24718034523627
 30
0.0
 40
0.0944761964497341
 50
42.263593684083382
 51
95.442358887383818
  0
ARC
  5
2C6D
  8
0
 10
7.0691112190669863
 20
12.27900958466175
 30
0.0
 40
0.0501702357091034
 50
324.86924836613292
 51
39.201415439420259
  0
ARC
  5
2C6E
  8
0
 10
7.0425852277710002
 20
12.29665990834649
 30
0.0
 40
0.0820252463623561
 50
298.35650775628068
 51
325.44836980846071
  0
ARC
  5
2C6F
  8
0
 10
7.031810406474448
 20
12.23104238036427
 30
0.0
 40
0.050164725064276
 50
266.7500595763604
 51
352.47967138308343
  0
ARC
  5
2C70
  8
0
 10
7.0273450655196577
 20
12.226723444768259
 30
0.0
 40
0.0457938246180972
 50
191.7312711134183
 51
272.02908699535078
  0
ARC
  5
2C71
  8
0
 10
6.9969861990392479
 20
12.27376472738332
 30
0.0
 40
0.0581823909546348
 50
172.63364949511609
 51
255.59080486906799
  0
ARC
  5
2C72
  8
0
 10
7.0059996719188069
 20
12.26445533097904
 30
0.0
 40
0.0687976087210204
 50
120.2070841717195
 51
165.78513061283141
  0
ARC
  5
2C73
  8
0
 10
7.0327626991332703
 20
12.22420220263124
 30
0.0
 40
0.1170854061774027
 50
91.787179510030995
 51
121.61485758741109
  0
ARC
  5
2C74
  8
0
 10
7.0326030663318466
 20
12.27961763912465
 30
0.0
 40
0.0592279158490628
 50
36.883627076817334
 51
97.185436999561162
  0
ARC
  5
2C75
  8
0
 10
7.055689567824281
 20
12.299850404876659
 30
0.0
 40
0.0287129446037934
 50
1.996028687505931
 51
32.235114781179391
  0
LINE
  5
2C76
  8
0
 10
7.0843850906507768
 20
12.300850483147149
 30
0.0
 11
7.0842456582094711
 21
12.242397774275
 31
0.0
  0
ARC
  5
2C77
  8
0
 10
6.8730832249272868
 20
12.26507343077132
 30
0.0
 40
0.2123766009311813
 50
348.97989775294479
 51
353.87079182519773
  0
ARC
  5
2C78
  8
0
 10
7.0465688205014638
 20
12.22239551836468
 30
0.0
 40
0.0341061696655978
 50
354.25519742269228
 51
71.437485448690396
  0
ARC
  5
2C79
  8
0
 10
7.0351800088407517
 20
12.197227234216349
 30
0.0
 40
0.0616535269155704
 50
68.849131058192512
 51
113.63648804590881
  0
ARC
  5
2C7A
  8
0
 10
7.0229983493196952
 20
12.217163163650429
 30
0.0
 40
0.0386360448982892
 50
108.9350472607107
 51
190.94764903499211
  0
ARC
  5
2C7D
  8
0
 10
7.005690522191597
 20
12.293864618862891
 30
0.0
 40
0.0371093700822737
 50
121.68994279648889
 51
197.13985778594241
  0
ARC
  5
2C7E
  8
0
 10
7.0279351789192921
 20
12.264880982540561
 30
0.0
 40
0.0735504973016722
 50
92.135266141850721
 51
124.5752525505515
  0
ARC
  5
2C80
  8
0
 10
1041.5576711565859
 20
162.49135944760539
 30
0.0
 40
1045.4346407343951
 50
188.26086892806379
 51
188.26353340616589
  0
ARC
  5
2C81
  8
0
 10
7.2184913440790659
 20
12.297588776062391
 30
0.0
 40
0.2492317551967154
 50
194.58502706462551
 51
198.76537315273339
  0
ARC
  5
2C82
  8
0
 10
7.0365216655254557
 20
12.21253435065244
 30
0.0
 40
0.0114672015663258
 50
340.46011443565561
 51
93.288997151343594
  0
ARC
  5
2C83
  8
0
 10
7.0325792064655861
 20
12.215695216947831
 30
0.0
 40
0.0163244458271923
 50
271.06745093233701
 51
334.6229512015766
  0
ARC
  5
2C84
  8
0
 10
7.0305969500124208
 20
12.213359560481139
 30
0.0
 40
0.0141716072561939
 50
211.12059783366209
 51
279.28435519082279
  0
ARC
  5
2C85
  8
0
 10
7.0282446275997028
 20
12.21100686492008
 30
0.0
 40
0.0109709423913591
 50
125.657391497012
 51
206.94767168000939
  0
ARC
  5
2C86
  8
0
 10
7.0336343660797338
 20
12.205466352155311
 30
0.0
 40
0.0186500409851058
 50
83.134525888850604
 51
129.19102460750739
  0
ARC
  5
2C8C
  8
0
 10
6.7362177285762419
 20
11.98804371673627
 30
0.0
 40
0.0944761964497341
 50
42.263593684083382
 51
95.442358887383818
  0
ARC
  5
2C8D
  8
0
 10
6.7672572751669851
 20
12.01987295616175
 30
0.0
 40
0.0501702357091034
 50
324.86924836613292
 51
39.201415439420259
  0
ARC
  5
2C8E
  8
0
 10
6.7407312838709981
 20
12.037523279846489
 30
0.0
 40
0.0820252463623561
 50
298.35650775628068
 51
325.44836980846071
  0
ARC
  5
2C8F
  8
0
 10
6.7299564625744468
 20
11.971905751864281
 30
0.0
 40
0.050164725064276
 50
266.7500595763604
 51
352.47967138308343
  0
ARC
  5
2C90
  8
0
 10
6.7254911216196573
 20
11.967586816268261
 30
0.0
 40
0.0457938246180972
 50
191.7312711134183
 51
272.02908699535078
  0
ARC
  5
2C91
  8
0
 10
6.6951322551392467
 20
12.01462809888333
 30
0.0
 40
0.0581823909546348
 50
172.63364949511609
 51
255.59080486906799
  0
ARC
  5
2C92
  8
0
 10
6.7041457280188057
 20
12.005318702479039
 30
0.0
 40
0.0687976087210204
 50
120.2070841717195
 51
165.78513061283141
  0
ARC
  5
2C93
  8
0
 10
6.7309087552332691
 20
11.96506557413124
 30
0.0
 40
0.1170854061774027
 50
91.787179510030995
 51
121.61485758741109
  0
ARC
  5
2C94
  8
0
 10
6.7307491224318463
 20
12.02048101062465
 30
0.0
 40
0.0592279158490628
 50
36.883627076817334
 51
97.185436999561162
  0
ARC
  5
2C95
  8
0
 10
6.7538356239242789
 20
12.040713776376659
 30
0.0
 40
0.0287129446037934
 50
1.996028687505931
 51
32.235114781179391
  0
LINE
  5
2C96
  8
0
 10
6.7825311467507756
 20
12.041713854647149
 30
0.0
 11
6.782391714309469
 21
11.983261145775
 31
0.0
  0
ARC
  5
2C97
  8
0
 10
6.5712292810272857
 20
12.00593680227133
 30
0.0
 40
0.2123766009311813
 50
348.97989775294479
 51
353.87079182519773
  0
ARC
  5
2C98
  8
0
 10
6.7447148766014626
 20
11.963258889864679
 30
0.0
 40
0.0341061696655978
 50
354.25519742269228
 51
71.437485448690396
  0
ARC
  5
2C99
  8
0
 10
6.7333260649407514
 20
11.938090605716351
 30
0.0
 40
0.0616535269155704
 50
68.849131058192512
 51
113.63648804590881
  0
ARC
  5
2C9A
  8
0
 10
6.721144405419694
 20
11.958026535150429
 30
0.0
 40
0.0386360448982892
 50
108.9350472607107
 51
190.94764903499211
  0
ARC
  5
2C9D
  8
0
 10
6.703836578291595
 20
12.034727990362891
 30
0.0
 40
0.0371093700822737
 50
121.68994279648889
 51
197.13985778594241
  0
ARC
  5
2C9E
  8
0
 10
6.7260812350192909
 20
12.00574435404056
 30
0.0
 40
0.0735504973016722
 50
92.135266141850721
 51
124.5752525505515
  0
ARC
  5
2CA0
  8
0
 10
1041.255817212686
 20
162.2322228191054
 30
0.0
 40
1045.4346407343951
 50
188.26086892806379
 51
188.26353340616589
  0
ARC
  5
2CA1
  8
0
 10
6.9166374001790647
 20
12.03845214756239
 30
0.0
 40
0.2492317551967154
 50
194.58502706462551
 51
198.76537315273339
  0
ARC
  5
2CA2
  8
0
 10
6.7346677216254553
 20
11.953397722152451
 30
0.0
 40
0.0114672015663258
 50
340.46011443565561
 51
93.288997151343594
  0
ARC
  5
2CA3
  8
0
 10
6.730725262565584
 20
11.95655858844783
 30
0.0
 40
0.0163244458271923
 50
271.06745093233701
 51
334.6229512015766
  0
ARC
  5
2CA4
  8
0
 10
6.7287430061124196
 20
11.95422293198115
 30
0.0
 40
0.0141716072561939
 50
211.12059783366209
 51
279.28435519082279
  0
ARC
  5
2CA5
  8
0
 10
6.7263906836997016
 20
11.95187023642008
 30
0.0
 40
0.0109709423913591
 50
125.657391497012
 51
206.94767168000939
  0
ARC
  5
2CA6
  8
0
 10
6.7317804221797326
 20
11.94632972365531
 30
0.0
 40
0.0186500409851058
 50
83.134525888850604
 51
129.19102460750739
  0
ARC
  5
2CAC
  8
0
 10
6.5980986249762434
 20
12.186690506336269
 30
0.0
 40
0.0944761964497341
 50
42.263593684083382
 51
95.442358887383818
  0
ARC
  5
2CAD
  8
0
 10
6.6291381715669848
 20
12.21851974576175
 30
0.0
 40
0.0501702357091034
 50
324.86924836613292
 51
39.201415439420259
  0
ARC
  5
2CAE
  8
0
 10
6.6026121802709987
 20
12.236170069446491
 30
0.0
 40
0.0820252463623561
 50
298.35650775628068
 51
325.44836980846071
  0
ARC
  5
2CAF
  8
0
 10
6.5918373589744483
 20
12.17055254146427
 30
0.0
 40
0.050164725064276
 50
266.7500595763604
 51
352.47967138308343
  0
ARC
  5
2CB0
  8
0
 10
6.5873720180196571
 20
12.166233605868261
 30
0.0
 40
0.0457938246180972
 50
191.7312711134183
 51
272.02908699535078
  0
ARC
  5
2CB1
  8
0
 10
6.5570131515392482
 20
12.21327488848333
 30
0.0
 40
0.0581823909546348
 50
172.63364949511609
 51
255.59080486906799
  0
ARC
  5
2CB2
  8
0
 10
6.5660266244188072
 20
12.203965492079041
 30
0.0
 40
0.0687976087210204
 50
120.2070841717195
 51
165.78513061283141
  0
ARC
  5
2CB3
  8
0
 10
6.5927896516332689
 20
12.163712363731239
 30
0.0
 40
0.1170854061774027
 50
91.787179510030995
 51
121.61485758741109
  0
ARC
  5
2CB4
  8
0
 10
6.5926300188318461
 20
12.21912780022466
 30
0.0
 40
0.0592279158490628
 50
36.883627076817334
 51
97.185436999561162
  0
ARC
  5
2CB5
  8
0
 10
6.6157165203242796
 20
12.239360565976661
 30
0.0
 40
0.0287129446037934
 50
1.996028687505931
 51
32.235114781179391
  0
LINE
  5
2CB6
  8
0
 10
6.6444120431507772
 20
12.240360644247151
 30
0.0
 11
6.6442726107094696
 21
12.181907935374999
 31
0.0
  0
ARC
  5
2CB7
  8
0
 10
6.4331101774272872
 20
12.204583591871319
 30
0.0
 40
0.2123766009311813
 50
348.97989775294479
 51
353.87079182519773
  0
ARC
  5
2CB8
  8
0
 10
6.6065957730014642
 20
12.161905679464679
 30
0.0
 40
0.0341061696655978
 50
354.25519742269228
 51
71.437485448690396
  0
ARC
  5
2CB9
  8
0
 10
6.595206961340752
 20
12.13673739531635
 30
0.0
 40
0.0616535269155704
 50
68.849131058192512
 51
113.63648804590881
  0
ARC
  5
2CBA
  8
0
 10
6.5830253018196938
 20
12.156673324750431
 30
0.0
 40
0.0386360448982892
 50
108.9350472607107
 51
190.94764903499211
  0
ARC
  5
2CBD
  8
0
 10
6.5657174746915956
 20
12.23337477996289
 30
0.0
 40
0.0371093700822737
 50
121.68994279648889
 51
197.13985778594241
  0
ARC
  5
2CBE
  8
0
 10
6.5879621314192924
 20
12.20439114364056
 30
0.0
 40
0.0735504973016722
 50
92.135266141850721
 51
124.5752525505515
  0
ARC
  5
2CC0
  8
0
 10
1041.1176981090859
 20
162.43086960870539
 30
0.0
 40
1045.4346407343951
 50
188.26086892806379
 51
188.26353340616589
  0
ARC
  5
2CC1
  8
0
 10
6.7785182965790662
 20
12.237098937162401
 30
0.0
 40
0.2492317551967154
 50
194.58502706462551
 51
198.76537315273339
  0
ARC
  5
2CC2
  8
0
 10
6.596548618025456
 20
12.15204451175244
 30
0.0
 40
0.0114672015663258
 50
340.46011443565561
 51
93.288997151343594
  0
ARC
  5
2CC3
  8
0
 10
6.5926061589655847
 20
12.15520537804783
 30
0.0
 40
0.0163244458271923
 50
271.06745093233701
 51
334.6229512015766
  0
ARC
  5
2CC4
  8
0
 10
6.5906239025124211
 20
12.152869721581141
 30
0.0
 40
0.0141716072561939
 50
211.12059783366209
 51
279.28435519082279
  0
ARC
  5
2CC5
  8
0
 10
6.5882715800997032
 20
12.150517026020079
 30
0.0
 40
0.0109709423913591
 50
125.657391497012
 51
206.94767168000939
  0
ARC
  5
2CC6
  8
0
 10
6.5936613185797341
 20
12.14497651325531
 30
0.0
 40
0.0186500409851058
 50
83.134525888850604
 51
129.19102460750739
  0
ARC
  5
2CCC
  8
0
 10
6.7522507034762427
 20
12.395199082936269
 30
0.0
 40
0.0944761964497341
 50
42.263593684083382
 51
95.442358887383818
  0
ARC
  5
2CCD
  8
0
 10
6.7832902500669849
 20
12.42702832236175
 30
0.0
 40
0.0501702357091034
 50
324.86924836613292
 51
39.201415439420259
  0
ARC
  5
2CCE
  8
0
 10
6.7567642587709988
 20
12.444678646046491
 30
0.0
 40
0.0820252463623561
 50
298.35650775628068
 51
325.44836980846071
  0
ARC
  5
2CCF
  8
0
 10
6.7459894374744476
 20
12.37906111806428
 30
0.0
 40
0.050164725064276
 50
266.7500595763604
 51
352.47967138308343
  0
ARC
  5
2CD0
  8
0
 10
6.7415240965196581
 20
12.37474218246826
 30
0.0
 40
0.0457938246180972
 50
191.7312711134183
 51
272.02908699535078
  0
ARC
  5
2CD1
  8
0
 10
6.7111652300392484
 20
12.42178346508333
 30
0.0
 40
0.0581823909546348
 50
172.63364949511609
 51
255.59080486906799
  0
ARC
  5
2CD2
  8
0
 10
6.7201787029188074
 20
12.412474068679041
 30
0.0
 40
0.0687976087210204
 50
120.2070841717195
 51
165.78513061283141
  0
ARC
  5
2CD3
  8
0
 10
6.746941730133269
 20
12.372220940331241
 30
0.0
 40
0.1170854061774027
 50
91.787179510030995
 51
121.61485758741109
  0
ARC
  5
2CD4
  8
0
 10
6.7467820973318471
 20
12.42763637682466
 30
0.0
 40
0.0592279158490628
 50
36.883627076817334
 51
97.185436999561162
  0
ARC
  5
2CD5
  8
0
 10
6.7698685988242797
 20
12.447869142576661
 30
0.0
 40
0.0287129446037934
 50
1.996028687505931
 51
32.235114781179391
  0
LINE
  5
2CD6
  8
0
 10
6.7985641216507773
 20
12.448869220847151
 30
0.0
 11
6.7984246892094697
 21
12.39041651197499
 31
0.0
  0
ARC
  5
2CD7
  8
0
 10
6.5872622559272873
 20
12.413092168471319
 30
0.0
 40
0.2123766009311813
 50
348.97989775294479
 51
353.87079182519773
  0
ARC
  5
2CD8
  8
0
 10
6.7607478515014643
 20
12.370414256064681
 30
0.0
 40
0.0341061696655978
 50
354.25519742269228
 51
71.437485448690396
  0
ARC
  5
2CD9
  8
0
 10
6.7493590398407521
 20
12.34524597191635
 30
0.0
 40
0.0616535269155704
 50
68.849131058192512
 51
113.63648804590881
  0
ARC
  5
2CDA
  8
0
 10
6.7371773803196939
 20
12.36518190135043
 30
0.0
 40
0.0386360448982892
 50
108.9350472607107
 51
190.94764903499211
  0
ARC
  5
2CDD
  8
0
 10
6.7198695531915957
 20
12.44188335656289
 30
0.0
 40
0.0371093700822737
 50
121.68994279648889
 51
197.13985778594241
  0
ARC
  5
2CDE
  8
0
 10
6.7421142099192917
 20
12.41289972024056
 30
0.0
 40
0.0735504973016722
 50
92.135266141850721
 51
124.5752525505515
  0
ARC
  5
2CE0
  8
0
 10
1041.2718501875861
 20
162.63937818530539
 30
0.0
 40
1045.4346407343951
 50
188.26086892806379
 51
188.26353340616589
  0
ARC
  5
2CE1
  8
0
 10
6.9326703750790664
 20
12.4456075137624
 30
0.0
 40
0.2492317551967154
 50
194.58502706462551
 51
198.76537315273339
  0
ARC
  5
2CE2
  8
0
 10
6.7507006965254561
 20
12.36055308835245
 30
0.0
 40
0.0114672015663258
 50
340.46011443565561
 51
93.288997151343594
  0
ARC
  5
2CE3
  8
0
 10
6.7467582374655848
 20
12.36371395464783
 30
0.0
 40
0.0163244458271923
 50
271.06745093233701
 51
334.6229512015766
  0
ARC
  5
2CE4
  8
0
 10
6.7447759810124213
 20
12.361378298181149
 30
0.0
 40
0.0141716072561939
 50
211.12059783366209
 51
279.28435519082279
  0
ARC
  5
2CE5
  8
0
 10
6.7424236585997033
 20
12.359025602620081
 30
0.0
 40
0.0109709423913591
 50
125.657391497012
 51
206.94767168000939
  0
ARC
  5
2CE6
  8
0
 10
6.7478133970797343
 20
12.35348508985531
 30
0.0
 40
0.0186500409851058
 50
83.134525888850604
 51
129.19102460750739
  0
ARC
  5
2CEC
  8
0
 10
6.7502010111762427
 20
12.62434147993627
 30
0.0
 40
0.0944761964497341
 50
42.263593684083382
 51
95.442358887383818
  0
ARC
  5
2CED
  8
0
 10
6.781240557766985
 20
12.65617071936175
 30
0.0
 40
0.0501702357091034
 50
324.86924836613292
 51
39.201415439420259
  0
ARC
  5
2CEE
  8
0
 10
6.7547145664709989
 20
12.673821043046489
 30
0.0
 40
0.0820252463623561
 50
298.35650775628068
 51
325.44836980846071
  0
ARC
  5
2CEF
  8
0
 10
6.7439397451744476
 20
12.60820351506427
 30
0.0
 40
0.050164725064276
 50
266.7500595763604
 51
352.47967138308343
  0
ARC
  5
2CF0
  8
0
 10
6.7394744042196582
 20
12.603884579468261
 30
0.0
 40
0.0457938246180972
 50
191.7312711134183
 51
272.02908699535078
  0
ARC
  5
2CF1
  8
0
 10
6.7091155377392484
 20
12.650925862083319
 30
0.0
 40
0.0581823909546348
 50
172.63364949511609
 51
255.59080486906799
  0
ARC
  5
2CF2
  8
0
 10
6.7181290106188074
 20
12.641616465679039
 30
0.0
 40
0.0687976087210204
 50
120.2070841717195
 51
165.78513061283141
  0
ARC
  5
2CF3
  8
0
 10
6.7448920378332691
 20
12.601363337331239
 30
0.0
 40
0.1170854061774027
 50
91.787179510030995
 51
121.61485758741109
  0
ARC
  5
2CF4
  8
0
 10
6.7447324050318471
 20
12.65677877382465
 30
0.0
 40
0.0592279158490628
 50
36.883627076817334
 51
97.185436999561162
  0
ARC
  5
2CF5
  8
0
 10
6.7678189065242798
 20
12.677011539576659
 30
0.0
 40
0.0287129446037934
 50
1.996028687505931
 51
32.235114781179391
  0
LINE
  5
2CF6
  8
0
 10
6.7965144293507773
 20
12.678011617847149
 30
0.0
 11
6.7963749969094698
 21
12.619558908974991
 31
0.0
  0
ARC
  5
2CF7
  8
0
 10
6.5852125636272874
 20
12.64223456547132
 30
0.0
 40
0.2123766009311813
 50
348.97989775294479
 51
353.87079182519773
  0
ARC
  5
2CF8
  8
0
 10
6.7586981592014643
 20
12.599556653064679
 30
0.0
 40
0.0341061696655978
 50
354.25519742269228
 51
71.437485448690396
  0
ARC
  5
2CF9
  8
0
 10
6.7473093475407522
 20
12.574388368916351
 30
0.0
 40
0.0616535269155704
 50
68.849131058192512
 51
113.63648804590881
  0
ARC
  5
2CFA
  8
0
 10
6.735127688019694
 20
12.594324298350431
 30
0.0
 40
0.0386360448982892
 50
108.9350472607107
 51
190.94764903499211
  0
ARC
  5
2CFD
  8
0
 10
6.7178198608915958
 20
12.671025753562891
 30
0.0
 40
0.0371093700822737
 50
121.68994279648889
 51
197.13985778594241
  0
ARC
  5
2CFE
  8
0
 10
6.7400645176192917
 20
12.64204211724056
 30
0.0
 40
0.0735504973016722
 50
92.135266141850721
 51
124.5752525505515
  0
ARC
  5
2D00
  8
0
 10
1041.2698004952861
 20
162.86852058230539
 30
0.0
 40
1045.4346407343951
 50
188.26086892806379
 51
188.26353340616589
  0
ARC
  5
2D01
  8
0
 10
6.9306206827790664
 20
12.67474991076239
 30
0.0
 40
0.2492317551967154
 50
194.58502706462551
 51
198.76537315273339
  0
ARC
  5
2D02
  8
0
 10
6.7486510042254562
 20
12.58969548535244
 30
0.0
 40
0.0114672015663258
 50
340.46011443565561
 51
93.288997151343594
  0
ARC
  5
2D03
  8
0
 10
6.7447085451655848
 20
12.59285635164783
 30
0.0
 40
0.0163244458271923
 50
271.06745093233701
 51
334.6229512015766
  0
ARC
  5
2D04
  8
0
 10
6.7427262887124213
 20
12.590520695181141
 30
0.0
 40
0.0141716072561939
 50
211.12059783366209
 51
279.28435519082279
  0
ARC
  5
2D05
  8
0
 10
6.7403739662997033
 20
12.588167999620079
 30
0.0
 40
0.0109709423913591
 50
125.657391497012
 51
206.94767168000939
  0
ARC
  5
2D06
  8
0
 10
6.7457637047797343
 20
12.58262748685531
 30
0.0
 40
0.0186500409851058
 50
83.134525888850604
 51
129.19102460750739
  0
ARC
  5
2D0C
  8
0
 10
6.5999041833762426
 20
12.83516386753627
 30
0.0
 40
0.0944761964497341
 50
42.263593684083382
 51
95.442358887383818
  0
ARC
  5
2D0D
  8
0
 10
6.6309437299669849
 20
12.86699310696175
 30
0.0
 40
0.0501702357091034
 50
324.86924836613292
 51
39.201415439420259
  0
ARC
  5
2D0E
  8
0
 10
6.6044177386709988
 20
12.88464343064649
 30
0.0
 40
0.0820252463623561
 50
298.35650775628068
 51
325.44836980846071
  0
ARC
  5
2D0F
  8
0
 10
6.5936429173744484
 20
12.81902590266427
 30
0.0
 40
0.050164725064276
 50
266.7500595763604
 51
352.47967138308343
  0
ARC
  5
2D10
  8
0
 10
6.5891775764196581
 20
12.814706967068259
 30
0.0
 40
0.0457938246180972
 50
191.7312711134183
 51
272.02908699535078
  0
ARC
  5
2D11
  8
0
 10
6.5588187099392483
 20
12.86174824968332
 30
0.0
 40
0.0581823909546348
 50
172.63364949511609
 51
255.59080486906799
  0
ARC
  5
2D12
  8
0
 10
6.5678321828188073
 20
12.85243885327904
 30
0.0
 40
0.0687976087210204
 50
120.2070841717195
 51
165.78513061283141
  0
ARC
  5
2D13
  8
0
 10
6.594595210033269
 20
12.81218572493124
 30
0.0
 40
0.1170854061774027
 50
91.787179510030995
 51
121.61485758741109
  0
ARC
  5
2D14
  8
0
 10
6.594435577231847
 20
12.86760116142465
 30
0.0
 40
0.0592279158490628
 50
36.883627076817334
 51
97.185436999561162
  0
ARC
  5
2D15
  8
0
 10
6.6175220787242797
 20
12.88783392717666
 30
0.0
 40
0.0287129446037934
 50
1.996028687505931
 51
32.235114781179391
  0
LINE
  5
2D16
  8
0
 10
6.6462176015507772
 20
12.88883400544715
 30
0.0
 11
6.6460781691094697
 21
12.830381296574989
 31
0.0
  0
ARC
  5
2D17
  8
0
 10
6.4349157358272873
 20
12.85305695307132
 30
0.0
 40
0.2123766009311813
 50
348.97989775294479
 51
353.87079182519773
  0
ARC
  5
2D18
  8
0
 10
6.6084013314014642
 20
12.81037904066468
 30
0.0
 40
0.0341061696655978
 50
354.25519742269228
 51
71.437485448690396
  0
ARC
  5
2D19
  8
0
 10
6.5970125197407521
 20
12.785210756516349
 30
0.0
 40
0.0616535269155704
 50
68.849131058192512
 51
113.63648804590881
  0
ARC
  5
2D1A
  8
0
 10
6.5848308602196939
 20
12.805146685950429
 30
0.0
 40
0.0386360448982892
 50
108.9350472607107
 51
190.94764903499211
  0
ARC
  5
2D1D
  8
0
 10
6.5675230330915957
 20
12.881848141162889
 30
0.0
 40
0.0371093700822737
 50
121.68994279648889
 51
197.13985778594241
  0
ARC
  5
2D1E
  8
0
 10
6.5897676898192916
 20
12.852864504840561
 30
0.0
 40
0.0735504973016722
 50
92.135266141850721
 51
124.5752525505515
  0
ARC
  5
2D20
  8
0
 10
1041.119503667486
 20
163.07934296990541
 30
0.0
 40
1045.4346407343951
 50
188.26086892806379
 51
188.26353340616589
  0
ARC
  5
2D21
  8
0
 10
6.7803238549790663
 20
12.885572298362391
 30
0.0
 40
0.2492317551967154
 50
194.58502706462551
 51
198.76537315273339
  0
ARC
  5
2D22
  8
0
 10
6.5983541764254561
 20
12.80051787295244
 30
0.0
 40
0.0114672015663258
 50
340.46011443565561
 51
93.288997151343594
  0
ARC
  5
2D23
  8
0
 10
6.5944117173655847
 20
12.803678739247831
 30
0.0
 40
0.0163244458271923
 50
271.06745093233701
 51
334.6229512015766
  0
ARC
  5
2D24
  8
0
 10
6.5924294609124212
 20
12.801343082781139
 30
0.0
 40
0.0141716072561939
 50
211.12059783366209
 51
279.28435519082279
  0
ARC
  5
2D25
  8
0
 10
6.5900771384997032
 20
12.79899038722008
 30
0.0
 40
0.0109709423913591
 50
125.657391497012
 51
206.94767168000939
  0
ARC
  5
2D26
  8
0
 10
6.5954668769797342
 20
12.793449874455311
 30
0.0
 40
0.0186500409851058
 50
83.134525888850604
 51
129.19102460750739
  0
ARC
  5
2D2C
  8
0
 10
6.3988740958762431
 20
12.48433172813627
 30
0.0
 40
0.0944761964497341
 50
42.263593684083382
 51
95.442358887383818
  0
ARC
  5
2D2D
  8
0
 10
6.4299136424669854
 20
12.516160967561749
 30
0.0
 40
0.0501702357091034
 50
324.86924836613292
 51
39.201415439420259
  0
ARC
  5
2D2E
  8
0
 10
6.4033876511709993
 20
12.53381129124649
 30
0.0
 40
0.0820252463623561
 50
298.35650775628068
 51
325.44836980846071
  0
ARC
  5
2D2F
  8
0
 10
6.392612829874448
 20
12.468193763264271
 30
0.0
 40
0.050164725064276
 50
266.7500595763604
 51
352.47967138308343
  0
ARC
  5
2D30
  8
0
 10
6.3881474889196568
 20
12.46387482766826
 30
0.0
 40
0.0457938246180972
 50
191.7312711134183
 51
272.02908699535078
  0
ARC
  5
2D31
  8
0
 10
6.357788622439247
 20
12.51091611028332
 30
0.0
 40
0.0581823909546348
 50
172.63364949511609
 51
255.59080486906799
  0
ARC
  5
2D32
  8
0
 10
6.366802095318806
 20
12.50160671387904
 30
0.0
 40
0.0687976087210204
 50
120.2070841717195
 51
165.78513061283141
  0
ARC
  5
2D33
  8
0
 10
6.3935651225332686
 20
12.46135358553124
 30
0.0
 40
0.1170854061774027
 50
91.787179510030995
 51
121.61485758741109
  0
ARC
  5
2D34
  8
0
 10
6.3934054897318457
 20
12.516769022024651
 30
0.0
 40
0.0592279158490628
 50
36.883627076817334
 51
97.185436999561162
  0
ARC
  5
2D35
  8
0
 10
6.4164919912242802
 20
12.53700178777666
 30
0.0
 40
0.0287129446037934
 50
1.996028687505931
 51
32.235114781179391
  0
LINE
  5
2D36
  8
0
 10
6.4451875140507759
 20
12.53800186604715
 30
0.0
 11
6.4450480816094702
 21
12.479549157175001
 31
0.0
  0
ARC
  5
2D37
  8
0
 10
6.233885648327286
 20
12.502224813671321
 30
0.0
 40
0.2123766009311813
 50
348.97989775294479
 51
353.87079182519773
  0
ARC
  5
2D38
  8
0
 10
6.407371243901463
 20
12.45954690126468
 30
0.0
 40
0.0341061696655978
 50
354.25519742269228
 51
71.437485448690396
  0
ARC
  5
2D39
  8
0
 10
6.3959824322407508
 20
12.43437861711635
 30
0.0
 40
0.0616535269155704
 50
68.849131058192512
 51
113.63648804590881
  0
ARC
  5
2D3A
  8
0
 10
6.3838007727196944
 20
12.45431454655043
 30
0.0
 40
0.0386360448982892
 50
108.9350472607107
 51
190.94764903499211
  0
ARC
  5
2D3D
  8
0
 10
6.3664929455915962
 20
12.53101600176289
 30
0.0
 40
0.0371093700822737
 50
121.68994279648889
 51
197.13985778594241
  0
ARC
  5
2D3E
  8
0
 10
6.3887376023192921
 20
12.502032365440559
 30
0.0
 40
0.0735504973016722
 50
92.135266141850721
 51
124.5752525505515
  0
ARC
  5
2D40
  8
0
 10
1040.9184735799861
 20
162.7285108305054
 30
0.0
 40
1045.4346407343951
 50
188.26086892806379
 51
188.26353340616589
  0
ARC
  5
2D41
  8
0
 10
6.579293767479065
 20
12.534740158962389
 30
0.0
 40
0.2492317551967154
 50
194.58502706462551
 51
198.76537315273339
  0
ARC
  5
2D42
  8
0
 10
6.3973240889254548
 20
12.449685733552441
 30
0.0
 40
0.0114672015663258
 50
340.46011443565561
 51
93.288997151343594
  0
ARC
  5
2D43
  8
0
 10
6.3933816298655852
 20
12.452846599847829
 30
0.0
 40
0.0163244458271923
 50
271.06745093233701
 51
334.6229512015766
  0
ARC
  5
2D44
  8
0
 10
6.3913993734124199
 20
12.45051094338115
 30
0.0
 40
0.0141716072561939
 50
211.12059783366209
 51
279.28435519082279
  0
ARC
  5
2D45
  8
0
 10
6.3890470509997019
 20
12.44815824782008
 30
0.0
 40
0.0109709423913591
 50
125.657391497012
 51
206.94767168000939
  0
ARC
  5
2D46
  8
0
 10
6.3944367894797329
 20
12.442617735055309
 30
0.0
 40
0.0186500409851058
 50
83.134525888850604
 51
129.19102460750739
  0
ARC
  5
2D4C
  8
0
 10
6.3183491812762433
 20
12.022450349136269
 30
0.0
 40
0.0944761964497341
 50
42.263593684083382
 51
95.442358887383818
  0
ARC
  5
2D4D
  8
0
 10
6.3493887278669847
 20
12.05427958856175
 30
0.0
 40
0.0501702357091034
 50
324.86924836613292
 51
39.201415439420259
  0
ARC
  5
2D4E
  8
0
 10
6.3228627365709986
 20
12.071929912246491
 30
0.0
 40
0.0820252463623561
 50
298.35650775628068
 51
325.44836980846071
  0
ARC
  5
2D4F
  8
0
 10
6.3120879152744482
 20
12.00631238426427
 30
0.0
 40
0.050164725064276
 50
266.7500595763604
 51
352.47967138308343
  0
ARC
  5
2D50
  8
0
 10
6.307622574319657
 20
12.00199344866826
 30
0.0
 40
0.0457938246180972
 50
191.7312711134183
 51
272.02908699535078
  0
ARC
  5
2D51
  8
0
 10
6.2772637078392481
 20
12.04903473128333
 30
0.0
 40
0.0581823909546348
 50
172.63364949511609
 51
255.59080486906799
  0
ARC
  5
2D52
  8
0
 10
6.2862771807188071
 20
12.03972533487905
 30
0.0
 40
0.0687976087210204
 50
120.2070841717195
 51
165.78513061283141
  0
ARC
  5
2D53
  8
0
 10
6.3130402079332688
 20
11.999472206531239
 30
0.0
 40
0.1170854061774027
 50
91.787179510030995
 51
121.61485758741109
  0
ARC
  5
2D54
  8
0
 10
6.312880575131846
 20
12.054887643024649
 30
0.0
 40
0.0592279158490628
 50
36.883627076817334
 51
97.185436999561162
  0
ARC
  5
2D55
  8
0
 10
6.3359670766242804
 20
12.075120408776661
 30
0.0
 40
0.0287129446037934
 50
1.996028687505931
 51
32.235114781179391
  0
LINE
  5
2D56
  8
0
 10
6.3646625994507771
 20
12.076120487047151
 30
0.0
 11
6.3645231670094704
 21
12.017667778174999
 31
0.0
  0
ARC
  5
2D57
  8
0
 10
6.1533607337272871
 20
12.04034343467133
 30
0.0
 40
0.2123766009311813
 50
348.97989775294479
 51
353.87079182519773
  0
ARC
  5
2D58
  8
0
 10
6.3268463293014641
 20
11.997665522264681
 30
0.0
 40
0.0341061696655978
 50
354.25519742269228
 51
71.437485448690396
  0
ARC
  5
2D59
  8
0
 10
6.315457517640751
 20
11.97249723811635
 30
0.0
 40
0.0616535269155704
 50
68.849131058192512
 51
113.63648804590881
  0
ARC
  5
2D5A
  8
0
 10
6.3032758581196937
 20
11.992433167550431
 30
0.0
 40
0.0386360448982892
 50
108.9350472607107
 51
190.94764903499211
  0
ARC
  5
2D5D
  8
0
 10
6.2859680309915964
 20
12.06913462276289
 30
0.0
 40
0.0371093700822737
 50
121.68994279648889
 51
197.13985778594241
  0
ARC
  5
2D5E
  8
0
 10
6.3082126877192923
 20
12.04015098644056
 30
0.0
 40
0.0735504973016722
 50
92.135266141850721
 51
124.5752525505515
  0
ARC
  5
2D60
  8
0
 10
1040.837948665386
 20
162.26662945150539
 30
0.0
 40
1045.4346407343951
 50
188.26086892806379
 51
188.26353340616589
  0
ARC
  5
2D61
  8
0
 10
6.4987688528790661
 20
12.072858779962401
 30
0.0
 40
0.2492317551967154
 50
194.58502706462551
 51
198.76537315273339
  0
ARC
  5
2D62
  8
0
 10
6.316799174325455
 20
11.98780435455244
 30
0.0
 40
0.0114672015663258
 50
340.46011443565561
 51
93.288997151343594
  0
ARC
  5
2D63
  8
0
 10
6.3128567152655846
 20
11.99096522084783
 30
0.0
 40
0.0163244458271923
 50
271.06745093233701
 51
334.6229512015766
  0
ARC
  5
2D64
  8
0
 10
6.310874458812421
 20
11.988629564381149
 30
0.0
 40
0.0141716072561939
 50
211.12059783366209
 51
279.28435519082279
  0
ARC
  5
2D65
  8
0
 10
6.3085221363997031
 20
11.986276868820079
 30
0.0
 40
0.0109709423913591
 50
125.657391497012
 51
206.94767168000939
  0
ARC
  5
2D66
  8
0
 10
6.313911874879734
 20
11.98073635605531
 30
0.0
 40
0.0186500409851058
 50
83.134525888850604
 51
129.19102460750739
  0
ARC
  5
2D6C
  8
0
 10
6.2845334251762441
 20
11.81480850733627
 30
0.0
 40
0.0944761964497341
 50
42.263593684083382
 51
95.442358887383818
  0
ARC
  5
2D6D
  8
0
 10
6.3155729717669864
 20
11.846637746761751
 30
0.0
 40
0.0501702357091034
 50
324.86924836613292
 51
39.201415439420259
  0
ARC
  5
2D6E
  8
0
 10
6.2890469804710003
 20
11.86428807044649
 30
0.0
 40
0.0820252463623561
 50
298.35650775628068
 51
325.44836980846071
  0
ARC
  5
2D6F
  8
0
 10
6.278272159174449
 20
11.798670542464279
 30
0.0
 40
0.050164725064276
 50
266.7500595763604
 51
352.47967138308343
  0
ARC
  5
2D70
  8
0
 10
6.2738068182196578
 20
11.794351606868259
 30
0.0
 40
0.0457938246180972
 50
191.7312711134183
 51
272.02908699535078
  0
ARC
  5
2D71
  8
0
 10
6.243447951739248
 20
11.84139288948333
 30
0.0
 40
0.0581823909546348
 50
172.63364949511609
 51
255.59080486906799
  0
ARC
  5
2D72
  8
0
 10
6.2524614246188071
 20
11.83208349307904
 30
0.0
 40
0.0687976087210204
 50
120.2070841717195
 51
165.78513061283141
  0
ARC
  5
2D73
  8
0
 10
6.2792244518332696
 20
11.79183036473124
 30
0.0
 40
0.1170854061774027
 50
91.787179510030995
 51
121.61485758741109
  0
ARC
  5
2D74
  8
0
 10
6.2790648190318468
 20
11.84724580122465
 30
0.0
 40
0.0592279158490628
 50
36.883627076817334
 51
97.185436999561162
  0
ARC
  5
2D75
  8
0
 10
6.3021513205242812
 20
11.86747856697666
 30
0.0
 40
0.0287129446037934
 50
1.996028687505931
 51
32.235114781179391
  0
LINE
  5
2D76
  8
0
 10
6.330846843350777
 20
11.86847864524715
 30
0.0
 11
6.3307074109094712
 21
11.810025936375
 31
0.0
  0
ARC
  5
2D77
  8
0
 10
6.119544977627287
 20
11.832701592871331
 30
0.0
 40
0.2123766009311813
 50
348.97989775294479
 51
353.87079182519773
  0
ARC
  5
2D78
  8
0
 10
6.293030573201464
 20
11.79002368046468
 30
0.0
 40
0.0341061696655978
 50
354.25519742269228
 51
71.437485448690396
  0
ARC
  5
2D79
  8
0
 10
6.2816417615407518
 20
11.764855396316349
 30
0.0
 40
0.0616535269155704
 50
68.849131058192512
 51
113.63648804590881
  0
ARC
  5
2D7A
  8
0
 10
6.2694601020196954
 20
11.78479132575043
 30
0.0
 40
0.0386360448982892
 50
108.9350472607107
 51
190.94764903499211
  0
ARC
  5
2D7D
  8
0
 10
6.2521522748915972
 20
11.861492780962889
 30
0.0
 40
0.0371093700822737
 50
121.68994279648889
 51
197.13985778594241
  0
ARC
  5
2D7E
  8
0
 10
6.2743969316192931
 20
11.832509144640561
 30
0.0
 40
0.0735504973016722
 50
92.135266141850721
 51
124.5752525505515
  0
ARC
  5
2D80
  8
0
 10
1040.804132909286
 20
162.05898760970541
 30
0.0
 40
1045.4346407343951
 50
188.26086892806379
 51
188.26353340616589
  0
ARC
  5
2D81
  8
0
 10
6.464953096779066
 20
11.865216938162391
 30
0.0
 40
0.2492317551967154
 50
194.58502706462551
 51
198.76537315273339
  0
ARC
  5
2D82
  8
0
 10
6.2829834182254558
 20
11.780162512752449
 30
0.0
 40
0.0114672015663258
 50
340.46011443565561
 51
93.288997151343594
  0
ARC
  5
2D83
  8
0
 10
6.2790409591655862
 20
11.783323379047831
 30
0.0
 40
0.0163244458271923
 50
271.06745093233701
 51
334.6229512015766
  0
ARC
  5
2D84
  8
0
 10
6.2770587027124209
 20
11.78098772258115
 30
0.0
 40
0.0141716072561939
 50
211.12059783366209
 51
279.28435519082279
  0
ARC
  5
2D85
  8
0
 10
6.274706380299703
 20
11.77863502702008
 30
0.0
 40
0.0109709423913591
 50
125.657391497012
 51
206.94767168000939
  0
ARC
  5
2D86
  8
0
 10
6.2800961187797339
 20
11.773094514255311
 30
0.0
 40
0.0186500409851058
 50
83.134525888850604
 51
129.19102460750739
  0
ARC
  5
2D8C
  8
0
 10
6.2644148657762431
 20
11.64084989643627
 30
0.0
 40
0.0944761964497341
 50
42.263593684083382
 51
95.442358887383818
  0
ARC
  5
2D8D
  8
0
 10
6.2954544123669862
 20
11.672679135861751
 30
0.0
 40
0.0501702357091034
 50
324.86924836613292
 51
39.201415439420259
  0
ARC
  5
2D8E
  8
0
 10
6.2689284210710001
 20
11.69032945954649
 30
0.0
 40
0.0820252463623561
 50
298.35650775628068
 51
325.44836980846071
  0
ARC
  5
2D8F
  8
0
 10
6.258153599774448
 20
11.624711931564271
 30
0.0
 40
0.050164725064276
 50
266.7500595763604
 51
352.47967138308348
  0
ARC
  5
2D90
  8
0
 10
6.2536882588196576
 20
11.62039299596826
 30
0.0
 40
0.0457938246180972
 50
191.73127111341839
 51
272.02908699535078
  0
ARC
  5
2D91
  8
0
 10
6.2233293923392479
 20
11.667434278583331
 30
0.0
 40
0.0581823909546348
 50
172.63364949511609
 51
255.59080486906799
  0
ARC
  5
2D92
  8
0
 10
6.2323428652188069
 20
11.658124882179051
 30
0.0
 40
0.0687976087210204
 50
120.2070841717195
 51
165.78513061283141
  0
ARC
  5
2D93
  8
0
 10
6.2591058924332703
 20
11.61787175383124
 30
0.0
 40
0.1170854061774027
 50
91.787179510030995
 51
121.61485758741109
  0
ARC
  5
2D94
  8
0
 10
6.2589462596318466
 20
11.67328719032465
 30
0.0
 40
0.0592279158490628
 50
36.883627076817334
 51
97.185436999561162
  0
ARC
  5
2D95
  8
0
 10
6.2820327611242801
 20
11.69351995607666
 30
0.0
 40
0.0287129446037934
 50
1.996028687505931
 51
32.235114781179391
  0
LINE
  5
2D96
  8
0
 10
6.3107282839507768
 20
11.69452003434715
 30
0.0
 11
6.310588851509471
 21
11.636067325475
 31
0.0
  0
ARC
  5
2D97
  8
0
 10
6.0994264182272868
 20
11.658742981971329
 30
0.0
 40
0.2123766009311813
 50
348.97989775294479
 51
353.87079182519773
  0
ARC
  5
2D98
  8
0
 10
6.2729120138014638
 20
11.61606506956468
 30
0.0
 40
0.0341061696655978
 50
354.25519742269228
 51
71.437485448690396
  0
ARC
  5
2D99
  8
0
 10
6.2615232021407516
 20
11.59089678541635
 30
0.0
 40
0.0616535269155704
 50
68.849131058192512
 51
113.63648804590881
  0
ARC
  5
2D9A
  8
0
 10
6.2493415426196952
 20
11.61083271485043
 30
0.0
 40
0.0386360448982892
 50
108.9350472607107
 51
190.94764903499211
  0
ARC
  5
2D9D
  8
0
 10
6.232033715491597
 20
11.687534170062889
 30
0.0
 40
0.0371093700822737
 50
121.68994279648889
 51
197.13985778594241
  0
ARC
  5
2D9E
  8
0
 10
6.2542783722192921
 20
11.658550533740559
 30
0.0
 40
0.0735504973016722
 50
92.135266141850721
 51
124.5752525505515
  0
ARC
  5
2DA0
  8
0
 10
1040.7840143498861
 20
161.88502899880541
 30
0.0
 40
1045.4346407343951
 50
188.26086892806379
 51
188.26353340616589
  0
ARC
  5
2DA1
  8
0
 10
6.4448345373790659
 20
11.6912583272624
 30
0.0
 40
0.2492317551967154
 50
194.58502706462551
 51
198.76537315273339
  0
ARC
  5
2DA2
  8
0
 10
6.2628648588254556
 20
11.606203901852441
 30
0.0
 40
0.0114672015663258
 50
340.46011443565561
 51
93.288997151343594
  0
ARC
  5
2DA3
  8
0
 10
6.2589223997655861
 20
11.609364768147829
 30
0.0
 40
0.0163244458271923
 50
271.06745093233701
 51
334.6229512015766
  0
ARC
  5
2DA4
  8
0
 10
6.2569401433124208
 20
11.60702911168115
 30
0.0
 40
0.0141716072561939
 50
211.12059783366209
 51
279.28435519082279
  0
ARC
  5
2DA5
  8
0
 10
6.2545878208997028
 20
11.60467641612008
 30
0.0
 40
0.0109709423913591
 50
125.657391497012
 51
206.94767168000939
  0
ARC
  5
2DA6
  8
0
 10
6.2599775593797338
 20
11.599135903355309
 30
0.0
 40
0.0186500409851058
 50
83.134525888850604
 51
129.19102460750739
  0
ARC
  5
2DAC
  8
0
 10
5.9502900171762434
 20
11.938030622936269
 30
0.0
 40
0.0944761964497341
 50
42.263593684083382
 51
95.442358887383818
  0
ARC
  5
2DAD
  8
0
 10
5.9813295637669848
 20
11.96985986236175
 30
0.0
 40
0.0501702357091034
 50
324.86924836613292
 51
39.201415439420259
  0
ARC
  5
2DAE
  8
0
 10
5.9548035724709987
 20
11.987510186046491
 30
0.0
 40
0.0820252463623561
 50
298.35650775628068
 51
325.44836980846071
  0
ARC
  5
2DAF
  8
0
 10
5.9440287511744483
 20
11.921892658064269
 30
0.0
 40
0.050164725064276
 50
266.7500595763604
 51
352.47967138308343
  0
ARC
  5
2DB0
  8
0
 10
5.9395634102196571
 20
11.91757372246826
 30
0.0
 40
0.0457938246180972
 50
191.7312711134183
 51
272.02908699535078
  0
ARC
  5
2DB1
  8
0
 10
5.9092045437392482
 20
11.964615005083321
 30
0.0
 40
0.0581823909546348
 50
172.63364949511609
 51
255.59080486906799
  0
ARC
  5
2DB2
  8
0
 10
5.9182180166188072
 20
11.955305608679041
 30
0.0
 40
0.0687976087210204
 50
120.2070841717195
 51
165.78513061283141
  0
ARC
  5
2DB3
  8
0
 10
5.9449810438332689
 20
11.915052480331241
 30
0.0
 40
0.1170854061774027
 50
91.787179510030995
 51
121.61485758741109
  0
ARC
  5
2DB4
  8
0
 10
5.944821411031846
 20
11.970467916824649
 30
0.0
 40
0.0592279158490628
 50
36.883627076817334
 51
97.185436999561162
  0
ARC
  5
2DB5
  8
0
 10
5.9679079125242804
 20
11.99070068257666
 30
0.0
 40
0.0287129446037934
 50
1.996028687505931
 51
32.235114781179391
  0
LINE
  5
2DB6
  8
0
 10
5.9966034353507771
 20
11.99170076084715
 30
0.0
 11
5.9964640029094696
 21
11.933248051974999
 31
0.0
  0
ARC
  5
2DB7
  8
0
 10
5.7853015696272871
 20
11.955923708471319
 30
0.0
 40
0.2123766009311813
 50
348.97989775294479
 51
353.87079182519773
  0
ARC
  5
2DB8
  8
0
 10
5.9587871652014641
 20
11.913245796064681
 30
0.0
 40
0.0341061696655978
 50
354.25519742269228
 51
71.437485448690396
  0
ARC
  5
2DB9
  8
0
 10
5.9473983535407511
 20
11.88807751191635
 30
0.0
 40
0.0616535269155704
 50
68.849131058192512
 51
113.63648804590881
  0
ARC
  5
2DBA
  8
0
 10
5.9352166940196938
 20
11.90801344135043
 30
0.0
 40
0.0386360448982892
 50
108.9350472607107
 51
190.94764903499211
  0
ARC
  5
2DBD
  8
0
 10
5.9179088668915956
 20
11.98471489656289
 30
0.0
 40
0.0371093700822737
 50
121.68994279648889
 51
197.13985778594241
  0
ARC
  5
2DBE
  8
0
 10
5.9401535236192924
 20
11.95573126024056
 30
0.0
 40
0.0735504973016722
 50
92.135266141850721
 51
124.5752525505515
  0
ARC
  5
2DC0
  8
0
 10
1040.4698895012859
 20
162.1822097253054
 30
0.0
 40
1045.4346407343951
 50
188.26086892806379
 51
188.26353340616589
  0
ARC
  5
2DC1
  8
0
 10
6.1307096887790662
 20
11.98843905376239
 30
0.0
 40
0.2492317551967154
 50
194.58502706462551
 51
198.76537315273339
  0
ARC
  5
2DC2
  8
0
 10
5.9487400102254551
 20
11.903384628352439
 30
0.0
 40
0.0114672015663258
 50
340.46011443565561
 51
93.288997151343594
  0
ARC
  5
2DC3
  8
0
 10
5.9447975511655846
 20
11.90654549464783
 30
0.0
 40
0.0163244458271923
 50
271.06745093233701
 51
334.6229512015766
  0
ARC
  5
2DC4
  8
0
 10
5.9428152947124211
 20
11.904209838181149
 30
0.0
 40
0.0141716072561939
 50
211.12059783366209
 51
279.28435519082279
  0
ARC
  5
2DC5
  8
0
 10
5.9404629722997031
 20
11.901857142620081
 30
0.0
 40
0.0109709423913591
 50
125.657391497012
 51
206.94767168000939
  0
ARC
  5
2DC6
  8
0
 10
5.9458527107797341
 20
11.89631662985531
 30
0.0
 40
0.0186500409851058
 50
83.134525888850604
 51
129.19102460750739
  0
ARC
  5
2DCC
  8
0
 10
5.925143317476242
 20
11.602979517636269
 30
0.0
 40
0.0944761964497341
 50
42.263593684083382
 51
95.442358887383818
  0
ARC
  5
2DCD
  8
0
 10
5.9561828640669852
 20
11.63480875706175
 30
0.0
 40
0.0501702357091034
 50
324.86924836613292
 51
39.201415439420259
  0
ARC
  5
2DCE
  8
0
 10
5.9296568727709991
 20
11.652459080746491
 30
0.0
 40
0.0820252463623561
 50
298.35650775628068
 51
325.44836980846071
  0
ARC
  5
2DCF
  8
0
 10
5.9188820514744469
 20
11.58684155276427
 30
0.0
 40
0.050164725064276
 50
266.7500595763604
 51
352.47967138308348
  0
ARC
  5
2DD0
  8
0
 10
5.9144167105196566
 20
11.58252261716826
 30
0.0
 40
0.0457938246180972
 50
191.73127111341839
 51
272.02908699535078
  0
ARC
  5
2DD1
  8
0
 10
5.8840578440392468
 20
11.62956389978333
 30
0.0
 40
0.0581823909546348
 50
172.63364949511609
 51
255.59080486906799
  0
ARC
  5
2DD2
  8
0
 10
5.8930713169188058
 20
11.620254503379041
 30
0.0
 40
0.0687976087210204
 50
120.2070841717195
 51
165.78513061283141
  0
ARC
  5
2DD3
  8
0
 10
5.9198343441332693
 20
11.580001375031239
 30
0.0
 40
0.1170854061774027
 50
91.787179510030995
 51
121.61485758741109
  0
ARC
  5
2DD4
  8
0
 10
5.9196747113318464
 20
11.635416811524649
 30
0.0
 40
0.0592279158490628
 50
36.883627076817334
 51
97.185436999561162
  0
ARC
  5
2DD5
  8
0
 10
5.942761212824279
 20
11.655649577276661
 30
0.0
 40
0.0287129446037934
 50
1.996028687505931
 51
32.235114781179391
  0
LINE
  5
2DD6
  8
0
 10
5.9714567356507757
 20
11.656649655547151
 30
0.0
 11
5.9713173032094691
 21
11.598196946674999
 31
0.0
  0
ARC
  5
2DD7
  8
0
 10
5.7601548699272858
 20
11.620872603171319
 30
0.0
 40
0.2123766009311813
 50
348.97989775294479
 51
353.87079182519773
  0
ARC
  5
2DD8
  8
0
 10
5.9336404655014627
 20
11.578194690764681
 30
0.0
 40
0.0341061696655978
 50
354.25519742269228
 51
71.437485448690396
  0
ARC
  5
2DD9
  8
0
 10
5.9222516538407506
 20
11.55302640661635
 30
0.0
 40
0.0616535269155704
 50
68.849131058192512
 51
113.63648804590881
  0
ARC
  5
2DDA
  8
0
 10
5.9100699943196942
 20
11.572962336050431
 30
0.0
 40
0.0386360448982892
 50
108.9350472607107
 51
190.94764903499211
  0
ARC
  5
2DDD
  8
0
 10
5.8927621671915951
 20
11.64966379126289
 30
0.0
 40
0.0371093700822737
 50
121.68994279648889
 51
197.13985778594241
  0
ARC
  5
2DDE
  8
0
 10
5.915006823919291
 20
11.62068015494056
 30
0.0
 40
0.0735504973016722
 50
92.135266141850721
 51
124.5752525505515
  0
ARC
  5
2DE0
  8
0
 10
1040.444742801586
 20
161.84715862000539
 30
0.0
 40
1045.4346407343951
 50
188.26086892806379
 51
188.26353340616589
  0
ARC
  5
2DE1
  8
0
 10
6.1055629890790648
 20
11.65338794846239
 30
0.0
 40
0.2492317551967154
 50
194.58502706462551
 51
198.76537315273339
  0
ARC
  5
2DE2
  8
0
 10
5.9235933105254546
 20
11.56833352305244
 30
0.0
 40
0.0114672015663258
 50
340.46011443565561
 51
93.288997151343594
  0
ARC
  5
2DE3
  8
0
 10
5.919650851465585
 20
11.57149438934783
 30
0.0
 40
0.0163244458271923
 50
271.06745093233701
 51
334.6229512015766
  0
ARC
  5
2DE4
  8
0
 10
5.9176685950124197
 20
11.569158732881149
 30
0.0
 40
0.0141716072561939
 50
211.12059783366209
 51
279.28435519082279
  0
ARC
  5
2DE5
  8
0
 10
5.9153162725997017
 20
11.566806037320079
 30
0.0
 40
0.0109709423913591
 50
125.657391497012
 51
206.94767168000939
  0
ARC
  5
2DE6
  8
0
 10
5.9207060110797327
 20
11.56126552455531
 30
0.0
 40
0.0186500409851058
 50
83.134525888850604
 51
129.19102460750739
  0
ARC
  5
2E2C
  8
0
 10
6.207937780026243
 20
12.730311223536271
 30
0.0
 40
0.0944761964497341
 50
42.263593684083382
 51
95.442358887383818
  0
ARC
  5
2E2D
  8
0
 10
6.2389773266169861
 20
12.762140462961749
 30
0.0
 40
0.0501702357091034
 50
324.86924836613292
 51
39.201415439420259
  0
ARC
  5
2E2E
  8
0
 10
6.212451335321
 20
12.77979078664649
 30
0.0
 40
0.0820252463623561
 50
298.35650775628068
 51
325.44836980846071
  0
ARC
  5
2E2F
  8
0
 10
6.2016765140244479
 20
12.71417325866428
 30
0.0
 40
0.050164725064276
 50
266.7500595763604
 51
352.47967138308343
  0
ARC
  5
2E30
  8
0
 10
6.1972111730696584
 20
12.70985432306826
 30
0.0
 40
0.0457938246180972
 50
191.7312711134183
 51
272.02908699535078
  0
ARC
  5
2E31
  8
0
 10
6.1668523065892478
 20
12.756895605683329
 30
0.0
 40
0.0581823909546348
 50
172.63364949511609
 51
255.59080486906799
  0
ARC
  5
2E32
  8
0
 10
6.1758657794688068
 20
12.747586209279049
 30
0.0
 40
0.0687976087210204
 50
120.2070841717195
 51
165.78513061283141
  0
ARC
  5
2E33
  8
0
 10
6.2026288066832702
 20
12.707333080931241
 30
0.0
 40
0.1170854061774027
 50
91.787179510030995
 51
121.61485758741109
  0
ARC
  5
2E34
  8
0
 10
6.2024691738818474
 20
12.76274851742466
 30
0.0
 40
0.0592279158490628
 50
36.883627076817334
 51
97.185436999561162
  0
ARC
  5
2E35
  8
0
 10
6.22555567537428
 20
12.78298128317666
 30
0.0
 40
0.0287129446037934
 50
1.996028687505931
 51
32.235114781179391
  0
LINE
  5
2E36
  8
0
 10
6.2542511982007767
 20
12.78398136144715
 30
0.0
 11
6.25411176575947
 21
12.725528652575001
 31
0.0
  0
ARC
  5
2E37
  8
0
 10
6.0429493324772867
 20
12.74820430907133
 30
0.0
 40
0.2123766009311813
 50
348.97989775294479
 51
353.87079182519773
  0
ARC
  5
2E38
  8
0
 10
6.2164349280514637
 20
12.705526396664681
 30
0.0
 40
0.0341061696655978
 50
354.25519742269228
 51
71.437485448690396
  0
ARC
  5
2E39
  8
0
 10
6.2050461163907524
 20
12.68035811251635
 30
0.0
 40
0.0616535269155704
 50
68.849131058192512
 51
113.63648804590881
  0
ARC
  5
2E3A
  8
0
 10
6.1928644568696951
 20
12.70029404195043
 30
0.0
 40
0.0386360448982892
 50
108.9350472607107
 51
190.94764903499211
  0
ARC
  5
2E3D
  8
0
 10
6.175556629741596
 20
12.77699549716289
 30
0.0
 40
0.0371093700822737
 50
121.68994279648889
 51
197.13985778594241
  0
ARC
  5
2E3E
  8
0
 10
6.197801286469292
 20
12.74801186084056
 30
0.0
 40
0.0735504973016722
 50
92.135266141850721
 51
124.5752525505515
  0
ARC
  5
2E40
  8
0
 10
1040.7275372641359
 20
162.97449032590541
 30
0.0
 40
1045.4346407343951
 50
188.26086892806379
 51
188.26353340616589
  0
ARC
  5
2E41
  8
0
 10
6.3883574516290658
 20
12.7807196543624
 30
0.0
 40
0.2492317551967154
 50
194.58502706462551
 51
198.76537315273339
  0
ARC
  5
2E42
  8
0
 10
6.2063877730754564
 20
12.69566522895245
 30
0.0
 40
0.0114672015663258
 50
340.46011443565561
 51
93.288997151343594
  0
ARC
  5
2E43
  8
0
 10
6.2024453140155851
 20
12.69882609524783
 30
0.0
 40
0.0163244458271923
 50
271.06745093233701
 51
334.6229512015766
  0
ARC
  5
2E44
  8
0
 10
6.2004630575624207
 20
12.696490438781151
 30
0.0
 40
0.0141716072561939
 50
211.12059783366209
 51
279.28435519082279
  0
ARC
  5
2E45
  8
0
 10
6.1981107351497027
 20
12.694137743220081
 30
0.0
 40
0.0109709423913591
 50
125.657391497012
 51
206.94767168000939
  0
ARC
  5
2E46
  8
0
 10
6.2035004736297337
 20
12.68859723045532
 30
0.0
 40
0.0186500409851058
 50
83.134525888850604
 51
129.19102460750739
  0
ARC
  5
2E6C
  8
0
 10
6.2090245489762426
 20
12.22159761173627
 30
0.0
 40
0.0944761964497341
 50
42.263593684083382
 51
95.442358887383818
  0
ARC
  5
2E6D
  8
0
 10
6.2400640955669848
 20
12.25342685116175
 30
0.0
 40
0.0501702357091034
 50
324.86924836613292
 51
39.201415439420259
  0
ARC
  5
2E6E
  8
0
 10
6.2135381042709987
 20
12.271077174846489
 30
0.0
 40
0.0820252463623561
 50
298.35650775628068
 51
325.44836980846071
  0
ARC
  5
2E6F
  8
0
 10
6.2027632829744483
 20
12.205459646864281
 30
0.0
 40
0.050164725064276
 50
266.7500595763604
 51
352.47967138308343
  0
ARC
  5
2E70
  8
0
 10
6.198297942019658
 20
12.201140711268261
 30
0.0
 40
0.0457938246180972
 50
191.7312711134183
 51
272.02908699535078
  0
ARC
  5
2E71
  8
0
 10
6.1679390755392483
 20
12.24818199388333
 30
0.0
 40
0.0581823909546348
 50
172.63364949511609
 51
255.59080486906799
  0
ARC
  5
2E72
  8
0
 10
6.1769525484188073
 20
12.238872597479039
 30
0.0
 40
0.0687976087210204
 50
120.2070841717195
 51
165.78513061283141
  0
ARC
  5
2E73
  8
0
 10
6.2037155756332689
 20
12.19861946913124
 30
0.0
 40
0.1170854061774027
 50
91.787179510030995
 51
121.61485758741109
  0
ARC
  5
2E74
  8
0
 10
6.2035559428318461
 20
12.25403490562466
 30
0.0
 40
0.0592279158490628
 50
36.883627076817334
 51
97.185436999561162
  0
ARC
  5
2E75
  8
0
 10
6.2266424443242796
 20
12.274267671376659
 30
0.0
 40
0.0287129446037934
 50
1.996028687505931
 51
32.235114781179391
  0
LINE
  5
2E76
  8
0
 10
6.2553379671507772
 20
12.275267749647149
 30
0.0
 11
6.2551985347094696
 21
12.216815040775
 31
0.0
  0
ARC
  5
2E77
  8
0
 10
6.0440361014272872
 20
12.23949069727132
 30
0.0
 40
0.2123766009311813
 50
348.97989775294479
 51
353.87079182519773
  0
ARC
  5
2E78
  8
0
 10
6.2175216970014642
 20
12.196812784864679
 30
0.0
 40
0.0341061696655978
 50
354.25519742269228
 51
71.437485448690396
  0
ARC
  5
2E79
  8
0
 10
6.206132885340752
 20
12.171644500716351
 30
0.0
 40
0.0616535269155704
 50
68.849131058192512
 51
113.63648804590881
  0
ARC
  5
2E7A
  8
0
 10
6.1939512258196938
 20
12.191580430150429
 30
0.0
 40
0.0386360448982892
 50
108.9350472607107
 51
190.94764903499211
  0
ARC
  5
2E7D
  8
0
 10
6.1766433986915956
 20
12.268281885362891
 30
0.0
 40
0.0371093700822737
 50
121.68994279648889
 51
197.13985778594241
  0
ARC
  5
2E7E
  8
0
 10
6.1988880554192924
 20
12.23929824904056
 30
0.0
 40
0.0735504973016722
 50
92.135266141850721
 51
124.5752525505515
  0
ARC
  5
2E80
  8
0
 10
1040.7286240330859
 20
162.4657767141054
 30
0.0
 40
1045.4346407343951
 50
188.26086892806379
 51
188.26353340616589
  0
ARC
  5
2E81
  8
0
 10
6.3894442205790662
 20
12.272006042562399
 30
0.0
 40
0.2492317551967154
 50
194.58502706462551
 51
198.76537315273339
  0
ARC
  5
2E82
  8
0
 10
6.207474542025456
 20
12.186951617152451
 30
0.0
 40
0.0114672015663258
 50
340.46011443565561
 51
93.288997151343594
  0
ARC
  5
2E83
  8
0
 10
6.2035320829655847
 20
12.19011248344783
 30
0.0
 40
0.0163244458271923
 50
271.06745093233701
 51
334.6229512015766
  0
ARC
  5
2E84
  8
0
 10
6.2015498265124211
 20
12.18777682698115
 30
0.0
 40
0.0141716072561939
 50
211.12059783366209
 51
279.28435519082279
  0
ARC
  5
2E85
  8
0
 10
6.1991975040997032
 20
12.18542413142008
 30
0.0
 40
0.0109709423913591
 50
125.657391497012
 51
206.94767168000939
  0
ARC
  5
2E86
  8
0
 10
6.2045872425797342
 20
12.17988361865531
 30
0.0
 40
0.0186500409851058
 50
83.134525888850604
 51
129.19102460750739
  0
ARC
  5
2E8C
  8
0
 10
5.9215414089279408
 20
13.62623017693325
 30
0.0
 40
0.0944761964497341
 50
42.263593684083382
 51
95.442358887383818
  0
ARC
  5
2E8D
  8
0
 10
5.952580955518683
 20
13.65805941635873
 30
0.0
 40
0.0501702357091034
 50
324.86924836613292
 51
39.201415439420259
  0
ARC
  5
2E8E
  8
0
 10
5.926054964222697
 20
13.67570974004347
 30
0.0
 40
0.0820252463623561
 50
298.35650775628068
 51
325.44836980846071
  0
ARC
  5
2E8F
  8
0
 10
5.9152801429261457
 20
13.61009221206125
 30
0.0
 40
0.050164725064276
 50
266.7500595763604
 51
352.47967138308343
  0
ARC
  5
2E90
  8
0
 10
5.9108148019713562
 20
13.605773276465239
 30
0.0
 40
0.0457938246180972
 50
191.7312711134183
 51
272.02908699535078
  0
ARC
  5
2E91
  8
0
 10
5.8804559354909456
 20
13.65281455908031
 30
0.0
 40
0.0581823909546348
 50
172.63364949511609
 51
255.59080486906799
  0
ARC
  5
2E92
  8
0
 10
5.8894694083705046
 20
13.64350516267602
 30
0.0
 40
0.0687976087210204
 50
120.2070841717195
 51
165.78513061283141
  0
ARC
  5
2E93
  8
0
 10
5.916232435584968
 20
13.60325203432822
 30
0.0
 40
0.1170854061774027
 50
91.787179510030995
 51
121.61485758741109
  0
ARC
  5
2E94
  8
0
 10
5.9160728027835452
 20
13.65866747082163
 30
0.0
 40
0.0592279158490628
 50
36.883627076817334
 51
97.185436999561162
  0
ARC
  5
2E95
  8
0
 10
5.9391593042759778
 20
13.678900236573639
 30
0.0
 40
0.0287129446037934
 50
1.996028687505931
 51
32.235114781179391
  0
LINE
  5
2E96
  8
0
 10
5.9678548271024754
 20
13.679900314844129
 30
0.0
 11
5.9677153946611678
 21
13.621447605971969
 31
0.0
  0
ARC
  5
2E97
  8
0
 10
5.7565529613789854
 20
13.6441232624683
 30
0.0
 40
0.2123766009311813
 50
348.97989775294479
 51
353.87079182519773
  0
ARC
  5
2E98
  8
0
 10
5.9300385569531624
 20
13.60144535006166
 30
0.0
 40
0.0341061696655978
 50
354.25519742269228
 51
71.437485448690396
  0
ARC
  5
2E99
  8
0
 10
5.9186497452924502
 20
13.576277065913329
 30
0.0
 40
0.0616535269155704
 50
68.849131058192512
 51
113.63648804590881
  0
ARC
  5
2E9A
  8
0
 10
5.906468085771392
 20
13.596212995347409
 30
0.0
 40
0.0386360448982892
 50
108.9350472607107
 51
193.05206487686229
  0
ARC
  5
2E9D
  8
0
 10
5.8891602586432938
 20
13.672914450559871
 30
0.0
 40
0.0371093700822737
 50
121.68994279648889
 51
197.13985778594241
  0
ARC
  5
2E9E
  8
0
 10
5.9114049153709898
 20
13.643930814237541
 30
0.0
 40
0.0735504973016722
 50
92.135266141850721
 51
124.5752525505515
  0
ARC
  5
2EA0
  8
0
 10
1040.4411408930371
 20
163.87040927930241
 30
0.0
 40
1045.4346407343951
 50
188.26086892806379
 51
188.26353340616589
  0
ARC
  5
2EA1
  8
0
 10
6.1019610805307636
 20
13.67663860775937
 30
0.0
 40
0.2492317551967154
 50
194.58502706462551
 51
198.76537315273339
  0
ARC
  5
2EA2
  8
0
 10
5.9199914019771542
 20
13.59158418234942
 30
0.0
 40
0.0114672015663258
 50
340.46011443565561
 51
93.288997151343565
  0
ARC
  5
2EA3
  8
0
 10
5.9160489429172829
 20
13.59474504864481
 30
0.0
 40
0.0163244458271923
 50
271.06745093233701
 51
334.6229512015766
  0
ARC
  5
2EA4
  8
0
 10
5.9140666864641194
 20
13.592409392178119
 30
0.0
 40
0.0141716072561939
 50
211.12059783366209
 51
279.28435519082279
  0
ARC
  5
2EA5
  8
0
 10
5.9117143640514014
 20
13.59005669661706
 30
0.0
 40
0.0109709423913591
 50
125.657391497012
 51
206.94767168000939
  0
ARC
  5
2EA6
  8
0
 10
5.9171041025314324
 20
13.584516183852291
 30
0.0
 40
0.0186500409851058
 50
83.134525888850604
 51
129.19102460750739
  0
ARC
  5
2EAC
  8
0
 10
5.5736136769670201
 20
13.62978768461554
 30
0.0
 40
0.0944761964497341
 50
42.263593684083382
 51
95.442358887383818
  0
ARC
  5
2EAD
  8
0
 10
5.6046532235577624
 20
13.66161692404102
 30
0.0
 40
0.0501702357091034
 50
324.86924836613292
 51
39.201415439420259
  0
ARC
  5
2EAE
  8
0
 10
5.5781272322617763
 20
13.679267247725759
 30
0.0
 40
0.0820252463623561
 50
298.35650775628068
 51
325.44836980846071
  0
ARC
  5
2EAF
  8
0
 10
5.567352410965225
 20
13.61364971974354
 30
0.0
 40
0.050164725064276
 50
266.7500595763604
 51
352.47967138308343
  0
ARC
  5
2EB0
  8
0
 10
5.5628870700104338
 20
13.60933078414752
 30
0.0
 40
0.0457938246180972
 50
191.7312711134183
 51
272.02908699535078
  0
ARC
  5
2EB1
  8
0
 10
5.5325282035300241
 20
13.656372066762589
 30
0.0
 40
0.0581823909546348
 50
172.63364949511609
 51
255.59080486906799
  0
ARC
  5
2EB2
  8
0
 10
5.5415416764095831
 20
13.647062670358309
 30
0.0
 40
0.0687976087210204
 50
120.2070841717195
 51
165.78513061283141
  0
ARC
  5
2EB3
  8
0
 10
5.5683047036240456
 20
13.606809542010501
 30
0.0
 40
0.1170854061774027
 50
91.787179510030995
 51
121.61485758741109
  0
ARC
  5
2EB4
  8
0
 10
5.5681450708226228
 20
13.66222497850392
 30
0.0
 40
0.0592279158490628
 50
36.883627076817334
 51
97.185436999561162
  0
ARC
  5
2EB5
  8
0
 10
5.5912315723150572
 20
13.68245774425592
 30
0.0
 40
0.0287129446037934
 50
1.996028687505931
 51
32.235114781179391
  0
LINE
  5
2EB6
  8
0
 10
5.619927095141553
 20
13.683457822526419
 30
0.0
 11
5.6197876627002472
 21
13.625005113654259
 31
0.0
  0
ARC
  5
2EB7
  8
0
 10
5.408625229418063
 20
13.64768077015059
 30
0.0
 40
0.2123766009311813
 50
348.97989775294479
 51
353.87079182519773
  0
ARC
  5
2EB8
  8
0
 10
5.58211082499224
 20
13.605002857743941
 30
0.0
 40
0.0341061696655978
 50
354.25519742269228
 51
71.437485448690396
  0
ARC
  5
2EB9
  8
0
 10
5.5707220133315278
 20
13.57983457359561
 30
0.0
 40
0.0616535269155704
 50
68.849131058192512
 51
113.63648804590881
  0
ARC
  5
2EBA
  8
0
 10
5.5585403538104714
 20
13.599770503029699
 30
0.0
 40
0.0386360448982892
 50
108.9350472607107
 51
190.94764903499211
  0
ARC
  5
2EBC
  8
0
 10
5.9525044961477231
 20
13.51768186989227
 30
0.0
 40
0.3660419562072655
 50
153.9202023564925
 51
155.32104538299981
  0
ARC
  5
2EBD
  8
0
 10
5.5412325266823732
 20
13.67647195824215
 30
0.0
 40
0.0371093700822737
 50
121.68994279648889
 51
197.13985778594241
  0
ARC
  5
2EBE
  8
0
 10
5.5634771834100691
 20
13.64748832191982
 30
0.0
 40
0.0735504973016722
 50
92.135266141850721
 51
124.5752525505515
  0
ARC
  5
2EC0
  8
0
 10
1040.0932131610759
 20
163.87396678698471
 30
0.0
 40
1045.4346407343951
 50
188.26086892806379
 51
188.26353340616589
  0
ARC
  5
2EC1
  8
0
 10
5.7540333485698421
 20
13.68019611544166
 30
0.0
 40
0.2492317551967154
 50
194.58502706462551
 51
198.76537315273339
  0
ARC
  5
2EC2
  8
0
 10
5.5720636700162318
 20
13.59514169003171
 30
0.0
 40
0.0114672015663258
 50
340.46011443565561
 51
93.288997151343565
  0
ARC
  5
2EC3
  8
0
 10
5.5681212109563623
 20
13.5983025563271
 30
0.0
 40
0.0163244458271923
 50
271.06745093233701
 51
334.6229512015766
  0
ARC
  5
2EC4
  8
0
 10
5.566138954503197
 20
13.595966899860411
 30
0.0
 40
0.0141716072561939
 50
211.12059783366209
 51
279.28435519082279
  0
ARC
  5
2EC5
  8
0
 10
5.563786632090479
 20
13.59361420429935
 30
0.0
 40
0.0109709423913591
 50
125.657391497012
 51
206.94767168000939
  0
ARC
  5
2EC6
  8
0
 10
5.56917637057051
 20
13.58807369153458
 30
0.0
 40
0.0186500409851058
 50
83.134525888850604
 51
129.19102460750739
  0
ARC
  5
2ECC
  8
0
 10
5.7512501798617821
 20
13.352486223014431
 30
0.0
 40
0.0944761964497341
 50
42.263593684083382
 51
95.442358887383818
  0
ARC
  5
2ECD
  8
0
 10
5.7822897264525244
 20
13.384315462439909
 30
0.0
 40
0.0501702357091034
 50
324.86924836613292
 51
39.201415439420259
  0
ARC
  5
2ECE
  8
0
 10
5.7557637351565383
 20
13.40196578612465
 30
0.0
 40
0.0820252463623561
 50
298.35650775628068
 51
325.44836980846071
  0
ARC
  5
2ECF
  8
0
 10
5.744988913859987
 20
13.336348258142429
 30
0.0
 40
0.050164725064276
 50
266.7500595763604
 51
352.47967138308343
  0
ARC
  5
2ED0
  8
0
 10
5.7405235729051958
 20
13.332029322546409
 30
0.0
 40
0.0457938246180972
 50
191.7312711134183
 51
272.02908699535078
  0
ARC
  5
2ED1
  8
0
 10
5.710164706424786
 20
13.379070605161481
 30
0.0
 40
0.0581823909546348
 50
172.63364949511609
 51
255.59080486906799
  0
ARC
  5
2ED2
  8
0
 10
5.719178179304345
 20
13.3697612087572
 30
0.0
 40
0.0687976087210204
 50
120.2070841717195
 51
165.78513061283141
  0
ARC
  5
2ED3
  8
0
 10
5.7459412065188076
 20
13.329508080409401
 30
0.0
 40
0.1170854061774027
 50
91.787179510030995
 51
121.61485758741109
  0
ARC
  5
2ED4
  8
0
 10
5.7457815737173847
 20
13.384923516902809
 30
0.0
 40
0.0592279158490628
 50
36.883627076817334
 51
97.185436999561162
  0
ARC
  5
2ED5
  8
0
 10
5.7688680752098191
 20
13.40515628265482
 30
0.0
 40
0.0287129446037934
 50
1.996028687505931
 51
32.235114781179391
  0
LINE
  5
2ED6
  8
0
 10
5.7975635980363149
 20
13.40615636092531
 30
0.0
 11
5.7974241655950092
 21
13.34770365205315
 31
0.0
  0
ARC
  5
2ED7
  8
0
 10
5.586261732312825
 20
13.370379308549481
 30
0.0
 40
0.2123766009311813
 50
348.97989775294479
 51
353.87079182519773
  0
ARC
  5
2ED8
  8
0
 10
5.7597473278870019
 20
13.32770139614283
 30
0.0
 40
0.0341061696655978
 50
354.25519742269228
 51
71.437485448690396
  0
ARC
  5
2ED9
  8
0
 10
5.7483585162262898
 20
13.30253311199451
 30
0.0
 40
0.0616535269155704
 50
68.849131058192512
 51
113.63648804590881
  0
ARC
  5
2EDA
  8
0
 10
5.7361768567052334
 20
13.32246904142859
 30
0.0
 40
0.0386360448982892
 50
108.9350472607107
 51
190.94764903499211
  0
ARC
  5
2EDD
  8
0
 10
5.7188690295771352
 20
13.39917049664105
 30
0.0
 40
0.0371093700822737
 50
121.68994279648889
 51
197.13985778594241
  0
ARC
  5
2EDE
  8
0
 10
5.7411136863048311
 20
13.37018686031872
 30
0.0
 40
0.0735504973016722
 50
92.135266141850721
 51
124.5752525505515
  0
ARC
  5
2EE0
  8
0
 10
1040.2708496639709
 20
163.59666532538361
 30
0.0
 40
1045.4346407343951
 50
188.26086892806379
 51
188.26353340616589
  0
ARC
  5
2EE1
  8
0
 10
5.931669851464604
 20
13.40289465384055
 30
0.0
 40
0.2492317551967154
 50
194.58502706462551
 51
198.76537315273339
  0
ARC
  5
2EE2
  8
0
 10
5.7497001729109938
 20
13.317840228430599
 30
0.0
 40
0.0114672015663258
 50
340.46011443565561
 51
93.288997151343565
  0
ARC
  5
2EE3
  8
0
 10
5.7457577138511242
 20
13.32100109472599
 30
0.0
 40
0.0163244458271923
 50
271.06745093233701
 51
334.6229512015766
  0
ARC
  5
2EE4
  8
0
 10
5.7437754573979589
 20
13.3186654382593
 30
0.0
 40
0.0141716072561939
 50
211.12059783366209
 51
279.28435519082279
  0
ARC
  5
2EE5
  8
0
 10
5.7414231349852409
 20
13.316312742698241
 30
0.0
 40
0.0109709423913591
 50
125.657391497012
 51
206.94767168000939
  0
ARC
  5
2EE6
  8
0
 10
5.7468128734652719
 20
13.31077222993347
 30
0.0
 40
0.0186500409851058
 50
83.134525888850604
 51
129.19102460750739
  0
ARC
  5
2EEC
  8
0
 10
5.5532396698254667
 20
13.082857564589119
 30
0.0
 40
0.0944761964497341
 50
42.263593684083382
 51
95.442358887383818
  0
ARC
  5
2EED
  8
0
 10
5.5842792164162089
 20
13.1146868040146
 30
0.0
 40
0.0501702357091034
 50
324.86924836613292
 51
39.201415439420259
  0
ARC
  5
2EEE
  8
0
 10
5.5577532251202229
 20
13.132337127699341
 30
0.0
 40
0.0820252463623561
 50
298.35650775628068
 51
325.44836980846071
  0
ARC
  5
2EEF
  8
0
 10
5.5469784038236716
 20
13.066719599717119
 30
0.0
 40
0.050164725064276
 50
266.7500595763604
 51
352.47967138308343
  0
ARC
  5
2EF0
  8
0
 10
5.5425130628688821
 20
13.0624006641211
 30
0.0
 40
0.0457938246180972
 50
191.7312711134183
 51
272.02908699535078
  0
ARC
  5
2EF1
  8
0
 10
5.5121541963884724
 20
13.109441946736171
 30
0.0
 40
0.0581823909546348
 50
172.63364949511609
 51
255.59080486906799
  0
ARC
  5
2EF2
  8
0
 10
5.5211676692680314
 20
13.100132550331891
 30
0.0
 40
0.0687976087210204
 50
120.2070841717195
 51
165.78513061283141
  0
ARC
  5
2EF3
  8
0
 10
5.547930696482493
 20
13.05987942198408
 30
0.0
 40
0.1170854061774027
 50
91.787179510030995
 51
121.61485758741109
  0
ARC
  5
2EF4
  8
0
 10
5.5477710636810711
 20
13.115294858477499
 30
0.0
 40
0.0592279158490628
 50
36.883627076817334
 51
97.185436999561162
  0
ARC
  5
2EF5
  8
0
 10
5.5708575651735037
 20
13.1355276242295
 30
0.0
 40
0.0287129446037934
 50
1.9960286875059301
 51
32.235114781179391
  0
LINE
  5
2EF6
  8
0
 10
5.5995530880000013
 20
13.1365277025
 30
0.0
 11
5.5994136555586937
 21
13.07807499362784
 31
0.0
  0
ARC
  5
2EF7
  8
0
 10
5.3882512222765113
 20
13.100750650124169
 30
0.0
 40
0.2123766009311813
 50
348.97989775294479
 51
353.87079182519773
  0
ARC
  5
2EF8
  8
0
 10
5.5617368178506883
 20
13.05807273771752
 30
0.0
 40
0.0341061696655978
 50
354.25519742269228
 51
71.437485448690396
  0
ARC
  5
2EF9
  8
0
 10
5.5503480061899761
 20
13.0329044535692
 30
0.0
 40
0.0616535269155704
 50
68.849131058192512
 51
113.63648804590881
  0
ARC
  5
2EFA
  8
0
 10
5.5381663466689179
 20
13.05284038300327
 30
0.0
 40
0.0386360448982892
 50
108.9350472607107
 51
190.94764903499211
  0
ARC
  5
2EFD
  8
0
 10
5.5208585195408197
 20
13.129541838215729
 30
0.0
 40
0.0371093700822737
 50
121.68994279648889
 51
197.13985778594241
  0
ARC
  5
2EFE
  8
0
 10
5.5431031762685157
 20
13.100558201893399
 30
0.0
 40
0.0735504973016722
 50
92.135266141850721
 51
124.5752525505515
  0
ARC
  5
2F00
  8
0
 10
1040.0728391539351
 20
163.32703666695821
 30
0.0
 40
1045.4346407343951
 50
188.26086892806379
 51
188.26353340616589
  0
ARC
  5
2F01
  8
0
 10
5.7336593414282904
 20
13.13326599541524
 30
0.0
 40
0.2492317551967154
 50
194.58502706462551
 51
198.76537315273339
  0
ARC
  5
2F02
  8
0
 10
5.5516896628746801
 20
13.048211570005289
 30
0.0
 40
0.0114672015663258
 50
340.46011443565561
 51
93.288997151343565
  0
ARC
  5
2F03
  8
0
 10
5.5477472038148088
 20
13.05137243630068
 30
0.0
 40
0.0163244458271923
 50
271.06745093233701
 51
334.6229512015766
  0
ARC
  5
2F04
  8
0
 10
5.5457649473616453
 20
13.04903677983399
 30
0.0
 40
0.0141716072561939
 50
211.12059783366209
 51
279.28435519082279
  0
ARC
  5
2F05
  8
0
 10
5.5434126249489273
 20
13.046684084272931
 30
0.0
 40
0.0109709423913591
 50
125.657391497012
 51
206.94767168000939
  0
ARC
  5
2F06
  8
0
 10
5.5488023634289583
 20
13.04114357150816
 30
0.0
 40
0.0186500409851058
 50
83.134525888850604
 51
129.19102460750739
  0
ARC
  5
2F0C
  8
0
 10
5.7511496560941291
 20
12.8520158894577
 30
0.0
 40
0.0944761964497341
 50
42.263593684083382
 51
95.442358887383818
  0
ARC
  5
2F0D
  8
0
 10
5.7821892026848714
 20
12.883845128883181
 30
0.0
 40
0.0501702357091034
 50
324.86924836613292
 51
39.201415439420259
  0
ARC
  5
2F0E
  8
0
 10
5.7556632113888853
 20
12.90149545256792
 30
0.0
 40
0.0820252463623561
 50
298.35650775628068
 51
325.44836980846071
  0
ARC
  5
2F0F
  8
0
 10
5.7448883900923331
 20
12.835877924585709
 30
0.0
 40
0.050164725064276
 50
266.7500595763604
 51
352.47967138308343
  0
ARC
  5
2F10
  8
0
 10
5.7404230491375428
 20
12.831558988989689
 30
0.0
 40
0.0457938246180972
 50
191.7312711134183
 51
272.02908699535078
  0
ARC
  5
2F11
  8
0
 10
5.710064182657133
 20
12.878600271604761
 30
0.0
 40
0.0581823909546348
 50
172.63364949511609
 51
255.59080486906799
  0
ARC
  5
2F12
  8
0
 10
5.719077655536692
 20
12.86929087520048
 30
0.0
 40
0.0687976087210204
 50
120.2070841717195
 51
165.78513061283141
  0
ARC
  5
2F13
  8
0
 10
5.7458406827511546
 20
12.82903774685267
 30
0.0
 40
0.1170854061774027
 50
91.787179510030995
 51
121.61485758741109
  0
ARC
  5
2F14
  8
0
 10
5.7456810499497317
 20
12.88445318334608
 30
0.0
 40
0.0592279158490628
 50
36.883627076817334
 51
97.185436999561162
  0
ARC
  5
2F15
  8
0
 10
5.7687675514421661
 20
12.90468594909809
 30
0.0
 40
0.0287129446037934
 50
1.996028687505933
 51
32.235114781179391
  0
LINE
  5
2F16
  8
0
 10
5.7974630742686619
 20
12.90568602736858
 30
0.0
 11
5.7973236418273562
 21
12.84723331849643
 31
0.0
  0
ARC
  5
2F17
  8
0
 10
5.586161208545172
 20
12.869908974992761
 30
0.0
 40
0.2123766009311813
 50
348.97989775294479
 51
353.87079182519773
  0
ARC
  5
2F18
  8
0
 10
5.7596468041193489
 20
12.82723106258611
 30
0.0
 40
0.0341061696655978
 50
354.25519742269228
 51
71.437485448690396
  0
ARC
  5
2F19
  8
0
 10
5.7482579924586368
 20
12.802062778437779
 30
0.0
 40
0.0616535269155704
 50
68.849131058192512
 51
113.63648804590881
  0
ARC
  5
2F1A
  8
0
 10
5.7360763329375803
 20
12.82199870787186
 30
0.0
 40
0.0386360448982892
 50
108.9350472607107
 51
190.94764903499211
  0
ARC
  5
2F1D
  8
0
 10
5.7187685058094821
 20
12.898700163084319
 30
0.0
 40
0.0371093700822737
 50
121.68994279648889
 51
197.13985778594241
  0
ARC
  5
2F1E
  8
0
 10
5.7410131625371781
 20
12.869716526761991
 30
0.0
 40
0.0735504973016722
 50
92.135266141850721
 51
124.5752525505515
  0
ARC
  5
2F20
  8
0
 10
1040.2707491402041
 20
163.09619499182679
 30
0.0
 40
1045.4346407343951
 50
188.26086892806379
 51
188.26353340616589
  0
ARC
  5
2F21
  8
0
 10
5.931569327696951
 20
12.90242432028383
 30
0.0
 40
0.2492317551967154
 50
194.58502706462551
 51
198.76537315273339
  0
ARC
  5
2F22
  8
0
 10
5.7495996491433408
 20
12.817369894873879
 30
0.0
 40
0.0114672015663258
 50
340.46011443565561
 51
93.288997151343565
  0
ARC
  5
2F23
  8
0
 10
5.7456571900834712
 20
12.820530761169261
 30
0.0
 40
0.0163244458271923
 50
271.06745093233701
 51
334.6229512015766
  0
ARC
  5
2F24
  8
0
 10
5.7436749336303059
 20
12.81819510470258
 30
0.0
 40
0.0141716072561939
 50
211.12059783366209
 51
279.28435519082279
  0
ARC
  5
2F25
  8
0
 10
5.7413226112175879
 20
12.81584240914151
 30
0.0
 40
0.0109709423913591
 50
125.657391497012
 51
206.94767168000939
  0
ARC
  5
2F26
  8
0
 10
5.7467123496976189
 20
12.81030189637675
 30
0.0
 40
0.0186500409851058
 50
83.134525888850604
 51
129.19102460750739
  0
ARC
  5
2F2C
  8
0
 10
5.9504762114254666
 20
13.085879011589119
 30
0.0
 40
0.0944761964497341
 50
42.263593684083382
 51
95.442358887383818
  0
ARC
  5
2F2D
  8
0
 10
5.9815157580162088
 20
13.1177082510146
 30
0.0
 40
0.0501702357091034
 50
324.86924836613292
 51
39.201415439420259
  0
ARC
  5
2F2E
  8
0
 10
5.9549897667202227
 20
13.135358574699341
 30
0.0
 40
0.0820252463623561
 50
298.35650775628068
 51
325.44836980846071
  0
ARC
  5
2F2F
  8
0
 10
5.9442149454236723
 20
13.06974104671712
 30
0.0
 40
0.050164725064276
 50
266.7500595763604
 51
352.47967138308343
  0
ARC
  5
2F30
  8
0
 10
5.939749604468882
 20
13.0654221111211
 30
0.0
 40
0.0457938246180972
 50
191.7312711134183
 51
272.02908699535078
  0
ARC
  5
2F31
  8
0
 10
5.9093907379884723
 20
13.112463393736171
 30
0.0
 40
0.0581823909546348
 50
172.63364949511609
 51
255.59080486906799
  0
ARC
  5
2F32
  8
0
 10
5.9184042108680313
 20
13.103153997331891
 30
0.0
 40
0.0687976087210204
 50
120.2070841717195
 51
165.78513061283141
  0
ARC
  5
2F33
  8
0
 10
5.9451672380824929
 20
13.06290086898408
 30
0.0
 40
0.1170854061774027
 50
91.787179510030995
 51
121.61485758741109
  0
ARC
  5
2F34
  8
0
 10
5.9450076052810701
 20
13.118316305477499
 30
0.0
 40
0.0592279158490628
 50
36.883627076817334
 51
97.185436999561162
  0
ARC
  5
2F35
  8
0
 10
5.9680941067735036
 20
13.1385490712295
 30
0.0
 40
0.0287129446037934
 50
1.9960286875059301
 51
32.235114781179391
  0
LINE
  5
2F36
  8
0
 10
5.9967896296000012
 20
13.139549149500001
 30
0.0
 11
5.9966501971586936
 21
13.08109644062784
 31
0.0
  0
ARC
  5
2F37
  8
0
 10
5.7854877638765112
 20
13.103772097124169
 30
0.0
 40
0.2123766009311813
 50
348.97989775294479
 51
353.87079182519773
  0
ARC
  5
2F38
  8
0
 10
5.9589733594506882
 20
13.06109418471752
 30
0.0
 40
0.0341061696655978
 50
354.25519742269228
 51
71.437485448690396
  0
ARC
  5
2F39
  8
0
 10
5.947584547789976
 20
13.0359259005692
 30
0.0
 40
0.0616535269155704
 50
68.849131058192512
 51
113.63648804590881
  0
ARC
  5
2F3A
  8
0
 10
5.9354028882689178
 20
13.05586183000327
 30
0.0
 40
0.0386360448982892
 50
108.9350472607107
 51
190.94764903499211
  0
ARC
  5
2F3D
  8
0
 10
5.9180950611408196
 20
13.132563285215729
 30
0.0
 40
0.0371093700822737
 50
121.68994279648889
 51
197.13985778594241
  0
ARC
  5
2F3E
  8
0
 10
5.9403397178685156
 20
13.103579648893399
 30
0.0
 40
0.0735504973016722
 50
92.135266141850721
 51
124.5752525505515
  0
ARC
  5
2F40
  8
0
 10
1040.4700756955349
 20
163.3300581139583
 30
0.0
 40
1045.4346407343951
 50
188.26086892806379
 51
188.26353340616589
  0
ARC
  5
2F41
  8
0
 10
6.1308958830282902
 20
13.13628744241524
 30
0.0
 40
0.2492317551967154
 50
194.58502706462551
 51
198.76537315273339
  0
ARC
  5
2F42
  8
0
 10
5.94892620447468
 20
13.051233017005289
 30
0.0
 40
0.0114672015663258
 50
340.46011443565561
 51
93.288997151343565
  0
ARC
  5
2F43
  8
0
 10
5.9449837454148087
 20
13.05439388330068
 30
0.0
 40
0.0163244458271923
 50
271.06745093233701
 51
334.6229512015766
  0
ARC
  5
2F44
  8
0
 10
5.9430014889616452
 20
13.05205822683399
 30
0.0
 40
0.0141716072561939
 50
211.12059783366209
 51
279.28435519082279
  0
ARC
  5
2F45
  8
0
 10
5.9406491665489272
 20
13.049705531272931
 30
0.0
 40
0.0109709423913591
 50
125.657391497012
 51
206.94767168000939
  0
ARC
  5
2F46
  8
0
 10
5.9460389050289582
 20
13.04416501850816
 30
0.0
 40
0.0186500409851058
 50
83.134525888850604
 51
129.19102460750739
  0
ARC
  5
2F4C
  8
0
 10
5.7520927488254667
 20
12.11255501468912
 30
0.0
 40
0.0944761964497341
 50
42.263593684083382
 51
95.442358887383818
  0
ARC
  5
2F4D
  8
0
 10
5.783132295416209
 20
12.1443842541146
 30
0.0
 40
0.0501702357091034
 50
324.86924836613292
 51
39.201415439420259
  0
ARC
  5
2F4E
  8
0
 10
5.7566063041202229
 20
12.162034577799339
 30
0.0
 40
0.0820252463623561
 50
298.35650775628068
 51
325.44836980846071
  0
ARC
  5
2F4F
  8
0
 10
5.7458314828236716
 20
12.09641704981712
 30
0.0
 40
0.050164725064276
 50
266.7500595763604
 51
352.47967138308343
  0
ARC
  5
2F50
  8
0
 10
5.7413661418688822
 20
12.0920981142211
 30
0.0
 40
0.0457938246180972
 50
191.7312711134183
 51
272.02908699535078
  0
ARC
  5
2F51
  8
0
 10
5.7110072753884724
 20
12.139139396836169
 30
0.0
 40
0.0581823909546348
 50
172.63364949511609
 51
255.59080486906799
  0
ARC
  5
2F52
  8
0
 10
5.7200207482680314
 20
12.129830000431889
 30
0.0
 40
0.0687976087210204
 50
120.2070841717195
 51
165.78513061283141
  0
ARC
  5
2F53
  8
0
 10
5.7467837754824931
 20
12.089576872084081
 30
0.0
 40
0.1170854061774027
 50
91.787179510030995
 51
121.61485758741109
  0
ARC
  5
2F54
  8
0
 10
5.7466241426810711
 20
12.1449923085775
 30
0.0
 40
0.0592279158490628
 50
36.883627076817334
 51
97.185436999561162
  0
ARC
  5
2F55
  8
0
 10
5.7697106441735038
 20
12.1652250743295
 30
0.0
 40
0.0287129446037934
 50
1.996028687505933
 51
32.235114781179391
  0
LINE
  5
2F56
  8
0
 10
5.7984061670000013
 20
12.166225152599999
 30
0.0
 11
5.7982667345586938
 21
12.107772443727839
 31
0.0
  0
ARC
  5
2F57
  8
0
 10
5.5871043012765114
 20
12.13044810022417
 30
0.0
 40
0.2123766009311813
 50
348.97989775294479
 51
353.87079182519773
  0
ARC
  5
2F58
  8
0
 10
5.7605898968506883
 20
12.087770187817521
 30
0.0
 40
0.0341061696655978
 50
354.25519742269228
 51
71.437485448690396
  0
ARC
  5
2F59
  8
0
 10
5.7492010851899762
 20
12.062601903669201
 30
0.0
 40
0.0616535269155704
 50
68.849131058192512
 51
113.63648804590881
  0
ARC
  5
2F5A
  8
0
 10
5.737019425668918
 20
12.08253783310327
 30
0.0
 40
0.0386360448982892
 50
108.9350472607107
 51
190.94764903499211
  0
ARC
  5
2F5D
  8
0
 10
5.7197115985408198
 20
12.15923928831573
 30
0.0
 40
0.0371093700822737
 50
121.68994279648889
 51
197.13985778594241
  0
ARC
  5
2F5E
  8
0
 10
5.7419562552685157
 20
12.1302556519934
 30
0.0
 40
0.0735504973016722
 50
92.135266141850721
 51
124.5752525505515
  0
ARC
  5
2F60
  8
0
 10
1040.271692232935
 20
162.35673411705821
 30
0.0
 40
1045.4346407343951
 50
188.26086892806379
 51
188.26353340616589
  0
ARC
  5
2F61
  8
0
 10
5.9325124204282904
 20
12.16296344551524
 30
0.0
 40
0.2492317551967154
 50
194.58502706462551
 51
198.76537315273339
  0
ARC
  5
2F62
  8
0
 10
5.7505427418746802
 20
12.07790902010529
 30
0.0
 40
0.0114672015663258
 50
340.46011443565561
 51
93.288997151343565
  0
ARC
  5
2F63
  8
0
 10
5.7466002828148088
 20
12.08106988640068
 30
0.0
 40
0.0163244458271923
 50
271.06745093233701
 51
334.6229512015766
  0
ARC
  5
2F64
  8
0
 10
5.7446180263616453
 20
12.078734229933991
 30
0.0
 40
0.0141716072561939
 50
211.12059783366209
 51
279.28435519082279
  0
ARC
  5
2F65
  8
0
 10
5.7422657039489273
 20
12.076381534372929
 30
0.0
 40
0.0109709423913591
 50
125.657391497012
 51
206.94767168000939
  0
ARC
  5
2F66
  8
0
 10
5.7476554424289583
 20
12.07084102160816
 30
0.0
 40
0.0186500409851058
 50
83.134525888850604
 51
129.19102460750739
  0
ARC
  5
2F6C
  8
0
 10
5.7500457056380991
 20
11.75829474125595
 30
0.0
 40
0.0944761964497341
 50
42.263593684083382
 51
95.442358887383818
  0
ARC
  5
2F6D
  8
0
 10
5.7810852522288414
 20
11.79012398068144
 30
0.0
 40
0.0501702357091034
 50
324.86924836613292
 51
39.201415439420259
  0
ARC
  5
2F6E
  8
0
 10
5.7545592609328553
 20
11.80777430436618
 30
0.0
 40
0.0820252463623561
 50
298.35650775628068
 51
325.44836980846071
  0
ARC
  5
2F6F
  8
0
 10
5.743784439636304
 20
11.742156776383959
 30
0.0
 40
0.050164725064276
 50
266.7500595763604
 51
352.47967138308343
  0
ARC
  5
2F70
  8
0
 10
5.7393190986815128
 20
11.73783784078794
 30
0.0
 40
0.0457938246180972
 50
191.7312711134183
 51
272.02908699535078
  0
ARC
  5
2F71
  8
0
 10
5.708960232201103
 20
11.784879123403011
 30
0.0
 40
0.0581823909546348
 50
172.63364949511609
 51
255.59080486906799
  0
ARC
  5
2F72
  8
0
 10
5.7179737050806621
 20
11.775569726998731
 30
0.0
 40
0.0687976087210204
 50
120.2070841717195
 51
165.78513061283141
  0
ARC
  5
2F73
  8
0
 10
5.7447367322951246
 20
11.73531659865092
 30
0.0
 40
0.1170854061774027
 50
91.787179510030995
 51
121.61485758741109
  0
ARC
  5
2F74
  8
0
 10
5.7445770994937018
 20
11.790732035144339
 30
0.0
 40
0.0592279158490628
 50
36.883627076817334
 51
97.185436999561162
  0
ARC
  5
2F75
  8
0
 10
5.7676636009861362
 20
11.81096480089634
 30
0.0
 40
0.0287129446037934
 50
1.996028687505933
 51
32.235114781179377
  0
LINE
  5
2F76
  8
0
 10
5.796359123812632
 20
11.81196487916684
 30
0.0
 11
5.7962196913713262
 21
11.75351217029468
 31
0.0
  0
ARC
  5
2F77
  8
0
 10
5.585057258089142
 20
11.776187826791009
 30
0.0
 40
0.2123766009311813
 50
348.97989775294468
 51
353.87079182519773
  0
ARC
  5
2F78
  8
0
 10
5.758542853663319
 20
11.73350991438436
 30
0.0
 40
0.0341061696655978
 50
354.25519742269228
 51
71.437485448690396
  0
ARC
  5
2F79
  8
0
 10
5.7471540420026068
 20
11.708341630236029
 30
0.0
 40
0.0616535269155704
 50
68.849131058192512
 51
113.63648804590881
  0
ARC
  5
2F7A
  8
0
 10
5.7349723824815504
 20
11.72827755967011
 30
0.0
 40
0.0386360448982892
 50
108.9350472607107
 51
190.94764903499211
  0
ARC
  5
2F7D
  8
0
 10
5.7176645553534522
 20
11.804979014882569
 30
0.0
 40
0.0371093700822737
 50
121.68994279648889
 51
197.13985778594241
  0
ARC
  5
2F7E
  8
0
 10
5.7399092120811481
 20
11.775995378560239
 30
0.0
 40
0.0735504973016722
 50
92.135266141850721
 51
124.5752525505515
  0
ARC
  5
2F80
  8
0
 10
1040.269645189748
 20
162.0024738436251
 30
0.0
 40
1045.4346407343951
 50
188.26086892806379
 51
188.26353340616589
  0
ARC
  5
2F81
  8
0
 10
5.930465377240921
 20
11.80870317208208
 30
0.0
 40
0.2492317551967154
 50
194.58502706462551
 51
198.76537315273339
  0
ARC
  5
2F82
  8
0
 10
5.7484956986873108
 20
11.723648746672129
 30
0.0
 40
0.0114672015663258
 50
340.46011443565561
 51
93.288997151343565
  0
ARC
  5
2F83
  8
0
 10
5.7445532396274412
 20
11.72680961296752
 30
0.0
 40
0.0163244458271923
 50
271.06745093233701
 51
334.6229512015766
  0
ARC
  5
2F84
  8
0
 10
5.7425709831742759
 20
11.72447395650083
 30
0.0
 40
0.0141716072561939
 50
211.12059783366209
 51
279.28435519082279
  0
ARC
  5
2F85
  8
0
 10
5.740218660761558
 20
11.722121260939771
 30
0.0
 40
0.0109709423913591
 50
125.657391497012
 51
206.94767168000939
  0
ARC
  5
2F86
  8
0
 10
5.7456083992415889
 20
11.716580748175
 30
0.0
 40
0.0186500409851058
 50
83.134525888850604
 51
129.19102460750739
  0
ARC
  5
2F8C
  8
0
 10
5.3999100210207196
 20
-6.3641096095195762
 30
0.0
 40
0.0800398535963327
 50
270.02852007936519
 51
359.97147827338142
  0
ARC
  5
2F8D
  8
0
 10
5.3999498645377138
 20
-7.0441494534622837
 30
0.0
 40
0.0800000002622847
 50
0.0000029810168488
 51
89.999996589265393
  0
LINE
  5
2F8E
  8
0
 10
5.4799498647999991
 20
-7.0441494534622837
 30
0.0
 11
5.4799498647999982
 21
-8.4541494532000012
 31
0.0
  0
ARC
  5
2F96
  8
0
 10
6.0799498646209678
 20
-6.3641494532790484
 30
0.0
 40
0.0799999999209682
 50
180.0000000150059
 51
270.0000341475909
  0
ARC
  5
2F97
  8
0
 10
6.0800083172238573
 20
-7.0442079057232734
 30
0.0
 40
0.0800584738610156
 50
90.041831961575696
 51
179.95816861138141
  0
CIRCLE
  5
2FA0
  8
0
 10
4.3360246985020741
 20
-4.2720489219229973
 30
0.0
 40
0.0689177562160392
  0
CIRCLE
  5
2FA7
  8
0
 10
2.9281783855811869
 20
-6.7020260466062034
 30
0.0
 40
0.0704707972699944
  0
CIRCLE
  5
2FA9
  8
0
 10
4.3323709327092281
 20
-9.1303431659839251
 30
0.0
 40
0.0704707972699944
  0
CIRCLE
  5
2FAC
  8
0
 10
3.3039578291999989
 20
-5.297700676099999
 30
0.0
 40
0.1530468478099755
  0
CIRCLE
  5
2FB0
  8
0
 10
3.3098536596583328
 20
-8.1095073109072722
 30
0.0
 40
0.1530468478099755
  0
ARC
  5
2FB1
  8
0
 10
5.739949771237117
 20
-6.704149582528383
 30
0.0
 40
0.9968526882351326
 50
105.1187705358948
 51
164.8812161996849
  0
ARC
  5
2FB5
  8
0
 10
5.739949771237117
 20
-6.704149582528383
 30
0.0
 40
0.9968526882351326
 50
15.1187838003151
 51
74.881218335024883
  0
ARC
  5
2FB7
  8
0
 10
5.739949771237117
 20
-6.704149582528383
 30
0.0
 40
0.9968526882351326
 50
285.11878166497519
 51
344.8812315994449
  0
ARC
  5
2FB8
  8
0
 10
5.739949771237117
 20
-6.704149582528383
 30
0.0
 40
0.9968526882351326
 50
195.1187684005551
 51
254.88122946410519
  0
CIRCLE
  5
2FB9
  8
0
 10
5.739949771237117
 20
-6.704149582528383
 30
0.0
 40
0.0248532039039801
  0
CIRCLE
  5
2FBA
  8
0
 10
5.7399493822962997
 20
-6.7041492851029636
 30
0.0
 40
0.1521112324037308
  0
ARC
  5
3004
  8
0
 10
5.7399499021153844
 20
-6.7041494841529401
 30
0.0
 40
0.7663989204314285
 50
199.831117893037
 51
250.16887667354541
  0
ARC
  5
3005
  8
0
 10
5.7399499021153844
 20
-6.7041494841529401
 30
0.0
 40
0.7663989204314285
 50
109.8311233264545
 51
160.16887718713349
  0
ARC
  5
3006
  8
0
 10
5.7399499021153844
 20
-6.7041494841529401
 30
0.0
 40
0.7663989204314285
 50
19.831122812866411
 51
70.168882620551159
  0
ARC
  5
3007
  8
0
 10
5.7399499021153844
 20
-6.7041494841529401
 30
0.0
 40
0.7663989204314285
 50
289.83111737944881
 51
340.168882106963
  0
LINE
  5
3057
  8
0
 10
5.2449496329659446
 20
15.267081009432211
 30
0.0
 11
5.2449496329659446
 21
15.267081009432211
 31
0.0
  0
ATTDEF
  5
30AF
  8
DEFPOINTS
 10
5.7356793014043763
 20
-6.6924454386755183
 30
0.0
 40
0.001
  1
K-T14422-3
  3

  2
MODELNUMBER
 70
     0
1001
ACDBATTR
1070
     0
1070
     1
  0
ATTDEF
  5
30B0
  8
DEFPOINTS
 10
5.7356793014043763
 20
-6.6941121053421826
 30
0.0
 40
0.001
  1
PURIST
  3

  2
TRADENAME
 70
     0
1001
ACDBATTR
1070
     0
1070
     1
  0
ATTDEF
  5
30B1
  8
DEFPOINTS
 10
5.7356793014043763
 20
-6.6957787720088477
 30
0.0
 40
0.001
  1
SHOWER FAUCET TRIM
  3

  2
PRODUCT
 70
     0
1001
ACDBATTR
1070
     0
1070
     1
  0
ATTDEF
  5
30B2
  8
DEFPOINTS
 10
5.7356793014043763
 20
-6.69744543867552
 30
0.0
 40
0.001
  1
PREMIUM MATERIALS 
  3

  2
MATERIAL
 70
     0
1001
ACDBATTR
1070
     0
1070
     1
  0
ENDSEC
  0
EOF
