  0
SECTION
  2
HEADER
  9
$ACADVER
  1
AC1009
  9
$INSBASE
 10
3191.2097794463138598
 20
199.642745142355011
 30
0.0
  9
$EXTMIN
 10
3187.747239600775174
 20
187.1160511805078102
 30
-0.0000000349181948
  9
$EXTMAX
 10
3194.6133642398490338
 20
199.6517875401640936
 30
0.0000000814935746
  9
$LIMMIN
 10
0.0
 20
0.0
  9
$LIMMAX
 10
11.6929133858000007
 20
8.2677165353999982
  9
$ORTHOMODE
 70
     0
  9
$REGENMODE
 70
     1
  9
$FILLMODE
 70
     1
  9
$QTEXTMODE
 70
     0
  9
$MIRRTEXT
 70
     0
  9
$DRAGMODE
 70
     2
  9
$LTSCALE
 40
0.6431102362
  9
$OSMODE
 70
  4095
  9
$ATTMODE
 70
     1
  9
$TEXTSIZE
 40
0.2
  9
$TRACEWID
 40
0.05
  9
$TEXTSTYLE
  7
STANDARD
  9
$CLAYER
  8
0
  9
$CELTYPE
  6
BYLAYER
  9
$CECOLOR
 62
   256
  9
$DIMSCALE
 40
1.0
  9
$DIMASZ
 40
0.1875
  9
$DIMEXO
 40
0.0625
  9
$DIMDLI
 40
0.4443307087
  9
$DIMRND
 40
0.0
  9
$DIMDLE
 40
0.0
  9
$DIMEXE
 40
0.125
  9
$DIMTP
 40
0.01
  9
$DIMTM
 40
0.01
  9
$DIMTXT
 40
2.0
  9
$DIMCEN
 40
0.1052362205
  9
$DIMTSZ
 40
0.0
  9
$DIMTOL
 70
     1
  9
$DIMLIM
 70
     0
  9
$DIMTIH
 70
     1
  9
$DIMTOH
 70
     1
  9
$DIMSE1
 70
     0
  9
$DIMSE2
 70
     0
  9
$DIMTAD
 70
     0
  9
$DIMZIN
 70
     0
  9
$DIMBLK
  1

  9
$DIMASO
 70
     1
  9
$DIMSHO
 70
     1
  9
$DIMPOST
  1
\X
  9
$DIMAPOST
  1

  9
$DIMALT
 70
     1
  9
$DIMALTD
 70
     2
  9
$DIMALTF
 40
25.3999999999999986
  9
$DIMLFAC
 40
1.0
  9
$DIMTOFL
 70
     0
  9
$DIMTVP
 40
0.0
  9
$DIMTIX
 70
     0
  9
$DIMSOXD
 70
     0
  9
$DIMSAH
 70
     0
  9
$DIMBLK1
  1

  9
$DIMBLK2
  1

  9
$DIMSTYLE
  2
STANDARD
  9
$DIMCLRD
 70
     0
  9
$DIMCLRE
 70
     0
  9
$DIMCLRT
 70
     0
  9
$DIMTFAC
 40
1.0
  9
$DIMGAP
 40
0.09
  9
$LUNITS
 70
     2
  9
$LUPREC
 70
     4
  9
$SKETCHINC
 40
0.1
  9
$FILLETRAD
 40
0.0
  9
$AUNITS
 70
     0
  9
$AUPREC
 70
     0
  9
$MENU
  1
.
  9
$ELEVATION
 40
0.0
  9
$PELEVATION
 40
0.0
  9
$THICKNESS
 40
0.0
  9
$LIMCHECK
 70
     0
  9
$BLIPMODE
 70
     0
  9
$CHAMFERA
 40
0.0
  9
$CHAMFERB
 40
0.0
  9
$SKPOLY
 70
     0
  9
$TDCREATE
 40
2458060.468368056230247
  9
$TDUPDATE
 40
2459847.7616203702054918
  9
$TDINDWG
 40
0.6117663194
  9
$TDUSRTIMER
 40
0.6117663194
  9
$USRTIMER
 70
     1
  9
$ANGBASE
 50
0.0
  9
$ANGDIR
 70
     0
  9
$PDMODE
 70
     0
  9
$PDSIZE
 40
0.3125
  9
$PLINEWID
 40
0.0
  9
$COORDS
 70
     1
  9
$SPLFRAME
 70
     0
  9
$SPLINETYPE
 70
     6
  9
$SPLINESEGS
 70
     8
  9
$ATTDIA
 70
     1
  9
$ATTREQ
 70
     1
  9
$HANDLING
 70
     1
  9
$HANDSEED
  5
2E5AE
  9
$SURFTAB1
 70
     6
  9
$SURFTAB2
 70
     6
  9
$SURFTYPE
 70
     6
  9
$SURFU
 70
     6
  9
$SURFV
 70
     6
  9
$UCSNAME
  2

  9
$UCSORG
 10
0.0
 20
0.0
 30
0.0
  9
$UCSXDIR
 10
1.0
 20
0.0
 30
0.0
  9
$UCSYDIR
 10
0.0
 20
1.0
 30
0.0
  9
$PUCSNAME
  2

  9
$PUCSORG
 10
0.0
 20
0.0
 30
0.0
  9
$PUCSXDIR
 10
1.0
 20
0.0
 30
0.0
  9
$PUCSYDIR
 10
0.0
 20
1.0
 30
0.0
  9
$USERI1
 70
     0
  9
$USERI2
 70
     0
  9
$USERI3
 70
     0
  9
$USERI4
 70
     0
  9
$USERI5
 70
     0
  9
$USERR1
 40
0.0
  9
$USERR2
 40
0.0
  9
$USERR3
 40
0.0
  9
$USERR4
 40
0.0
  9
$USERR5
 40
0.0
  9
$WORLDVIEW
 70
     1
  9
$SHADEDGE
 70
     3
  9
$SHADEDIF
 70
    70
  9
$TILEMODE
 70
     1
  9
$MAXACTVP
 70
    64
  9
$PLIMCHECK
 70
     0
  9
$PEXTMIN
 10
1.0000000000000000E+20
 20
1.0000000000000000E+20
 30
1.0000000000000000E+20
  9
$PEXTMAX
 10
-1.0000000000000000E+20
 20
-1.0000000000000000E+20
 30
-1.0000000000000000E+20
  9
$PLIMMIN
 10
0.0
 20
0.0
  9
$PLIMMAX
 10
12.0
 20
9.0
  9
$UNITMODE
 70
     0
  9
$VISRETAIN
 70
     1
  9
$PLINEGEN
 70
     0
  9
$PSLTSCALE
 70
     1
  0
ENDSEC
  0
SECTION
  2
TABLES
  0
TABLE
  2
VPORT
 70
     1
  0
VPORT
  2
*ACTIVE
 70
     0
 10
0.0
 20
0.0
 11
1.0
 21
1.0
 12
-22.8430135093758508
 22
38.5346952697598226
 13
0.0
 23
0.0
 14
1.0
 24
1.0
 15
0.0
 25
0.0
 16
0.0
 26
0.0
 36
154.727473691286491
 17
3214.0233154296870453
 27
154.8492240905760866
 37
0.0
 40
12.6254910352624403
 41
2.2831541218637992
 42
50.0
 43
0.0
 44
0.0
 50
0.0
 51
0.0
 71
     0
 72
   100
 73
     1
 74
     1
 75
     0
 76
     0
 77
     0
 78
     0
  0
ENDTAB
  0
TABLE
  2
LTYPE
 70
     2
  0
LTYPE
  2
CONTINUOUS
 70
     0
  3
Solid line
 72
    65
 73
     0
 40
0.0
  0
LTYPE
  2
PHANTOM2
 70
     0
  3
___ _ _ ___ _ _ ___ _ _ ___ _ _
 72
    65
 73
     6
 40
1.25
 49
0.625
 49
-0.125
 49
0.125
 49
-0.125
 49
0.125
 49
-0.125
  0
ENDTAB
  0
TABLE
  2
LAYER
 70
     2
  0
LAYER
  2
0
 70
     0
 62
   255
  6
CONTINUOUS
  0
LAYER
  2
DEFPOINTS
 70
     0
 62
     7
  6
CONTINUOUS
  0
ENDTAB
  0
TABLE
  2
STYLE
 70
     1
  0
STYLE
  2
STANDARD
 70
     0
 40
0.0
 41
0.8
 50
0.0
 71
     0
 42
0.2
  3
txt
  4

  0
ENDTAB
  0
TABLE
  2
VIEW
 70
     0
  0
ENDTAB
  0
TABLE
  2
UCS
 70
     0
  0
ENDTAB
  0
TABLE
  2
APPID
 70
     9
  0
APPID
  2
ACAD
 70
     0
  0
APPID
  2
ACAD_MLEADERVER
 70
     0
  0
APPID
  2
ACAD_EXEMPT_FROM_CAD_STANDARDS
 70
     0
  0
APPID
  2
ACAD_NAV_VCDISPLAY
 70
     0
  0
APPID
  2
ACAECLAYERSTANDARD
 70
     0
  0
APPID
  2
ACCMTRANSPARENCY
 70
     0
  0
APPID
  2
ACAD_DSTYLE_DIMJAG
 70
     0
  0
APPID
  2
ACAD_DSTYLE_DIMTALN
 70
     0
  0
APPID
  2
ACDBATTR
 70
     0
  0
ENDTAB
  0
TABLE
  2
DIMSTYLE
 70
     1
  0
DIMSTYLE
  2
STANDARD
 70
     0
  3

  4

  5

  6

  7

 40
1.0
 41
0.1875
 42
0.0625
 43
0.38
 44
0.125
 45
0.0
 46
0.0
 47
0.01
 48
0.01
140
0.15625
141
0.09
142
0.0
143
25.3999999999999986
144
1.0
145
0.0
146
1.0
147
0.09
 71
     1
 72
     0
 73
     1
 74
     1
 75
     0
 76
     0
 77
     0
 78
     4
170
     0
171
     2
172
     0
173
     0
174
     0
175
     0
176
     0
177
     0
178
     0
  0
ENDTAB
  0
ENDSEC
  0
SECTION
  2
BLOCKS
  0
BLOCK
  8
0
  2
$MODEL_SPACE
 70
     0
 10
0.0
 20
0.0
 30
0.0
  3
$MODEL_SPACE
  1

  0
ENDBLK
  5
21
  8
0
  0
BLOCK
 67
     1
  8
0
  2
$PAPER_SPACE
 70
     0
 10
0.0
 20
0.0
 30
0.0
  3
$PAPER_SPACE
  1

  0
ENDBLK
  5
1D
 67
     1
  8
0
  0
BLOCK
  8
0
  2
_FILLED
 70
     0
 10
0.0
 20
0.0
 30
0.0
  3
_FILLED
  1

  0
SOLID
  5
2C7D8
  8
0
  6
BYBLOCK
 62
     0
 10
0.0
 20
0.0
 30
0.0
 11
-1.0
 21
0.1666666667
 31
0.0
 12
-1.0
 22
-0.1666666667
 32
0.0
 13
-1.0
 23
-0.1666666667
 33
0.0
  0
ENDBLK
  5
2C7D9
  8
0
  6
BYBLOCK
 62
     0
  0
ENDSEC
  0
SECTION
  2
ENTITIES
  0
LINE
  5
2D578
  8
0
 10
3187.9392029537639246
 20
199.642745142355011
 30
0.0
 11
3187.8097794463637911
 21
198.8856078671551018
 31
0.0
  0
LINE
  5
2D579
  8
0
 10
3187.8097794463637911
 20
198.7327451423550997
 30
0.0
 11
3187.8097794463637911
 21
198.8856078671551018
 31
0.0
  0
LINE
  5
2D57A
  8
0
 10
3188.4969404003641102
 20
189.3019014754871137
 30
0.0
 11
3188.475453108163947
 21
190.0076398957870936
 31
0.0
  0
LINE
  5
2D57B
  8
0
 10
3189.2097794463629725
 20
199.5527451423550076
 30
0.0
 11
3189.2097794463629725
 21
199.3827451423549917
 31
0.0
  0
LINE
  5
2D57C
  8
0
 10
3189.4517794463640712
 20
194.4197451423551115
 30
0.0
 11
3189.4517794463640712
 21
194.9197451423551115
 31
0.0
  0
LINE
  5
2D57D
  8
0
 10
3190.2097831091641638
 20
198.442745142354994
 30
0.0
 11
3190.2097831091641638
 21
198.4627451423550042
 31
0.0
  0
LINE
  5
2D57E
  8
0
 10
3190.4097831091639819
 20
196.0897451423550137
 30
0.0
 11
3190.4097831091639819
 21
196.1397451423549967
 31
0.0
  0
LINE
  5
2D57F
  8
0
 10
3190.421283109164051
 20
196.1597451423550069
 30
0.0
 11
3190.421283109164051
 21
198.4127451423549928
 31
0.0
  0
LINE
  5
2D580
  8
0
 10
3190.584779446363882
 20
198.9427451423551076
 30
0.0
 11
3190.584779446363882
 21
191.7494057895870867
 31
0.0
  0
LINE
  5
2D581
  8
0
 10
3190.5897831091638182
 20
191.2876767583871072
 30
0.0
 11
3190.5897831091638182
 21
191.6909377095236096
 31
0.0
  0
LINE
  5
2D582
  8
0
 10
3190.4418358143639125
 20
190.908569489987201
 30
0.0
 11
3190.4307780103640653
 21
190.5453210655871032
 31
0.0
  0
LINE
  5
2D583
  8
0
 10
3191.0192575203641354
 20
190.9965251583871009
 30
0.0
 11
3191.0192575203641354
 21
190.7593402996450891
 31
0.0
  0
LINE
  5
2D584
  8
0
 10
3190.584779446363882
 20
194.4097451423550922
 30
0.0
 11
3189.4617831091641165
 21
194.4097451423550069
 31
0.0
  0
LINE
  5
2D585
  8
0
 10
3190.584779446363882
 20
194.9297451423549887
 30
0.0
 11
3189.4617831091641165
 21
194.9297451423549887
 31
0.0
  0
LINE
  5
2D586
  8
0
 10
3190.4297831091639637
 20
196.0697451423550035
 30
0.0
 11
3190.5847831091641638
 21
196.0697451423550035
 31
0.0
  0
LINE
  5
2D587
  8
0
 10
3190.5847831091641638
 20
196.1597451423550069
 30
0.0
 11
3190.4212831092140732
 21
196.1597451423550069
 31
0.0
  0
LINE
  5
2D588
  8
0
 10
3190.2397831091639091
 20
198.4127451423549928
 30
0.0
 11
3190.584779446363882
 21
198.4127451423549928
 31
0.0
  0
LINE
  5
2D589
  8
0
 10
3190.2097831091591615
 20
198.4727451423848947
 30
0.0
 11
3190.584779446363882
 21
198.4727451423549951
 31
0.0
  0
LINE
  5
2D58A
  8
0
 10
3187.9097831091639819
 20
198.6327451423549917
 30
0.0
 11
3190.584779446363882
 21
198.6327451423549917
 31
0.0
  0
LINE
  5
2D58B
  8
0
 10
3190.584779446363882
 20
198.8856078671551018
 30
0.0
 11
3187.8097794463637911
 21
198.8856078671551018
 31
0.0
  0
LINE
  5
2D58C
  8
0
 10
3193.1297831091637818
 20
199.3027451423550076
 30
0.0
 11
3189.289783109164091
 21
199.3027451423550076
 31
0.0
  0
LINE
  5
2D58D
  8
0
 10
3194.4803632645639482
 20
199.642745142355011
 30
0.0
 11
3187.9392029537639246
 21
199.642745142355011
 31
0.0
  0
ARC
  5
2D58E
  8
0
 10
3188.8546360403638573
 20
195.5187518414550993
 30
0.0
 40
3.25
 50
65.3566671736067804
 51
73.3657818399951935
  0
ARC
  5
2D58F
  8
0
 10
3187.9097856992689231
 20
198.7327513954222979
 30
0.0
 40
0.1000062531008039
 50
180.0035825196061978
 51
269.9985160717833992
  0
ARC
  5
2D590
  8
0
 10
3189.2897856992990455
 20
199.3827513954938979
 30
0.0
 40
0.080006253180764
 50
180.0044781307720996
 51
269.998145097493591
  0
ARC
  5
2D591
  8
0
 10
3190.2397831091639091
 20
198.442745142354994
 30
0.0
 40
0.03
 50
180.0
 51
270.0
  0
ARC
  5
2D592
  8
0
 10
3190.4297831091639637
 20
196.0897451423550137
 30
0.0
 40
0.02
 50
180.0
 51
270.0
  0
ARC
  5
2D593
  8
0
 10
3190.4297831091639637
 20
196.1397451423549967
 30
0.0
 40
0.02
 50
90.0
 51
180.0
  0
ARC
  5
2D594
  8
0
 10
3190.2197831091639273
 20
198.4627451423550042
 30
0.0
 40
0.01
 50
89.9999999954403478
 51
180.0
  0
ARC
  5
2D595
  8
0
 10
3189.4617857002999699
 20
194.9197388867989957
 30
0.0
 40
0.0100062558915251
 50
90.0148368349220078
 51
179.9641807098784909
  0
ARC
  5
2D596
  8
0
 10
3189.4617857002999699
 20
194.4197513979111136
 30
0.0
 40
0.0100062558915083
 50
180.0358192900399956
 51
269.9851631651040975
  0
ARC
  5
2D597
  8
0
 10
3191.2254323901011048
 20
190.5007874633417941
 30
0.0
 40
3.3743397030159761
 50
256.4594002116057254
 51
269.7342766160977021
  0
ARC
  5
2D598
  8
0
 10
3191.0798476615409527
 20
189.9780303437729003
 30
0.0
 40
2.8320913192189918
 50
227.3103008058238004
 51
256.8466775013362735
  0
ARC
  5
2D599
  8
0
 10
3190.6710544220650263
 20
189.5011990484179023
 30
0.0
 40
2.2045480206506771
 50
200.367288076282307
 51
226.7170262327163925
  0
ARC
  5
2D59A
  8
0
 10
3190.3646112076971804
 20
189.3609090064034035
 30
0.0
 40
1.868602722160593
 50
181.8096113176528092
 51
199.6048246659007077
  0
ARC
  5
2D59B
  8
0
 10
3191.1590311811401079
 20
189.2196467842942127
 30
0.0
 40
3.082307453233831
 50
100.7372032061845033
 51
117.436926267800402
  0
ARC
  5
2D59C
  8
0
 10
3190.9035701906359463
 20
189.68348702648521
 30
0.0
 40
2.55296447607707
 50
117.1451266286436947
 51
141.1499462482892113
  0
ARC
  5
2D59D
  8
0
 10
3190.5690689160342117
 20
189.9701149405483136
 30
0.0
 40
2.112703387439558
 50
141.5132325885371074
 51
156.8111341768556883
  0
ARC
  5
2D59E
  8
0
 10
3190.8429624633031381
 20
189.9674960572490079
 30
0.0
 40
2.3678496731088701
 50
159.3633971994771059
 51
179.0285773854672016
  0
ARC
  5
2D59F
  8
0
 10
3191.5920337253428443
 20
190.2420962248421858
 30
0.0
 40
3.125387098202268
 50
184.3021837358323012
 51
191.7168137303472122
  0
ARC
  5
2D5A0
  8
0
 10
3190.5095122742350213
 20
190.1211128844460063
 30
0.0
 40
2.043369221014367
 50
194.5603872471673128
 51
220.1991249467338889
  0
ARC
  5
2D5A1
  8
0
 10
3190.9218604334269003
 20
190.4704299336019915
 30
0.0
 40
2.583788556995513
 50
220.2138035150819917
 51
244.5961036095816894
  0
ARC
  5
2D5A2
  8
0
 10
3191.1642655513778664
 20
190.9307903195864071
 30
0.0
 40
3.1037001557284589
 50
244.199698605133392
 51
260.0659493032661089
  0
ARC
  5
2D5A3
  8
0
 10
3191.2369209662888352
 20
191.4575030174245001
 30
0.0
 40
3.63510118374389
 50
260.3701457540688011
 51
269.5722542390578269
  0
ARC
  5
2D5A4
  8
0
 10
3191.0550186935720376
 20
191.7601821548491046
 30
0.0
 40
0.4703627107488133
 50
181.3128044861215074
 51
231.4631704442626869
  0
ARC
  5
2D5A5
  8
0
 10
3191.1797633708620197
 20
191.8976422468649901
 30
0.0
 40
0.6557118473780732
 50
230.4201323829568935
 51
255.0921788731197069
  0
ARC
  5
2D5A6
  8
0
 10
3191.2152459305939374
 20
192.0347725960359924
 30
0.0
 40
0.7973555476379215
 50
255.163356925933698
 51
269.60745358612769
  0
ARC
  5
2D5A7
  8
0
 10
3191.0296643347828649
 20
191.2906920265255053
 30
0.0
 40
0.4398915599259034
 50
180.3927410913690039
 51
217.7298365041789054
  0
ARC
  5
2D5A8
  8
0
 10
3191.1386170231558026
 20
191.3719544752476054
 30
0.0
 40
0.5757954516819833
 50
217.4908671100903064
 51
244.1920886773866073
  0
ARC
  5
2D5A9
  8
0
 10
3191.1953665387259207
 20
191.4741015055867877
 30
0.0
 40
0.6924920431527086
 50
243.6444355288018073
 51
255.2671797959359026
  0
ARC
  5
2D5AA
  8
0
 10
3191.2072216848991957
 20
191.7082443727917109
 30
0.0
 40
0.7361214350377459
 50
255.206032474797496
 51
262.3121284568862279
  0
ARC
  5
2D5AB
  8
0
 10
3191.2335398914251527
 20
192.0807557188225871
 30
0.0
 40
1.1090595936203329
 50
263.5392668148662096
 51
268.7725930316320273
  0
ARC
  5
2D5AC
  8
0
 10
3191.0756061098031751
 20
190.7871707508612928
 30
0.0
 40
0.0628466192140101
 50
206.2846703826569126
 51
242.9087772650248098
  0
ARC
  5
2D5AD
  8
0
 10
3191.2056982768590387
 20
191.0385894069453911
 30
0.0
 40
0.3459278720743324
 50
242.6900483829521136
 51
253.5764832774636091
  0
ARC
  5
2D5AE
  8
0
 10
3191.1931063301681206
 20
191.084244201823509
 30
0.0
 40
0.3869671994185056
 50
257.2786347087936178
 51
266.6614666284193049
  0
ARC
  5
2D5AF
  8
0
 10
3191.092643308300012
 20
187.9674417563369957
 30
0.0
 40
2.7316037745961901
 50
87.5422222502652829
 51
88.3652310536731136
  0
ARC
  5
2D5B0
  8
0
 10
3191.1727683869457906
 20
191.1720929301831973
 30
0.0
 40
0.4661793821894943
 50
212.4471072560990876
 51
240.6442851487219059
  0
ARC
  5
2D5B1
  8
0
 10
3191.2029882727988479
 20
191.220710379395598
 30
0.0
 40
0.5233747093242056
 50
240.3699760886962054
 51
258.3268035752532228
  0
ARC
  5
2D5B2
  8
0
 10
3191.2079990782140158
 20
191.2368332531113992
 30
0.0
 40
0.5401804598627868
 50
258.1523172469748033
 51
262.666779321493209
  0
ARC
  5
2D5B3
  8
0
 10
3191.0538270752999779
 20
190.8898203247881042
 30
0.0
 40
0.3140470261698782
 50
168.7719518325482113
 51
196.6960915414800866
  0
ARC
  5
2D5B4
  8
0
 10
3191.1118270610359104
 20
190.9137295829135041
 30
0.0
 40
0.3765225488686185
 50
197.6454041323667923
 51
234.3085653856265935
  0
ARC
  5
2D5B5
  8
0
 10
3191.2008124504218358
 20
191.0335412204316867
 30
0.0
 40
0.5257512408208076
 50
234.0501920703102883
 51
266.7033262754168277
  0
ARC
  5
2D5B6
  8
0
 10
3191.2242409854789003
 20
191.5895348302119885
 30
0.0
 40
1.1022341457397029
 50
267.2081272038889779
 51
269.2484364119550833
  0
ARC
  5
2D5B7
  8
0
 10
3191.2069466576849663
 20
191.0983646513467136
 30
0.0
 40
0.6108407848408048
 50
249.8308208677001971
 51
266.5843264705832212
  0
ARC
  5
2D5B8
  8
0
 10
3191.1745779110151489
 20
191.0176973335503874
 30
0.0
 40
0.5239658743574799
 50
229.3063359801004992
 51
250.1118847750869918
  0
ARC
  5
2D5B9
  8
0
 10
3191.0919223439400412
 20
190.9299164147130057
 30
0.0
 40
0.4035537905974835
 50
204.2104889600626905
 51
230.0780875443736875
  0
ARC
  5
2D5BA
  8
0
 10
3191.0031147907120612
 20
190.8827784286756923
 30
0.0
 40
0.3032977136204833
 50
180.8668120151372989
 51
202.9687136753551897
  0
ARC
  5
2D5BB
  8
0
 10
3191.046342192794782
 20
190.8847594871537012
 30
0.0
 40
0.346552678825576
 50
163.525330651726307
 51
181.0861866980116872
  0
ARC
  5
2D5BC
  8
0
 10
3191.6096652683190769
 20
190.498076939153691
 30
0.0
 40
0.4392142255042633
 50
178.6192972279469018
 51
181.2351965155910136
  0
ARC
  5
2D5BD
  8
0
 10
3191.041986284156792
 20
190.9105793166401952
 30
0.0
 40
0.3500914389029779
 50
165.8739734438084952
 51
204.675610082349408
  0
ARC
  5
2D5BE
  8
0
 10
3190.9975937285407781
 20
190.536259552443596
 30
0.0
 40
0.5668881453982295
 50
179.0841075521126982
 51
224.8354716338122046
  0
ARC
  5
2D5BF
  8
0
 10
3191.1423818574771758
 20
190.6642873226994936
 30
0.0
 40
0.7599153356127274
 50
223.9836464443621935
 51
249.589614167336606
  0
ARC
  5
2D5C0
  8
0
 10
3191.3024586848678155
 20
191.3325463798566943
 30
0.0
 40
1.4444337478673339
 50
252.8846685312389013
 51
266.3213479105110082
  0
ARC
  5
2D5C1
  8
0
 10
3191.0084384985739234
 20
190.9014184891013031
 30
0.0
 40
0.5666478082264005
 50
179.2769176192155953
 51
229.2588827065862063
  0
ARC
  5
2D5C2
  8
0
 10
3191.1621404514849019
 20
191.0551164606712859
 30
0.0
 40
0.7835783024727828
 50
228.0782676972330023
 51
253.6651851221479887
  0
ARC
  5
2D5C3
  8
0
 10
3191.2142596919120479
 20
191.2220535348702981
 30
0.0
 40
0.9584403185751762
 50
253.4819945844442941
 51
269.7323878954962879
  0
ARC
  5
2D5C4
  8
0
 10
3191.011496196331791
 20
190.8848619423285129
 30
0.0
 40
0.5701534868789088
 50
137.6241871579252063
 51
177.6168975831870966
  0
ARC
  5
2D5C5
  8
0
 10
3191.1683196585718179
 20
189.2412064334756963
 30
0.0
 40
2.9625670028106321
 50
101.3598231538372971
 51
114.6727666974265958
  0
ARC
  5
2D5C6
  8
0
 10
3191.0100775069699921
 20
189.5744885106286119
 30
0.0
 40
2.5936597123785772
 50
114.5695581783686947
 51
131.1687893087149064
  0
ARC
  5
2D5C7
  8
0
 10
3190.7417725659920507
 20
189.8831482358733069
 30
0.0
 40
2.1846895119052081
 50
131.2005619619218919
 51
148.6756861982374005
  0
ARC
  5
2D5C8
  8
0
 10
3190.4490871141060779
 20
190.0594723048236006
 30
0.0
 40
1.842999384310573
 50
148.6278404089318883
 51
174.280427961102987
  0
ARC
  5
2D5C9
  8
0
 10
3190.4143283115390659
 20
190.0793220057890096
 30
0.0
 40
1.8065088308024559
 50
174.7969930009467134
 51
212.6420852674617947
  0
ARC
  5
2D5CA
  8
0
 10
3190.9026854518119762
 20
190.4088965987363906
 30
0.0
 40
2.3955436861202131
 50
212.9794628824867004
 51
246.456010567210086
  0
ARC
  5
2D5CB
  8
0
 10
3191.2493442979648535
 20
191.2420989467736092
 30
0.0
 40
3.2978931403899381
 50
246.7170377919838131
 51
269.3126692038778742
  0
ARC
  5
2D5CC
  8
0
 10
3191.1779019550999692
 20
189.169734558829191
 30
0.0
 40
3.073411568144651
 50
101.1269706571797968
 51
111.3313271969718983
  0
ARC
  5
2D5CD
  8
0
 10
3191.0631735603469679
 20
189.4500185810109087
 30
0.0
 40
2.7705997966040168
 50
111.2297400363593027
 51
126.0071017037329
  0
ARC
  5
2D5CE
  8
0
 10
3190.8448738783968111
 20
189.7526316356355096
 30
0.0
 40
2.3974678761903938
 50
126.0383988155499964
 51
139.0296744363915877
  0
ARC
  5
2D5CF
  8
0
 10
3190.611794463618935
 20
189.9526753621900923
 30
0.0
 40
2.0903199106477151
 50
138.980888360980714
 51
154.4611512443362074
  0
ARC
  5
2D5D0
  8
0
 10
3190.423597331468045
 20
190.0449394137230001
 30
0.0
 40
1.880734956742415
 50
154.5255263766894984
 51
168.9680398333240987
  0
ARC
  5
2D5D1
  8
0
 10
3190.4524173421500564
 20
190.0609737853326067
 30
0.0
 40
1.906072599489703
 50
169.6069086380884983
 51
187.8590405613373093
  0
ARC
  5
2D5D2
  8
0
 10
3190.6679890138739211
 20
190.1595236359750913
 30
0.0
 40
2.134183168326
 50
189.6888931279540884
 51
205.2207430850702963
  0
ARC
  5
2D5D3
  8
0
 10
3190.9598403216768929
 20
190.3993149905010966
 30
0.0
 40
2.5021029524412071
 50
207.3410581528783041
 51
227.5703117792452872
  0
ARC
  5
2D5D4
  8
0
 10
3191.0429192652909478
 20
190.6515425627459024
 30
0.0
 40
2.7464836784836009
 50
229.841745829772691
 51
249.69233243577861
  0
ARC
  5
2D5D5
  8
0
 10
3191.1871768817291013
 20
191.0074608417077116
 30
0.0
 40
3.1303672925168242
 50
249.4769852503031018
 51
261.6619551602913134
  0
ARC
  5
2D5D6
  8
0
 10
3191.2420041767741168
 20
191.5842397115671076
 30
0.0
 40
3.709116592501787
 50
262.1159989696561183
 51
269.5022657391374992
  0
ARC
  5
2D5D7
  8
0
 10
3189.8606969233837845
 20
190.0752787269202884
 30
0.0
 40
1.2916618712387109
 50
153.794635950826688
 51
176.6355554955817126
  0
ARC
  5
2D5D8
  8
0
 10
3190.3415425028520076
 20
189.9995359596319133
 30
0.0
 40
1.7767559790897249
 50
175.1070763423138033
 51
186.5964915424034984
  0
ARC
  5
2D5D9
  8
0
 10
3190.4724906111518976
 20
190.0578488531569121
 30
0.0
 40
1.9140164294864059
 50
187.8803251436009134
 51
204.9609314744110122
  0
LINE
  5
2D5DA
  8
0
 10
3194.4803632645639482
 20
199.642745142355011
 30
0.0
 11
3194.609779446363973
 21
198.8856078671551018
 31
0.0
  0
LINE
  5
2D5DB
  8
0
 10
3194.609779446363973
 20
198.7327451423550997
 30
0.0
 11
3194.609779446363973
 21
198.8856078671551018
 31
0.0
  0
LINE
  5
2D5DC
  8
0
 10
3193.9226258179642173
 20
189.3019014754871137
 30
0.0
 11
3193.944105784563817
 21
190.0076398957870936
 31
0.0
  0
LINE
  5
2D5DD
  8
0
 10
3193.2097794463661558
 20
199.5527451423550076
 30
0.0
 11
3193.2097794463661558
 21
199.3827451423549917
 31
0.0
  0
LINE
  5
2D5DE
  8
0
 10
3192.9677794463641476
 20
194.4197451423551115
 30
0.0
 11
3192.9677794463641476
 21
194.9197451423551115
 31
0.0
  0
LINE
  5
2D5DF
  8
0
 10
3192.2097831091641638
 20
198.442745142354994
 30
0.0
 11
3192.2097831091641638
 21
198.4627451423550042
 31
0.0
  0
LINE
  5
2D5E0
  8
0
 10
3192.0097831091638909
 20
196.0897451423550137
 30
0.0
 11
3192.0097831091638909
 21
196.1397451423549967
 31
0.0
  0
LINE
  5
2D5E1
  8
0
 10
3191.9982831091638218
 20
196.1597451423550069
 30
0.0
 11
3191.9982831091638218
 21
198.4127451423549928
 31
0.0
  0
LINE
  5
2D5E2
  8
0
 10
3191.8347794463138598
 20
198.9427451423551076
 30
0.0
 11
3191.834779446363882
 21
191.7494057895870867
 31
0.0
  0
LINE
  5
2D5E3
  8
0
 10
3191.8297831091640546
 20
191.2876767583871072
 30
0.0
 11
3191.8297831091640546
 21
191.6909377095236096
 31
0.0
  0
LINE
  5
2D5E4
  8
0
 10
3191.9777304039639603
 20
190.908569489987201
 30
0.0
 11
3191.9887882079638075
 21
190.5453210655871032
 31
0.0
  0
LINE
  5
2D5E5
  8
0
 10
3191.4003086979641921
 20
190.9965251583871009
 30
0.0
 11
3191.4003086979641921
 21
190.7593402996450891
 31
0.0
  0
LINE
  5
2D5E6
  8
0
 10
3191.8347831091641638
 20
194.4097451423550922
 30
0.0
 11
3192.9577831091642111
 21
194.4097451423550069
 31
0.0
  0
LINE
  5
2D5E7
  8
0
 10
3191.8347831091641638
 20
194.9297451423549887
 30
0.0
 11
3192.9577831091642111
 21
194.9297451423549887
 31
0.0
  0
LINE
  5
2D5E8
  8
0
 10
3191.9897831091639091
 20
196.0697451423550035
 30
0.0
 11
3191.8347794463361424
 21
196.0697451423550035
 31
0.0
  0
LINE
  5
2D5E9
  8
0
 10
3191.8347794463347782
 20
196.1597451423550069
 30
0.0
 11
3191.998283109213844
 21
196.1597451423550069
 31
0.0
  0
LINE
  5
2D5EA
  8
0
 10
3192.1797831091639637
 20
198.4127451423549928
 30
0.0
 11
3191.8347794463179525
 21
198.4127451423549928
 31
0.0
  0
LINE
  5
2D5EB
  8
0
 10
3192.2097831091700755
 20
198.4727451423848947
 30
0.0
 11
3191.8347794463179525
 21
198.4727451423549951
 31
0.0
  0
LINE
  5
2D5EC
  8
0
 10
3194.5097831091638909
 20
198.6327451423549917
 30
0.0
 11
3191.834783109214186
 21
198.6327451423549917
 31
0.0
  0
LINE
  5
2D5ED
  8
0
 10
3191.8418789833290248
 20
198.8856078671549881
 30
0.0
 11
3194.609779446363973
 21
198.8856078671551018
 31
0.0
  0
ARC
  5
2D5EE
  8
0
 10
3193.5649301779640155
 20
195.5187518414550993
 30
0.0
 40
3.25
 50
106.6342181600048065
 51
114.6433328263932054
  0
ARC
  5
2D5EF
  8
0
 10
3194.5097856990400942
 20
198.7327388898407037
 30
0.0
 40
0.0999937475192443
 50
269.9985160174584848
 51
0.0035826508115717
  0
ARC
  5
2D5F0
  8
0
 10
3193.1297856989958746
 20
199.3827388899264861
 30
0.0
 40
0.0799937476133664
 50
269.9981450242005963
 51
0.0044783221061479
  0
ARC
  5
2D5F1
  8
0
 10
3192.1797831091639637
 20
198.442745142354994
 30
0.0
 40
0.03
 50
270.0
 51
0.0
  0
ARC
  5
2D5F2
  8
0
 10
3191.9897831091639091
 20
196.0897451423550137
 30
0.0
 40
0.02
 50
270.0
 51
0.0
  0
ARC
  5
2D5F3
  8
0
 10
3191.9897831091639091
 20
196.1397451423549967
 30
0.0
 40
0.02
 50
0.0
 51
90.0
  0
ARC
  5
2D5F4
  8
0
 10
3192.1997831091639455
 20
198.4627451423550042
 30
0.0
 40
0.01
 50
0.0
 51
90.0000000045596522
  0
ARC
  5
2D5F5
  8
0
 10
3192.9577856980099568
 20
194.9197513923820111
 30
0.0
 40
0.0099937503083686
 50
359.9641675869492019
 51
90.014842270668268
  0
ARC
  5
2D5F6
  8
0
 10
3192.9577856980099568
 20
194.4197388923280982
 30
0.0
 40
0.0099937503083786
 50
269.9851577293578089
 51
0.0358324130100247
  0
ARC
  5
2D5F7
  8
0
 10
3191.1941338282272227
 20
190.5007874633411973
 30
0.0
 40
3.3743397030153721
 50
270.2657233839022979
 51
283.5405997883938767
  0
ARC
  5
2D5F8
  8
0
 10
3191.3397185567869201
 20
189.9780303437729003
 30
0.0
 40
2.8320913192189918
 50
283.1533224986637265
 51
312.689699194176228
  0
ARC
  5
2D5F9
  8
0
 10
3191.7485117962642107
 20
189.5011990484179023
 30
0.0
 40
2.2045480206506771
 50
313.282973767283579
 51
339.6327119237162151
  0
ARC
  5
2D5FA
  8
0
 10
3192.0549550106320567
 20
189.3609090064034035
 30
0.0
 40
1.868602722160593
 50
340.395175334099406
 51
358.1903886823471908
  0
ARC
  5
2D5FB
  8
0
 10
3191.2605350371882196
 20
189.2196467842942127
 30
0.0
 40
3.082307453233831
 50
62.5630737321995412
 51
79.2627967937898745
  0
ARC
  5
2D5FC
  8
0
 10
3191.5159960276919264
 20
189.68348702648521
 30
0.0
 40
2.55296447607707
 50
38.8500537517107603
 51
62.8548733713562484
  0
ARC
  5
2D5FD
  8
0
 10
3191.8504973022950253
 20
189.9701149405483136
 30
0.0
 40
2.112703387439558
 50
23.1888658231442406
 51
38.4867674114629068
  0
ARC
  5
2D5FE
  8
0
 10
3191.5768446101560585
 20
189.9675638507052895
 30
0.0
 40
2.3676003795511029
 50
0.9698840762439598
 51
20.637121729878519
  0
ARC
  5
2D5FF
  8
0
 10
3190.8292520451332166
 20
190.2417972541973086
 30
0.0
 40
3.1236426630690048
 50
348.2821507121076934
 51
355.7009085266819852
  0
ARC
  5
2D600
  8
0
 10
3191.9100539440928515
 20
190.1211128844460063
 30
0.0
 40
2.043369221014367
 50
319.8008750532661111
 51
345.4396127528341935
  0
ARC
  5
2D601
  8
0
 10
3191.4977057849009725
 20
190.4704299336019915
 30
0.0
 40
2.583788556995513
 50
295.4038963904183106
 51
319.7861964849180936
  0
ARC
  5
2D602
  8
0
 10
3191.2553006669500064
 20
190.9307903195864071
 30
0.0
 40
3.1037001557284589
 50
279.9340506967340048
 51
295.800301394866608
  0
ARC
  5
2D603
  8
0
 10
3191.1826452520390376
 20
191.4575030174245001
 30
0.0
 40
3.63510118374389
 50
270.427745760916082
 51
279.6298542459310852
  0
ARC
  5
2D604
  8
0
 10
3191.3645784872969671
 20
191.7601571483725138
 30
0.0
 40
0.4703238603590284
 50
308.5357770543113816
 51
358.6901341890247181
  0
ARC
  5
2D605
  8
0
 10
3191.2398028474658531
 20
191.8976422468649901
 30
0.0
 40
0.6557118473780732
 50
284.9078211268803216
 51
309.5798676170430781
  0
ARC
  5
2D606
  8
0
 10
3191.2043202877348449
 20
192.0347725960359924
 30
0.0
 40
0.7973555476379215
 50
270.3925464138721964
 51
284.8366430740662736
  0
ARC
  5
2D607
  8
0
 10
3191.3899018835450079
 20
191.2906920265255053
 30
0.0
 40
0.4398915599259034
 50
322.270163495821123
 51
359.6072589086293192
  0
ARC
  5
2D608
  8
0
 10
3191.2809491951729797
 20
191.3719544752476054
 30
0.0
 40
0.5757954516819833
 50
295.807911322613279
 51
322.5091328899084147
  0
ARC
  5
2D609
  8
0
 10
3191.2241996796028616
 20
191.4741015055867877
 30
0.0
 40
0.6924920431527086
 50
284.7328202040641258
 51
296.355564471198079
  0
ARC
  5
2D60A
  8
0
 10
3191.2123445334291318
 20
191.7082443727917109
 30
0.0
 40
0.7361214350377459
 50
277.6878715431137721
 51
284.793967525202504
  0
ARC
  5
2D60B
  8
0
 10
3191.1860263269031748
 20
192.0807557188225871
 30
0.0
 40
1.1090595936203329
 50
271.2274069683679727
 51
276.460733185133904
  0
ARC
  5
2D60C
  8
0
 10
3191.3439601085251525
 20
190.7871707508612928
 30
0.0
 40
0.0628466192140101
 50
297.0912227349753039
 51
333.7153296173431158
  0
ARC
  5
2D60D
  8
0
 10
3191.213867941468834
 20
191.0385894069453911
 30
0.0
 40
0.3459278720743324
 50
286.4235167225364194
 51
297.3099516170478864
  0
ARC
  5
2D60E
  8
0
 10
3191.2264598881602069
 20
191.084244201823509
 30
0.0
 40
0.3869671994185056
 50
273.3385333715808088
 51
282.7213652912063822
  0
ARC
  5
2D60F
  8
0
 10
3191.3269229100278608
 20
187.9674417563369957
 30
0.0
 40
2.7316037745961901
 50
91.6347689463268864
 51
92.4577777497347029
  0
ARC
  5
2D610
  8
0
 10
3191.2467978313829917
 20
191.1720929301831973
 30
0.0
 40
0.4661793821894943
 50
299.3557148512782078
 51
327.5528927439009976
  0
ARC
  5
2D611
  8
0
 10
3191.2165779455290249
 20
191.220710379395598
 30
0.0
 40
0.5233747093242056
 50
281.6731964247467772
 51
299.6300239113037946
  0
ARC
  5
2D612
  8
0
 10
3191.211567140113857
 20
191.2368332531113992
 30
0.0
 40
0.5401804598627868
 50
277.3332206785066774
 51
281.8476827530253104
  0
ARC
  5
2D613
  8
0
 10
3191.3657391430288044
 20
190.8898203247881042
 30
0.0
 40
0.3140470261698782
 50
343.3039084585199134
 51
11.2280481674517603
  0
ARC
  5
2D614
  8
0
 10
3191.3077391572928718
 20
190.9137295829135041
 30
0.0
 40
0.3765225488686185
 50
305.6914346143735202
 51
342.3545958676331225
  0
ARC
  5
2D615
  8
0
 10
3191.218753767906037
 20
191.0335412204316867
 30
0.0
 40
0.5257512408208076
 50
273.2966737245831723
 51
305.9498079296897117
  0
ARC
  5
2D616
  8
0
 10
3191.1953252328489725
 20
191.5895348302119885
 30
0.0
 40
1.1022341457397029
 50
270.7515635880449167
 51
272.7918727961110221
  0
ARC
  5
2D617
  8
0
 10
3191.2126195606429064
 20
191.0983646513467136
 30
0.0
 40
0.6108407848408048
 50
273.4156735294167788
 51
290.1691791322998029
  0
ARC
  5
2D618
  8
0
 10
3191.2449883073131787
 20
191.0176973335503874
 30
0.0
 40
0.5239658743574799
 50
289.888115224888395
 51
310.6936640198994724
  0
ARC
  5
2D619
  8
0
 10
3191.3276438743891958
 20
190.9299164147130057
 30
0.0
 40
0.4035537905974835
 50
309.9219124556262841
 51
335.7895110399359169
  0
ARC
  5
2D61A
  8
0
 10
3191.4164514276158116
 20
190.8827784286756923
 30
0.0
 40
0.3032977136204833
 50
337.0312863246447819
 51
359.1331879848626727
  0
ARC
  5
2D61B
  8
0
 10
3191.3732240255330908
 20
190.8847594871537012
 30
0.0
 40
0.346552678825576
 50
358.9138133019882844
 51
16.4746693482736504
  0
ARC
  5
2D61C
  8
0
 10
3190.8099009500087959
 20
190.498076939153691
 30
0.0
 40
0.4392142255042633
 50
358.7648034844090148
 51
1.380702772053042
  0
ARC
  5
2D61D
  8
0
 10
3191.3775799341719903
 20
190.9105793166401952
 30
0.0
 40
0.3500914389029779
 50
335.324389917650592
 51
14.1260265561915208
  0
ARC
  5
2D61E
  8
0
 10
3191.4219724897861852
 20
190.536259552443596
 30
0.0
 40
0.5668881453982295
 50
315.1645283661878238
 51
0.9158924478872481
  0
ARC
  5
2D61F
  8
0
 10
3191.2771843608511517
 20
190.6642873226994936
 30
0.0
 40
0.7599153356127274
 50
290.410385832663394
 51
316.0163535556379202
  0
ARC
  5
2D620
  8
0
 10
3191.1171075334600573
 20
191.3325463798566943
 30
0.0
 40
1.4444337478673339
 50
273.6786520894888781
 51
287.1153314687610987
  0
ARC
  5
2D621
  8
0
 10
3191.4111277197539493
 20
190.9014184891013031
 30
0.0
 40
0.5666478082264005
 50
310.7411172934138222
 51
0.7230823807827745
  0
ARC
  5
2D622
  8
0
 10
3191.2574257668438804
 20
191.0551164606712859
 30
0.0
 40
0.7835783024727828
 50
286.3348148778520113
 51
311.921732302766884
  0
ARC
  5
2D623
  8
0
 10
3191.2053065264149154
 20
191.2220535348702981
 30
0.0
 40
0.9584403185751762
 50
270.2676121045037121
 51
286.5180054155308085
  0
ARC
  5
2D624
  8
0
 10
3191.4080700219960818
 20
190.8848619423285129
 30
0.0
 40
0.5701534868789088
 50
2.3831024168128381
 51
42.3758128420747511
  0
ARC
  5
2D625
  8
0
 10
3191.2512465597560549
 20
189.2412064334756963
 30
0.0
 40
2.9625670028106321
 50
65.3272333025733474
 51
78.6401768461627171
  0
ARC
  5
2D626
  8
0
 10
3191.4094887113578807
 20
189.5744885106286119
 30
0.0
 40
2.5936597123785772
 50
48.8312106912850226
 51
65.4304418216313053
  0
ARC
  5
2D627
  8
0
 10
3191.6777936523371864
 20
189.8831482358733069
 30
0.0
 40
2.1846895119052081
 50
31.3243138017626102
 51
48.7994380380781223
  0
ARC
  5
2D628
  8
0
 10
3191.9704791042217948
 20
190.0594723048236006
 30
0.0
 40
1.842999384310573
 50
5.7195720388970317
 51
31.3721595910680797
  0
ARC
  5
2D629
  8
0
 10
3192.0052379067888069
 20
190.0793220057890096
 30
0.0
 40
1.8065088308024559
 50
327.3579147325381768
 51
5.2030069990532812
  0
ARC
  5
2D62A
  8
0
 10
3191.5168807665158965
 20
190.4088965987363906
 30
0.0
 40
2.3955436861202131
 50
293.5439894327898855
 51
327.0205371175132996
  0
ARC
  5
2D62B
  8
0
 10
3191.1702219203630193
 20
191.2420989467736092
 30
0.0
 40
3.2978931403899381
 50
270.6873307961221258
 51
293.2829622080161016
  0
ARC
  5
2D62C
  8
0
 10
3191.2416642632279036
 20
189.169734558829191
 30
0.0
 40
3.073411568144651
 50
68.6686728030280449
 51
78.8730293428201605
  0
ARC
  5
2D62D
  8
0
 10
3191.3563926579809049
 20
189.4500185810109087
 30
0.0
 40
2.7705997966040168
 50
53.9928982962670929
 51
68.7702599636407399
  0
ARC
  5
2D62E
  8
0
 10
3191.5746923399310617
 20
189.7526316356355096
 30
0.0
 40
2.3974678761903938
 50
40.9703255636083767
 51
53.9616011844499965
  0
ARC
  5
2D62F
  8
0
 10
3191.8077717547089378
 20
189.9526753621900923
 30
0.0
 40
2.0903199106477151
 50
25.5388487556638388
 51
41.0191116390193216
  0
ARC
  5
2D630
  8
0
 10
3191.995968886861192
 20
190.0449394137230001
 30
0.0
 40
1.880734956742415
 50
11.0319601666758906
 51
25.4744736233105407
  0
ARC
  5
2D631
  8
0
 10
3191.9671488761778164
 20
190.0609737853326067
 30
0.0
 40
1.906072599489703
 50
352.1409594386627191
 51
10.3930913619114804
  0
ARC
  5
2D632
  8
0
 10
3191.7515772044548612
 20
190.1595236359750913
 30
0.0
 40
2.134183168326
 50
334.7792569149297037
 51
350.3111068720459116
  0
ARC
  5
2D633
  8
0
 10
3191.4597258966518893
 20
190.3993149905010966
 30
0.0
 40
2.5021029524412071
 50
312.4296882207547128
 51
332.658941847120218
  0
ARC
  5
2D634
  8
0
 10
3191.376646953036925
 20
190.6515425627459024
 30
0.0
 40
2.7464836784836009
 50
290.30766756422139
 51
310.1582541702273943
  0
ARC
  5
2D635
  8
0
 10
3191.2323893365992262
 20
191.0074608417077116
 30
0.0
 40
3.1303672925168242
 50
278.3380448397086866
 51
290.5230147496969266
  0
ARC
  5
2D636
  8
0
 10
3191.1775620415542107
 20
191.5842397115671076
 30
0.0
 40
3.709116592501787
 50
270.4977342608623871
 51
277.8840010303439954
  0
ARC
  5
2D637
  8
0
 10
3192.5588692949440883
 20
190.0752787269202884
 30
0.0
 40
1.2916618712387109
 50
3.3644445044182572
 51
26.2053640491732516
  0
ARC
  5
2D638
  8
0
 10
3192.0780237154758652
 20
189.9995359596319133
 30
0.0
 40
1.7767559790897249
 50
353.4035084575965016
 51
4.8929236576861781
  0
ARC
  5
2D639
  8
0
 10
3191.9470756071759752
 20
190.0578488531569121
 30
0.0
 40
1.9140164294864059
 50
335.0390685255875951
 51
352.119674856399115
  0
LINE
  5
2D63A
  8
0
 10
3189.2097794463629725
 20
199.5527451423550076
 30
0.0
 11
3189.2256525374141347
 21
199.642745142355011
 31
0.0
  0
LINE
  5
2D63B
  8
0
 10
3193.1939136809141928
 20
199.642745142355011
 30
0.0
 11
3193.2097794463661558
 21
199.5527451426385994
 31
0.0
  0
ARC
  5
2D63C
  8
0
 10
3190.2847895555069044
 20
198.9427535576421064
 30
0.0
 40
0.2999898909745757
 50
359.9983927443960852
 51
70.0630967822250739
  0
ARC
  5
2D63D
  8
0
 10
3189.7051018644137912
 20
197.3446307364536096
 30
0.0
 40
2.000000000001557
 50
70.0628051667151936
 51
78.2533008911420467
  0
ARC
  5
2D63E
  8
0
 10
3192.1347895559770222
 20
198.9427367265869862
 30
0.0
 40
0.3000101097305067
 50
109.938121899813197
 51
179.9983927608710985
  0
ARC
  5
2D63F
  8
0
 10
3192.7144219624087782
 20
197.3447801276685993
 30
0.0
 40
1.999845107177368
 50
101.7463813807419939
 51
109.9375125614166961
  0
ATTDEF
  5
2E1D3
  8
DEFPOINTS
 10
3191.1972701015902203
 20
199.6402961258434914
 30
0.0
 40
0.001
  1
K-T14420-4
  3

  2
MODELNUMBER
 70
     0
1001
ACDBATTR
1070
     0
1070
     1
  0
ATTDEF
  5
2E1D4
  8
DEFPOINTS
 10
3191.1972701015902203
 20
199.6386294591769115
 30
0.0
 40
0.001
  1
PURIST
  3

  2
TRADENAME
 70
     0
1001
ACDBATTR
1070
     0
1070
     1
  0
ATTDEF
  5
2E1D5
  8
DEFPOINTS
 10
3191.1972701015902203
 20
199.6369627925101895
 30
0.0
 40
0.001
  1
BATH AND SHOWER TRIM
  3

  2
PRODUCT
 70
     0
1001
ACDBATTR
1070
     0
1070
     1
  0
ENDSEC
  0
EOF
