  0
SECTION
  2
HEADER
  9
$ACADVER
  1
AC1009
  9
$INSBASE
 10
0.0
 20
0.0
 30
0.0
  9
$EXTMIN
 10
-74.097231733501843
 20
-31.468943767792759
 30
-0.0180137289959192
  9
$EXTMAX
 10
13.494044143305
 20
8.5856430504097361
 30
0.0017054755538702
  9
$LIMMIN
 10
0.0
 20
0.0
  9
$LIMMAX
 10
420.0
 20
297.0
  9
$ORTHOMODE
 70
     1
  9
$REGENMODE
 70
     1
  9
$FILLMODE
 70
     1
  9
$QTEXTMODE
 70
     0
  9
$MIRRTEXT
 70
     1
  9
$DRAGMODE
 70
     2
  9
$LTSCALE
 40
1.0
  9
$OSMODE
 70
    37
  9
$ATTMODE
 70
     1
  9
$TEXTSIZE
 40
0.001
  9
$TRACEWID
 40
1.0
  9
$TEXTSTYLE
  7
STANDARD
  9
$CLAYER
  8
0
  9
$CELTYPE
  6
BYLAYER
  9
$CECOLOR
 62
   256
  9
$DIMSCALE
 40
1.0
  9
$DIMASZ
 40
2.5
  9
$DIMEXO
 40
0.625
  9
$DIMDLI
 40
3.75
  9
$DIMRND
 40
0.0
  9
$DIMDLE
 40
0.0
  9
$DIMEXE
 40
1.25
  9
$DIMTP
 40
0.0
  9
$DIMTM
 40
0.0
  9
$DIMTXT
 40
2.5
  9
$DIMCEN
 40
2.5
  9
$DIMTSZ
 40
0.0
  9
$DIMTOL
 70
     0
  9
$DIMLIM
 70
     0
  9
$DIMTIH
 70
     0
  9
$DIMTOH
 70
     0
  9
$DIMSE1
 70
     0
  9
$DIMSE2
 70
     0
  9
$DIMTAD
 70
     1
  9
$DIMZIN
 70
     8
  9
$DIMBLK
  1

  9
$DIMASO
 70
     1
  9
$DIMSHO
 70
     1
  9
$DIMPOST
  1

  9
$DIMAPOST
  1

  9
$DIMALT
 70
     0
  9
$DIMALTD
 70
     3
  9
$DIMALTF
 40
0.03937007874016
  9
$DIMLFAC
 40
1.0
  9
$DIMTOFL
 70
     1
  9
$DIMTVP
 40
0.0
  9
$DIMTIX
 70
     0
  9
$DIMSOXD
 70
     0
  9
$DIMSAH
 70
     0
  9
$DIMBLK1
  1

  9
$DIMBLK2
  1

  9
$DIMSTYLE
  2
ISO-25
  9
$DIMCLRD
 70
     0
  9
$DIMCLRE
 70
     0
  9
$DIMCLRT
 70
     0
  9
$DIMTFAC
 40
1.0
  9
$DIMGAP
 40
0.625
  9
$LUNITS
 70
     2
  9
$LUPREC
 70
     4
  9
$SKETCHINC
 40
1.0
  9
$FILLETRAD
 40
0.0
  9
$AUNITS
 70
     0
  9
$AUPREC
 70
     0
  9
$MENU
  1
.
  9
$ELEVATION
 40
0.0
  9
$PELEVATION
 40
0.0
  9
$THICKNESS
 40
0.0
  9
$LIMCHECK
 70
     0
  9
$BLIPMODE
 70
     0
  9
$CHAMFERA
 40
10.0
  9
$CHAMFERB
 40
10.0
  9
$SKPOLY
 70
     0
  9
$TDCREATE
 40
2453378.22126956
  9
$TDUPDATE
 40
2453411.5134770949
  9
$TDINDWG
 40
0.7574326273000001
  9
$TDUSRTIMER
 40
0.7574189699
  9
$USRTIMER
 70
     1
  9
$ANGBASE
 50
0.0
  9
$ANGDIR
 70
     0
  9
$PDMODE
 70
     0
  9
$PDSIZE
 40
0.0
  9
$PLINEWID
 40
0.0
  9
$COORDS
 70
     1
  9
$SPLFRAME
 70
     0
  9
$SPLINETYPE
 70
     6
  9
$SPLINESEGS
 70
     8
  9
$ATTDIA
 70
     0
  9
$ATTREQ
 70
     1
  9
$HANDLING
 70
     1
  9
$HANDSEED
  5
9B8FA
  9
$SURFTAB1
 70
     6
  9
$SURFTAB2
 70
     6
  9
$SURFTYPE
 70
     6
  9
$SURFU
 70
     6
  9
$SURFV
 70
     6
  9
$UCSNAME
  2

  9
$UCSORG
 10
0.0
 20
0.0
 30
0.0
  9
$UCSXDIR
 10
1.0
 20
0.0
 30
0.0
  9
$UCSYDIR
 10
0.0
 20
1.0
 30
0.0
  9
$PUCSNAME
  2

  9
$PUCSORG
 10
0.0
 20
0.0
 30
0.0
  9
$PUCSXDIR
 10
1.0
 20
0.0
 30
0.0
  9
$PUCSYDIR
 10
0.0
 20
1.0
 30
0.0
  9
$USERI1
 70
     0
  9
$USERI2
 70
     0
  9
$USERI3
 70
     0
  9
$USERI4
 70
     0
  9
$USERI5
 70
     0
  9
$USERR1
 40
0.0
  9
$USERR2
 40
0.0
  9
$USERR3
 40
0.0
  9
$USERR4
 40
0.0
  9
$USERR5
 40
0.0
  9
$WORLDVIEW
 70
     1
  9
$SHADEDGE
 70
     3
  9
$SHADEDIF
 70
    70
  9
$TILEMODE
 70
     1
  9
$MAXACTVP
 70
    64
  9
$PLIMCHECK
 70
     0
  9
$PEXTMIN
 10
1.0000000000000000E+020
 20
1.0000000000000000E+020
 30
1.0000000000000000E+020
  9
$PEXTMAX
 10
-1.0000000000000000E+020
 20
-1.0000000000000000E+020
 30
-1.0000000000000000E+020
  9
$PLIMMIN
 10
0.0
 20
0.0
  9
$PLIMMAX
 10
420.0
 20
297.0
  9
$UNITMODE
 70
     0
  9
$VISRETAIN
 70
     1
  9
$PLINEGEN
 70
     0
  9
$PSLTSCALE
 70
     1
  0
ENDSEC
  0
SECTION
  2
TABLES
  0
TABLE
  2
VPORT
 70
     2
  0
VPORT
  2
*ACTIVE
 70
     0
 10
0.0
 20
0.0
 11
1.0
 21
1.0
 12
0.7388624111633586
 22
4.401990285211979
 13
0.0
 23
0.0
 14
10.0
 24
10.0
 15
10.0
 25
10.0
 16
0.0
 26
0.0
 36
1.0
 17
0.0
 27
0.0
 37
0.0
 40
9.8140056833959761
 41
1.9608247422680409
 42
50.0
 43
0.0
 44
0.0
 50
0.0
 51
0.0
 71
     0
 72
  1000
 73
     1
 74
     3
 75
     0
 76
     0
 77
     0
 78
     0
  0
ENDTAB
  0
TABLE
  2
LTYPE
 70
     1
  0
LTYPE
  2
CONTINUOUS
 70
     0
  3
Solid line
 72
    65
 73
     0
 40
0.0
  0
ENDTAB
  0
TABLE
  2
LAYER
 70
     3
  0
LAYER
  2
0
 70
     0
 62
     7
  6
CONTINUOUS
  0
LAYER
  2
ASHADE
 70
     0
 62
     7
  6
CONTINUOUS
  0
LAYER
  2
DEFPOINTS
 70
     0
 62
     7
  6
CONTINUOUS
  0
ENDTAB
  0
TABLE
  2
STYLE
 70
     2
  0
STYLE
  2
STANDARD
 70
     0
 40
0.0
 41
1.0
 50
0.0
 71
     0
 42
0.001
  3
txt
  4

  0
STYLE
  2
ASHADE
 70
     0
 40
0.2
 41
1.0
 50
0.0
 71
     0
 42
2.5
  3
simplex.shx
  4

  0
ENDTAB
  0
TABLE
  2
VIEW
 70
     0
  0
ENDTAB
  0
TABLE
  2
UCS
 70
     0
  0
ENDTAB
  0
TABLE
  2
APPID
 70
     6
  0
APPID
  2
ACAD
 70
     0
  0
APPID
  2
AVE_RENDER
 70
     0
  0
APPID
  2
AVE_ENTITY_MATERIAL
 70
     0
  0
APPID
  2
AVE_FINISH
 70
     0
  0
APPID
  2
AVE_MATERIAL
 70
     0
  0
APPID
  2
AVE_GLOBAL
 70
     0
  0
ENDTAB
  0
TABLE
  2
DIMSTYLE
 70
     2
  0
DIMSTYLE
  2
ISO-25
 70
     0
  3

  4

  5

  6

  7

 40
1.0
 41
2.5
 42
0.625
 43
3.75
 44
1.25
 45
0.0
 46
0.0
 47
0.0
 48
0.0
140
2.5
141
2.5
142
0.0
143
0.03937007874016
144
1.0
145
0.0
146
1.0
147
0.625
 71
     0
 72
     0
 73
     0
 74
     0
 75
     0
 76
     0
 77
     1
 78
     8
170
     0
171
     3
172
     1
173
     0
174
     0
175
     0
176
     0
177
     0
178
     0
  0
DIMSTYLE
  2
STANDARD
 70
     0
  3

  4

  5

  6

  7

 40
1.0
 41
0.18
 42
0.0625
 43
0.38
 44
0.18
 45
0.0
 46
0.0
 47
0.0
 48
0.0
140
0.18
141
0.09
142
0.0
143
25.399999999999999
144
1.0
145
0.0
146
1.0
147
0.09
 71
     0
 72
     0
 73
     1
 74
     1
 75
     0
 76
     0
 77
     0
 78
     0
170
     0
171
     2
172
     0
173
     0
174
     0
175
     0
176
     0
177
     0
178
     0
  0
ENDTAB
  0
ENDSEC
  0
SECTION
  2
BLOCKS
  0
BLOCK
  8
0
  2
$MODEL_SPACE
 70
     0
 10
0.0
 20
0.0
 30
0.0
  3
$MODEL_SPACE
  1

  0
ENDBLK
  5
9B34F
  8
0
  0
BLOCK
 67
     1
  8
0
  2
$PAPER_SPACE
 70
     0
 10
0.0
 20
0.0
 30
0.0
  3
$PAPER_SPACE
  1

  0
ENDBLK
  5
9B34B
 67
     1
  8
0
  0
BLOCK
  8
ASHADE
  2
AVE_RENDER
 70
     0
 10
0.0
 20
0.0
 30
0.0
  3
AVE_RENDER
  1
AVE_RENDER
  0
ENDBLK
  5
31
  8
0
  0
BLOCK
  8
ASHADE
  2
AVE_GLOBAL
 70
     0
 10
0.0
 20
0.0
 30
0.0
  3
AVE_GLOBAL
  1
AVE_GLOBAL
  0
ENDBLK
  5
3F
  8
0
  0
BLOCK
  8
ASHADE
  2
RM_SDB
 70
     2
 10
0.0
 20
0.0
 30
0.0
  3
RM_SDB
  1
RM_SDB
  0
ATTDEF
  5
96286
  8
ASHADE
  6
CONTINUOUS
 62
     1
 10
0.0000000000000001
 20
-0.15
 30
0.0
 40
0.2
  1

 41
100.0
  7
ASHADE
 72
     1
 11
0.0000000000000001
 21
-0.15
 31
0.0
  3
Name
  2
NAME
 70
     0
  0
ENDBLK
  5
620
  8
0
  0
ENDSEC
  0
SECTION
  2
ENTITIES
  0
CIRCLE
  5
999DE
  8
ASHADE
 10
-4.013584116941435
 20
5.4282010183962157
 30
0.0007207102328539
 40
0.2291518264691261
  0
CIRCLE
  5
99A00
  8
ASHADE
 10
4.0137201307954946
 20
5.4282010183962157
 30
0.0017054755538702
 40
0.2291518264691261
  0
ATTDEF
  5
9B22C
  8
0
 10
0.0
 20
0.0
 30
0.0
 40
0.001
  1
K-T14415-3
  3

  2
MODELNUMBER
 70
     8
  0
ATTDEF
  5
9B22D
  8
0
 10
0.0
 20
-0.0016666666666667
 30
0.0
 40
0.001
  1
PURIST
  3

  2
TRADENAME
 70
     8
  0
ATTDEF
  5
9B22E
  8
0
 10
0.0
 20
-0.0033333333333333
 30
0.0
 40
0.001
  1
FAUCETS
  3

  2
PRODUCT
 70
     8
  0
ATTDEF
  5
9B22F
  8
0
 10
0.0
 20
-0.005
 30
0.0
 40
0.001
  1
BRASS
  3

  2
MATERIAL
 70
     8
  0
POLYLINE
  5
9B6F5
  8
ASHADE
 66
     1
 10
0.0
 20
0.0
 30
-0.0004923826605081
  0
VERTEX
  5
9B7ED
  8
ASHADE
 10
-4.0137887435016451
 20
5.1998571355653107
 30
-0.0004923826605081
  0
VERTEX
  5
9B7EE
  8
ASHADE
 10
-2.5375259126481811
 20
5.1998245173406872
 30
-0.0004923826605081
  0
VERTEX
  5
9B7EF
  8
ASHADE
 10
-2.5178409314212602
 20
5.2224892555189371
 30
-0.0004923826605081
  0
VERTEX
  5
9B7F0
  8
ASHADE
 10
-2.5178409314212602
 20
5.6347235408735532
 30
-0.0004923826605081
  0
VERTEX
  5
9B7F1
  8
ASHADE
 10
-2.5375259126481811
 20
5.6574047054958569
 30
-0.0004923826605081
  0
VERTEX
  5
9B7F2
  8
ASHADE
 10
-3.7848538620528962
 20
5.6573814738106973
 30
-0.0004923826605081
  0
VERTEX
  5
9B7F3
  8
ASHADE
 10
-3.784853392725926
 20
6.3415536631655982
 30
-0.0004923826605081
 42
-0.2895060840606547
  0
VERTEX
  5
9B7F4
  8
ASHADE
 10
-3.6040001210031281
 20
6.5384034754347926
 30
-0.0004923826605081
  0
VERTEX
  5
9B7F5
  8
ASHADE
 10
-3.4889197392520681
 20
6.5384034754347926
 30
-0.0004923826605081
 42
0.2855398524686388
  0
VERTEX
  5
9B7F6
  8
ASHADE
 10
-3.460815145228521
 20
6.5659623553486437
 30
-0.0004923826605081
  0
VERTEX
  5
9B7F7
  8
ASHADE
 10
-3.4608206640538941
 20
6.6171434003424849
 30
-0.0004923826605081
  0
VERTEX
  5
9B7F8
  8
ASHADE
 10
-3.4820835225639151
 20
6.6368284989011439
 30
-0.0004923826605081
  0
VERTEX
  5
9B7F9
  8
ASHADE
 10
-3.4608206640538941
 20
6.6565134801280763
 30
-0.0004923826605081
  0
VERTEX
  5
9B7FA
  8
ASHADE
 10
-3.4608206640538941
 20
8.1132030295741764
 30
-0.0004923826605081
  0
VERTEX
  5
9B7FB
  8
ASHADE
 10
-3.4820835225639151
 20
8.1328880401340342
 30
-0.0004923826605081
  0
VERTEX
  5
9B7FC
  8
ASHADE
 10
-3.4608206640538941
 20
8.1525730506938938
 30
-0.0004923826605081
 42
-0.3059576486021033
  0
VERTEX
  5
9B7FD
  8
ASHADE
 10
-3.0847391047534711
 20
8.3791825489898262
 30
-0.0004923826605081
 42
0.2402864990585615
  0
VERTEX
  5
9B7FE
  8
ASHADE
 10
-3.0293972213609881
 20
8.4439110544485061
 30
-0.0004923826605081
  0
VERTEX
  5
9B7FF
  8
ASHADE
 10
-3.0294021693525131
 20
8.5856430504097236
 30
-0.0004923826605081
  0
VERTEX
  5
9B800
  8
ASHADE
 10
-4.0136521693525138
 20
8.5856430073842755
 30
-0.0004923826605081
  0
VERTEX
  5
9B801
  8
ASHADE
 10
-4.9979021693525132
 20
8.5856430504097361
 30
-0.0004923826605081
  0
VERTEX
  5
9B802
  8
ASHADE
 10
-4.9979071173440337
 20
8.4439110544485185
 30
-0.0004923826605081
 42
0.2402864990585606
  0
VERTEX
  5
9B803
  8
ASHADE
 10
-4.942565233951556
 20
8.3791825489898262
 30
-0.0004923826605081
 42
-0.3059576486021034
  0
VERTEX
  5
9B804
  8
ASHADE
 10
-4.566483674651125
 20
8.1525730506938938
 30
-0.0004923826605081
  0
VERTEX
  5
9B805
  8
ASHADE
 10
-4.5452208161411027
 20
8.1328880401340342
 30
-0.0004923826605081
  0
VERTEX
  5
9B806
  8
ASHADE
 10
-4.566483674651125
 20
8.1132030295741764
 30
-0.0004923826605081
  0
VERTEX
  5
9B807
  8
ASHADE
 10
-4.566483674651125
 20
6.6565134801280763
 30
-0.0004923826605081
  0
VERTEX
  5
9B808
  8
ASHADE
 10
-4.5452208161411027
 20
6.6368284989011439
 30
-0.0004923826605081
  0
VERTEX
  5
9B809
  8
ASHADE
 10
-4.566483674651125
 20
6.6171434003424849
 30
-0.0004923826605081
  0
VERTEX
  5
9B80A
  8
ASHADE
 10
-4.5664891934765039
 20
6.5659623553486437
 30
-0.0004923826605081
 42
0.2855398524686381
  0
VERTEX
  5
9B80B
  8
ASHADE
 10
-4.538384599452951
 20
6.5384034754347926
 30
-0.0004923826605081
  0
VERTEX
  5
9B80C
  8
ASHADE
 10
-4.4233042177018911
 20
6.5384034754347926
 30
-0.0004923826605081
 42
-0.2895060840606543
  0
VERTEX
  5
9B80D
  8
ASHADE
 10
-4.242450945979094
 20
6.3415536631655982
 30
-0.0004923826605081
  0
VERTEX
  5
9B80E
  8
ASHADE
 10
-4.2424504766521229
 20
5.6573814738106973
 30
-0.0004923826605081
  0
VERTEX
  5
9B80F
  8
ASHADE
 10
-5.4897784260568452
 20
5.6574047054958569
 30
-0.0004923826605081
  0
VERTEX
  5
9B810
  8
ASHADE
 10
-5.5094634072837652
 20
5.6347235408735532
 30
-0.0004923826605081
  0
VERTEX
  5
9B811
  8
ASHADE
 10
-5.5094634072837652
 20
5.2224892555189371
 30
-0.0004923826605081
  0
VERTEX
  5
9B812
  8
ASHADE
 10
-5.4897784260568452
 20
5.1998245173406872
 30
-0.0004923826605081
  0
VERTEX
  5
9B813
  8
ASHADE
 10
-4.0135155952033807
 20
5.1998571355653107
 30
-0.0004923826605081
  0
SEQEND
  5
9B814
  8
ASHADE
  0
POLYLINE
  5
9B71B
  8
ASHADE
 66
     1
 10
0.0
 20
0.0
 30
0.0
 70
     1
  0
VERTEX
  5
9B815
  8
ASHADE
 10
-0.9269437554386623
 20
8.3791823583257461
 30
0.0
  0
VERTEX
  5
9B816
  8
ASHADE
 10
0.9269436644705695
 20
8.3791823583257461
 30
0.0
 42
0.2403122088086199
  0
VERTEX
  5
9B817
  8
ASHADE
 10
0.9822831344799656
 20
8.4439108491179535
 30
0.0
  0
VERTEX
  5
9B818
  8
ASHADE
 10
0.9822806585374015
 20
8.5856430504097236
 30
0.0
  0
VERTEX
  5
9B819
  8
ASHADE
 10
-0.0000000454840485
 20
8.5856430504097236
 30
0.0
  0
VERTEX
  5
9B81A
  8
ASHADE
 10
-0.982280749505497
 20
8.5856430504097236
 30
0.0
  0
VERTEX
  5
9B81B
  8
ASHADE
 10
-0.9822832254480616
 20
8.4439108491179535
 30
0.0
 42
0.2403122088086191
  0
SEQEND
  5
9B81C
  8
ASHADE
  0
POLYLINE
  5
9B721
  8
ASHADE
 66
     1
 10
0.0
 20
0.0
 30
0.0004923826605082
  0
VERTEX
  5
9B81D
  8
ASHADE
 10
4.0135155042352828
 20
5.1998571355653107
 30
0.0004923826605082
  0
VERTEX
  5
9B81E
  8
ASHADE
 10
5.4897783350887446
 20
5.1998245173406872
 30
0.0004923826605082
  0
VERTEX
  5
9B81F
  8
ASHADE
 10
5.5094633163156672
 20
5.2224892555189371
 30
0.0004923826605082
  0
VERTEX
  5
9B820
  8
ASHADE
 10
5.5094633163156672
 20
5.6347235408735532
 30
0.0004923826605082
  0
VERTEX
  5
9B821
  8
ASHADE
 10
5.4897783350887446
 20
5.6574047054958569
 30
0.0004923826605082
  0
VERTEX
  5
9B822
  8
ASHADE
 10
4.2424503856840303
 20
5.6573814738106973
 30
0.0004923826605082
  0
VERTEX
  5
9B823
  8
ASHADE
 10
4.2424508550110041
 20
6.3415536631655982
 30
0.0004923826605082
 42
-0.2895060840606545
  0
VERTEX
  5
9B824
  8
ASHADE
 10
4.4233041267337958
 20
6.5384034754347926
 30
0.0004923826605082
  0
VERTEX
  5
9B825
  8
ASHADE
 10
4.5383845084848558
 20
6.5384034754347926
 30
0.0004923826605082
 42
0.28553985246864
  0
VERTEX
  5
9B826
  8
ASHADE
 10
4.5664891025084069
 20
6.5659623553486437
 30
0.0004923826605082
  0
VERTEX
  5
9B827
  8
ASHADE
 10
4.5664835836830289
 20
6.6171434003424849
 30
0.0004923826605082
  0
VERTEX
  5
9B828
  8
ASHADE
 10
4.5452207251730119
 20
6.6368284989011439
 30
0.0004923826605082
  0
VERTEX
  5
9B829
  8
ASHADE
 10
4.5664835836830289
 20
6.6565134801280763
 30
0.0004923826605082
  0
VERTEX
  5
9B82A
  8
ASHADE
 10
4.5664835836830324
 20
8.1132030295741764
 30
0.0004923826605082
  0
VERTEX
  5
9B82B
  8
ASHADE
 10
4.5452207251730119
 20
8.1328880401340342
 30
0.0004923826605082
  0
VERTEX
  5
9B82C
  8
ASHADE
 10
4.5664835836830324
 20
8.1525730506938938
 30
0.0004923826605082
 42
-0.3059576486021038
  0
VERTEX
  5
9B82D
  8
ASHADE
 10
4.9425651429834572
 20
8.3791825489898262
 30
0.0004923826605082
  0
VERTEX
  5
9B82E
  8
ASHADE
 10
3.0847390137853758
 20
8.3791825489898262
 30
0.0004923826605082
 42
-0.3059576486021033
  0
VERTEX
  5
9B82F
  8
ASHADE
 10
3.4608205730858019
 20
8.1525730506938938
 30
0.0004923826605082
  0
VERTEX
  5
9B830
  8
ASHADE
 10
3.4820834315958189
 20
8.1328880401340342
 30
0.0004923826605082
  0
VERTEX
  5
9B831
  8
ASHADE
 10
3.4608205730858019
 20
8.1132030295741764
 30
0.0004923826605082
  0
VERTEX
  5
9B832
  8
ASHADE
 10
3.4608205730858019
 20
6.6565134801280763
 30
0.0004923826605082
  0
VERTEX
  5
9B833
  8
ASHADE
 10
3.482083431595818
 20
6.6368284989011439
 30
0.0004923826605082
  0
VERTEX
  5
9B834
  8
ASHADE
 10
3.4608205730858019
 20
6.6171434003424849
 30
0.0004923826605082
  0
VERTEX
  5
9B835
  8
ASHADE
 10
3.460815054260423
 20
6.5659623553486437
 30
0.0004923826605082
 42
0.285539852468639
  0
VERTEX
  5
9B836
  8
ASHADE
 10
3.4889196482839751
 20
6.5384034754347926
 30
0.0004923826605082
  0
VERTEX
  5
9B837
  8
ASHADE
 10
3.604000030035035
 20
6.5384034754347926
 30
0.0004923826605082
 42
-0.2895060840606545
  0
VERTEX
  5
9B838
  8
ASHADE
 10
3.7848533017578281
 20
6.3415536631655982
 30
0.0004923826605082
  0
VERTEX
  5
9B839
  8
ASHADE
 10
3.7848537710848009
 20
5.6573814738106973
 30
0.0004923826605082
  0
VERTEX
  5
9B83A
  8
ASHADE
 10
2.5375258216800849
 20
5.6574047054958569
 30
0.0004923826605082
  0
VERTEX
  5
9B83B
  8
ASHADE
 10
2.517840840453164
 20
5.6347235408735532
 30
0.0004923826605082
  0
VERTEX
  5
9B83C
  8
ASHADE
 10
2.517840840453164
 20
5.2224892555189371
 30
0.0004923826605082
  0
VERTEX
  5
9B83D
  8
ASHADE
 10
2.5375258216800849
 20
5.1998245173406872
 30
0.0004923826605082
  0
VERTEX
  5
9B83E
  8
ASHADE
 10
4.013788652533548
 20
5.1998571355653107
 30
0.0004923826605082
  0
SEQEND
  5
9B83F
  8
ASHADE
  0
POLYLINE
  5
9B731
  8
ASHADE
 66
     1
 10
0.0
 20
0.0
 30
0.0004923826605082
  0
VERTEX
  5
9B840
  8
ASHADE
 10
4.9425651429834572
 20
8.3791825489898262
 30
0.0004923826605082
 42
0.2402864990585618
  0
VERTEX
  5
9B841
  8
ASHADE
 10
4.9979070263759366
 20
8.4439110544485061
 30
0.0004923826605082
  0
VERTEX
  5
9B842
  8
ASHADE
 10
4.997902078384417
 20
8.5856430504097236
 30
0.0004923826605082
  0
VERTEX
  5
9B843
  8
ASHADE
 10
4.013652078384415
 20
8.5856430073842755
 30
0.0004923826605082
  0
VERTEX
  5
9B844
  8
ASHADE
 10
3.029402078384416
 20
8.5856430504097236
 30
0.0004923826605082
  0
VERTEX
  5
9B845
  8
ASHADE
 10
3.0293971303928942
 20
8.4439110544485061
 30
0.0004923826605082
 42
0.240286499058563
  0
VERTEX
  5
9B846
  8
ASHADE
 10
3.0847390137853758
 20
8.3791825489898262
 30
0.0004923826605082
  0
SEQEND
  5
9B847
  8
ASHADE
  0
POLYLINE
  5
9B747
  8
ASHADE
 66
     1
 10
0.0
 20
0.0
 30
0.0
  0
VERTEX
  5
9B848
  8
ASHADE
 10
-0.8000017125347723
 20
8.3791823583257461
 30
0.0
 42
-0.2115279690681975
  0
VERTEX
  5
9B849
  8
ASHADE
 10
-0.4152619591412378
 20
8.1525729040292134
 30
0.0
  0
VERTEX
  5
9B84A
  8
ASHADE
 10
-0.3992146726158658
 20
8.1328878934693574
 30
0.0
  0
VERTEX
  5
9B84B
  8
ASHADE
 10
-0.4152619884741702
 20
8.1132028829094978
 30
0.0
  0
VERTEX
  5
9B84C
  8
ASHADE
 10
-0.4152619884741755
 20
0.6628277632306894
 30
0.0
  0
VERTEX
  5
9B84D
  8
ASHADE
 10
-0.3992140566242126
 20
0.6504394084525327
 30
0.0
  0
VERTEX
  5
9B84E
  8
ASHADE
 10
-0.4152614018154548
 20
0.6380510536742428
 30
0.0
  0
VERTEX
  5
9B84F
  8
ASHADE
 10
-0.4152614262178666
 20
0.4152613352497623
 30
0.0
  0
SEQEND
  5
9B850
  8
ASHADE
  0
POLYLINE
  5
9B74E
  8
ASHADE
 66
     1
 10
0.0
 20
0.0
 30
0.0
  0
VERTEX
  5
9B851
  8
ASHADE
 10
0.8000016215666757
 20
8.3791823583257461
 30
0.0
 42
0.2115279690681957
  0
VERTEX
  5
9B852
  8
ASHADE
 10
0.4152618681731397
 20
8.1525729040292134
 30
0.0
  0
VERTEX
  5
9B853
  8
ASHADE
 10
0.3992145816477706
 20
8.1328878934693574
 30
0.0
  0
VERTEX
  5
9B854
  8
ASHADE
 10
0.4152618975060758
 20
8.1132028829094978
 30
0.0
  0
VERTEX
  5
9B855
  8
ASHADE
 10
0.4152618975060777
 20
0.6628277632306894
 30
0.0
  0
VERTEX
  5
9B856
  8
ASHADE
 10
0.3992139656561173
 20
0.6504394084525327
 30
0.0
  0
VERTEX
  5
9B857
  8
ASHADE
 10
0.4152613108473579
 20
0.6380510536742428
 30
0.0
  0
VERTEX
  5
9B858
  8
ASHADE
 10
0.4152613352497596
 20
0.4152614262178683
 30
0.0
  0
SEQEND
  5
9B859
  8
ASHADE
  0
POLYLINE
  5
9B755
  8
0
 66
     1
 10
0.0
 20
0.0
 30
0.0
  0
VERTEX
  5
9B85A
  8
0
 10
-0.4152610000000001
 20
0.4152610000000001
 30
0.0
  0
VERTEX
  5
9B85B
  8
0
 10
-0.415136
 20
0.40507
 30
0.0
  0
VERTEX
  5
9B85C
  8
0
 10
-0.4147610000000001
 20
0.394886
 30
0.0
  0
VERTEX
  5
9B85D
  8
0
 10
-0.414136
 20
0.384713
 30
0.0
  0
VERTEX
  5
9B85E
  8
0
 10
-0.413262
 20
0.374559
 30
0.0
  0
VERTEX
  5
9B85F
  8
0
 10
-0.4121380000000001
 20
0.364429
 30
0.0
  0
VERTEX
  5
9B860
  8
0
 10
-0.410767
 20
0.35433
 30
0.0
  0
VERTEX
  5
9B861
  8
0
 10
-0.409148
 20
0.344268
 30
0.0
  0
VERTEX
  5
9B862
  8
0
 10
-0.407282
 20
0.334248
 30
0.0
  0
VERTEX
  5
9B863
  8
0
 10
-0.405171
 20
0.324277
 30
0.0
  0
VERTEX
  5
9B864
  8
0
 10
-0.402817
 20
0.314361
 30
0.0
  0
VERTEX
  5
9B865
  8
0
 10
-0.400219
 20
0.304506
 30
0.0
  0
VERTEX
  5
9B866
  8
0
 10
-0.39738
 20
0.294717
 30
0.0
  0
VERTEX
  5
9B867
  8
0
 10
-0.394302
 20
0.285002
 30
0.0
  0
VERTEX
  5
9B868
  8
0
 10
-0.390987
 20
0.275364
 30
0.0
  0
VERTEX
  5
9B869
  8
0
 10
-0.387436
 20
0.265811
 30
0.0
  0
VERTEX
  5
9B86A
  8
0
 10
-0.383652
 20
0.256348
 30
0.0
  0
VERTEX
  5
9B86B
  8
0
 10
-0.379636
 20
0.24698
 30
0.0
  0
VERTEX
  5
9B86C
  8
0
 10
-0.375392
 20
0.237714
 30
0.0
  0
VERTEX
  5
9B86D
  8
0
 10
-0.370922
 20
0.228555
 30
0.0
  0
VERTEX
  5
9B86E
  8
0
 10
-0.366228
 20
0.219509
 30
0.0
  0
VERTEX
  5
9B86F
  8
0
 10
-0.361314
 20
0.21058
 30
0.0
  0
VERTEX
  5
9B870
  8
0
 10
-0.356182
 20
0.201774
 30
0.0
  0
VERTEX
  5
9B871
  8
0
 10
-0.350835
 20
0.193098
 30
0.0
  0
VERTEX
  5
9B872
  8
0
 10
-0.345277
 20
0.184555
 30
0.0
  0
VERTEX
  5
9B873
  8
0
 10
-0.339511
 20
0.17615
 30
0.0
  0
VERTEX
  5
9B874
  8
0
 10
-0.3335409999999999
 20
0.16789
 30
0.0
  0
VERTEX
  5
9B875
  8
0
 10
-0.32737
 20
0.159779
 30
0.0
  0
VERTEX
  5
9B876
  8
0
 10
-0.321001
 20
0.151822
 30
0.0
  0
VERTEX
  5
9B877
  8
0
 10
-0.31444
 20
0.144024
 30
0.0
  0
VERTEX
  5
9B878
  8
0
 10
-0.307688
 20
0.136389
 30
0.0
  0
VERTEX
  5
9B879
  8
0
 10
-0.300752
 20
0.128922
 30
0.0
  0
VERTEX
  5
9B87A
  8
0
 10
-0.293634
 20
0.121627
 30
0.0
  0
VERTEX
  5
9B87B
  8
0
 10
-0.28634
 20
0.11451
 30
0.0
  0
VERTEX
  5
9B87C
  8
0
 10
-0.278873
 20
0.107573
 30
0.0
  0
VERTEX
  5
9B87D
  8
0
 10
-0.271238
 20
0.100822
 30
0.0
  0
VERTEX
  5
9B87E
  8
0
 10
-0.263439
 20
0.09426
 30
0.0
  0
VERTEX
  5
9B87F
  8
0
 10
-0.255482
 20
0.0878916
 30
0.0
  0
VERTEX
  5
9B880
  8
0
 10
-0.247371
 20
0.0817203
 30
0.0
  0
VERTEX
  5
9B881
  8
0
 10
-0.239111
 20
0.07575
 30
0.0
  0
VERTEX
  5
9B882
  8
0
 10
-0.230707
 20
0.0699842
 30
0.0
  0
VERTEX
  5
9B883
  8
0
 10
-0.222164
 20
0.0644263
 30
0.0
  0
VERTEX
  5
9B884
  8
0
 10
-0.213487
 20
0.0590798
 30
0.0
  0
VERTEX
  5
9B885
  8
0
 10
-0.204682
 20
0.0539479
 30
0.0
  0
VERTEX
  5
9B886
  8
0
 10
-0.195753
 20
0.0490335
 30
0.0
  0
VERTEX
  5
9B887
  8
0
 10
-0.186706
 20
0.0443398
 30
0.0
  0
VERTEX
  5
9B888
  8
0
 10
-0.177547
 20
0.0398695
 30
0.0
  0
VERTEX
  5
9B889
  8
0
 10
-0.168281
 20
0.0356254
 30
0.0
  0
VERTEX
  5
9B88A
  8
0
 10
-0.158914
 20
0.0316099
 30
0.0
  0
VERTEX
  5
9B88B
  8
0
 10
-0.149451
 20
0.0278255
 30
0.0
  0
VERTEX
  5
9B88C
  8
0
 10
-0.139897
 20
0.0242745
 30
0.0
  0
VERTEX
  5
9B88D
  8
0
 10
-0.13026
 20
0.020959
 30
0.0
  0
VERTEX
  5
9B88E
  8
0
 10
-0.120544
 20
0.017881
 30
0.0
  0
VERTEX
  5
9B88F
  8
0
 10
-0.110756
 20
0.0150424
 30
0.0
  0
VERTEX
  5
9B890
  8
0
 10
-0.1009
 20
0.0124449
 30
0.0
  0
VERTEX
  5
9B891
  8
0
 10
-0.0909843
 20
0.01009
 30
0.0
  0
VERTEX
  5
9B892
  8
0
 10
-0.0810135
 20
0.00797913
 30
0.0
  0
VERTEX
  5
9B893
  8
0
 10
-0.0709939
 20
0.00611363
 30
0.0
  0
VERTEX
  5
9B894
  8
0
 10
-0.0609315
 20
0.00449458
 30
0.0
  0
VERTEX
  5
9B895
  8
0
 10
-0.0508325
 20
0.00312296
 30
0.0
  0
VERTEX
  5
9B896
  8
0
 10
-0.0407028
 20
0.0019996
 30
0.0
  0
VERTEX
  5
9B897
  8
0
 10
-0.0305486
 20
0.00112517
 30
0.0
  0
VERTEX
  5
9B898
  8
0
 10
-0.020376
 20
0.000500201
 30
0.0
  0
VERTEX
  5
9B899
  8
0
 10
-0.0101911
 20
0.000125069
 30
0.0
  0
VERTEX
  5
9B89A
  8
0
 10
-0.0000000454841
 20
-0.0000000000000027
 30
0.0
  0
VERTEX
  5
9B89B
  8
0
 10
0.010191
 20
0.000125069
 30
0.0
  0
VERTEX
  5
9B89C
  8
0
 10
0.0203759
 20
0.000500201
 30
0.0
  0
VERTEX
  5
9B89D
  8
0
 10
0.0305485
 20
0.00112517
 30
0.0
  0
VERTEX
  5
9B89E
  8
0
 10
0.0407027
 20
0.0019996
 30
0.0
  0
VERTEX
  5
9B89F
  8
0
 10
0.0508324
 20
0.00312296
 30
0.0
  0
VERTEX
  5
9B8A0
  8
0
 10
0.0609315
 20
0.00449458
 30
0.0
  0
VERTEX
  5
9B8A1
  8
0
 10
0.0709938
 20
0.00611363
 30
0.0
  0
VERTEX
  5
9B8A2
  8
0
 10
0.0810134
 20
0.00797913
 30
0.0
  0
VERTEX
  5
9B8A3
  8
0
 10
0.0909842
 20
0.01009
 30
0.0
  0
VERTEX
  5
9B8A4
  8
0
 10
0.1009
 20
0.0124449
 30
0.0
  0
VERTEX
  5
9B8A5
  8
0
 10
0.110755
 20
0.0150424
 30
0.0
  0
VERTEX
  5
9B8A6
  8
0
 10
0.120544
 20
0.017881
 30
0.0
  0
VERTEX
  5
9B8A7
  8
0
 10
0.13026
 20
0.020959
 30
0.0
  0
VERTEX
  5
9B8A8
  8
0
 10
0.139897
 20
0.0242745
 30
0.0
  0
VERTEX
  5
9B8A9
  8
0
 10
0.14945
 20
0.0278255
 30
0.0
  0
VERTEX
  5
9B8AA
  8
0
 10
0.158914
 20
0.0316099
 30
0.0
  0
VERTEX
  5
9B8AB
  8
0
 10
0.168281
 20
0.0356254
 30
0.0
  0
VERTEX
  5
9B8AC
  8
0
 10
0.177547
 20
0.0398695
 30
0.0
  0
VERTEX
  5
9B8AD
  8
0
 10
0.186706
 20
0.0443398
 30
0.0
  0
VERTEX
  5
9B8AE
  8
0
 10
0.195753
 20
0.0490335
 30
0.0
  0
VERTEX
  5
9B8AF
  8
0
 10
0.204682
 20
0.0539479
 30
0.0
  0
VERTEX
  5
9B8B0
  8
0
 10
0.213487
 20
0.0590798
 30
0.0
  0
VERTEX
  5
9B8B1
  8
0
 10
0.222164
 20
0.0644263
 30
0.0
  0
VERTEX
  5
9B8B2
  8
0
 10
0.230707
 20
0.0699842
 30
0.0
  0
VERTEX
  5
9B8B3
  8
0
 10
0.239111
 20
0.07575
 30
0.0
  0
VERTEX
  5
9B8B4
  8
0
 10
0.247371
 20
0.0817203
 30
0.0
  0
VERTEX
  5
9B8B5
  8
0
 10
0.255482
 20
0.0878916
 30
0.0
  0
VERTEX
  5
9B8B6
  8
0
 10
0.263439
 20
0.09426
 30
0.0
  0
VERTEX
  5
9B8B7
  8
0
 10
0.271237
 20
0.100822
 30
0.0
  0
VERTEX
  5
9B8B8
  8
0
 10
0.278872
 20
0.107573
 30
0.0
  0
VERTEX
  5
9B8B9
  8
0
 10
0.28634
 20
0.11451
 30
0.0
  0
VERTEX
  5
9B8BA
  8
0
 10
0.293634
 20
0.121627
 30
0.0
  0
VERTEX
  5
9B8BB
  8
0
 10
0.300752
 20
0.128922
 30
0.0
  0
VERTEX
  5
9B8BC
  8
0
 10
0.307688
 20
0.136389
 30
0.0
  0
VERTEX
  5
9B8BD
  8
0
 10
0.31444
 20
0.144024
 30
0.0
  0
VERTEX
  5
9B8BE
  8
0
 10
0.321001
 20
0.151822
 30
0.0
  0
VERTEX
  5
9B8BF
  8
0
 10
0.32737
 20
0.159779
 30
0.0
  0
VERTEX
  5
9B8C0
  8
0
 10
0.3335409999999999
 20
0.16789
 30
0.0
  0
VERTEX
  5
9B8C1
  8
0
 10
0.339511
 20
0.17615
 30
0.0
  0
VERTEX
  5
9B8C2
  8
0
 10
0.345277
 20
0.184555
 30
0.0
  0
VERTEX
  5
9B8C3
  8
0
 10
0.350835
 20
0.193098
 30
0.0
  0
VERTEX
  5
9B8C4
  8
0
 10
0.356182
 20
0.201774
 30
0.0
  0
VERTEX
  5
9B8C5
  8
0
 10
0.361313
 20
0.21058
 30
0.0
  0
VERTEX
  5
9B8C6
  8
0
 10
0.366228
 20
0.219509
 30
0.0
  0
VERTEX
  5
9B8C7
  8
0
 10
0.370922
 20
0.228555
 30
0.0
  0
VERTEX
  5
9B8C8
  8
0
 10
0.375392
 20
0.237714
 30
0.0
  0
VERTEX
  5
9B8C9
  8
0
 10
0.379636
 20
0.24698
 30
0.0
  0
VERTEX
  5
9B8CA
  8
0
 10
0.383651
 20
0.256348
 30
0.0
  0
VERTEX
  5
9B8CB
  8
0
 10
0.387436
 20
0.265811
 30
0.0
  0
VERTEX
  5
9B8CC
  8
0
 10
0.390987
 20
0.275364
 30
0.0
  0
VERTEX
  5
9B8CD
  8
0
 10
0.394302
 20
0.285002
 30
0.0
  0
VERTEX
  5
9B8CE
  8
0
 10
0.39738
 20
0.294717
 30
0.0
  0
VERTEX
  5
9B8CF
  8
0
 10
0.400219
 20
0.304506
 30
0.0
  0
VERTEX
  5
9B8D0
  8
0
 10
0.402816
 20
0.314361
 30
0.0
  0
VERTEX
  5
9B8D1
  8
0
 10
0.405171
 20
0.324277
 30
0.0
  0
VERTEX
  5
9B8D2
  8
0
 10
0.407282
 20
0.334248
 30
0.0
  0
VERTEX
  5
9B8D3
  8
0
 10
0.409148
 20
0.344268
 30
0.0
  0
VERTEX
  5
9B8D4
  8
0
 10
0.410767
 20
0.35433
 30
0.0
  0
VERTEX
  5
9B8D5
  8
0
 10
0.4121380000000001
 20
0.364429
 30
0.0
  0
VERTEX
  5
9B8D6
  8
0
 10
0.413262
 20
0.374559
 30
0.0
  0
VERTEX
  5
9B8D7
  8
0
 10
0.414136
 20
0.384713
 30
0.0
  0
VERTEX
  5
9B8D8
  8
0
 10
0.4147610000000001
 20
0.394886
 30
0.0
  0
VERTEX
  5
9B8D9
  8
0
 10
0.415136
 20
0.40507
 30
0.0
  0
VERTEX
  5
9B8DA
  8
0
 10
0.4152610000000001
 20
0.4152610000000001
 30
0.0
  0
SEQEND
  5
9B8DB
  8
0
  0
POLYLINE
  5
9B7D5
  8
ASHADE
 66
     1
 10
0.0
 20
0.0
 30
0.0004923826605082
  0
VERTEX
  5
9B8DC
  8
ASHADE
 10
3.482083431595818
 20
6.6368284989011439
 30
0.0004923826605082
  0
VERTEX
  5
9B8DD
  8
ASHADE
 10
4.5452207251730119
 20
6.6368284989011439
 30
0.0004923826605082
  0
SEQEND
  5
9B8DE
  8
ASHADE
  0
POLYLINE
  5
9B7D6
  8
ASHADE
 66
     1
 10
0.0
 20
0.0
 30
0.0004923826605082
  0
VERTEX
  5
9B8DF
  8
ASHADE
 10
3.604000030035035
 20
6.5384034754347926
 30
0.0004923826605082
  0
VERTEX
  5
9B8E0
  8
ASHADE
 10
4.4233041267337958
 20
6.5384034754347926
 30
0.0004923826605082
  0
SEQEND
  5
9B8E1
  8
ASHADE
  0
POLYLINE
  5
9B7D7
  8
ASHADE
 66
     1
 10
0.0
 20
0.0
 30
0.0004923826605082
  0
VERTEX
  5
9B8E2
  8
ASHADE
 10
4.2424503856840303
 20
5.6573814738106973
 30
0.0004923826605082
  0
VERTEX
  5
9B8E3
  8
ASHADE
 10
3.7848537710848009
 20
5.6573814738106973
 30
0.0004923826605082
  0
SEQEND
  5
9B8E4
  8
ASHADE
  0
POLYLINE
  5
9B7D8
  8
ASHADE
 66
     1
 10
0.0
 20
0.0
 30
0.0004923826605082
  0
VERTEX
  5
9B8E5
  8
ASHADE
 10
3.4820834315958189
 20
8.1328880401340342
 30
0.0004923826605082
  0
VERTEX
  5
9B8E6
  8
ASHADE
 10
4.5452207251730119
 20
8.1328880401340342
 30
0.0004923826605082
  0
SEQEND
  5
9B8E7
  8
ASHADE
  0
POLYLINE
  5
9B7DB
  8
ASHADE
 66
     1
 10
0.0
 20
0.0
 30
0.0
  0
VERTEX
  5
9B8E8
  8
ASHADE
 10
-0.3992146726158658
 20
8.1328878934693574
 30
0.0
  0
VERTEX
  5
9B8E9
  8
ASHADE
 10
0.3992145816477706
 20
8.1328878934693574
 30
0.0
  0
SEQEND
  5
9B8EA
  8
ASHADE
  0
POLYLINE
  5
9B7DC
  8
ASHADE
 66
     1
 10
0.0
 20
0.0
 30
-0.0004923826605081
  0
VERTEX
  5
9B8EB
  8
ASHADE
 10
-3.7848538620528962
 20
5.6573814738106973
 30
-0.0004923826605081
  0
VERTEX
  5
9B8EC
  8
ASHADE
 10
-4.2424504766521229
 20
5.6573814738106973
 30
-0.0004923826605081
  0
SEQEND
  5
9B8ED
  8
ASHADE
  0
POLYLINE
  5
9B7DD
  8
ASHADE
 66
     1
 10
0.0
 20
0.0
 30
-0.0004923826605081
  0
VERTEX
  5
9B8EE
  8
ASHADE
 10
-4.4233042177018911
 20
6.5384034754347926
 30
-0.0004923826605081
  0
VERTEX
  5
9B8EF
  8
ASHADE
 10
-3.6040001210031281
 20
6.5384034754347926
 30
-0.0004923826605081
  0
SEQEND
  5
9B8F0
  8
ASHADE
  0
POLYLINE
  5
9B7DE
  8
ASHADE
 66
     1
 10
0.0
 20
0.0
 30
-0.0004923826605081
  0
VERTEX
  5
9B8F1
  8
ASHADE
 10
-4.5452208161411027
 20
6.6368284989011439
 30
-0.0004923826605081
  0
VERTEX
  5
9B8F2
  8
ASHADE
 10
-3.4820835225639151
 20
6.6368284989011439
 30
-0.0004923826605081
  0
SEQEND
  5
9B8F3
  8
ASHADE
  0
POLYLINE
  5
9B7DF
  8
ASHADE
 66
     1
 10
0.0
 20
0.0
 30
-0.0004923826605081
  0
VERTEX
  5
9B8F4
  8
ASHADE
 10
-3.0847391047534711
 20
8.3791825489898262
 30
-0.0004923826605081
  0
VERTEX
  5
9B8F5
  8
ASHADE
 10
-4.942565233951556
 20
8.3791825489898262
 30
-0.0004923826605081
  0
SEQEND
  5
9B8F6
  8
ASHADE
  0
POLYLINE
  5
9B7E0
  8
ASHADE
 66
     1
 10
0.0
 20
0.0
 30
-0.0004923826605081
  0
VERTEX
  5
9B8F7
  8
ASHADE
 10
-4.5452208161411027
 20
8.1328880401340342
 30
-0.0004923826605081
  0
VERTEX
  5
9B8F8
  8
ASHADE
 10
-3.4820835225639151
 20
8.1328880401340342
 30
-0.0004923826605081
  0
SEQEND
  5
9B8F9
  8
ASHADE
  0
ENDSEC
  0
EOF
