  0
SECTION
  2
HEADER
  9
$ACADVER
  1
AC1009
  9
$INSBASE
 10
0.0
 20
0.0
 30
0.0
  9
$EXTMIN
 10
-38.314733226018298
 20
-13.68450412411355
 30
-0.0052646411738243
  9
$EXTMAX
 10
49.276542650788599
 20
20.075921230503319
 30
0.0333580052310624
  9
$LIMMIN
 10
0.0
 20
0.0
  9
$LIMMAX
 10
420.0
 20
297.0
  9
$ORTHOMODE
 70
     1
  9
$REGENMODE
 70
     1
  9
$FILLMODE
 70
     1
  9
$QTEXTMODE
 70
     0
  9
$MIRRTEXT
 70
     1
  9
$DRAGMODE
 70
     2
  9
$LTSCALE
 40
1.0
  9
$OSMODE
 70
    37
  9
$ATTMODE
 70
     1
  9
$TEXTSIZE
 40
0.001
  9
$TRACEWID
 40
1.0
  9
$TEXTSTYLE
  7
STANDARD
  9
$CLAYER
  8
0
  9
$CELTYPE
  6
BYLAYER
  9
$CECOLOR
 62
   256
  9
$DIMSCALE
 40
1.0
  9
$DIMASZ
 40
2.5
  9
$DIMEXO
 40
0.625
  9
$DIMDLI
 40
3.75
  9
$DIMRND
 40
0.0
  9
$DIMDLE
 40
0.0
  9
$DIMEXE
 40
1.25
  9
$DIMTP
 40
0.0
  9
$DIMTM
 40
0.0
  9
$DIMTXT
 40
2.5
  9
$DIMCEN
 40
2.5
  9
$DIMTSZ
 40
0.0
  9
$DIMTOL
 70
     0
  9
$DIMLIM
 70
     0
  9
$DIMTIH
 70
     0
  9
$DIMTOH
 70
     0
  9
$DIMSE1
 70
     0
  9
$DIMSE2
 70
     0
  9
$DIMTAD
 70
     1
  9
$DIMZIN
 70
     8
  9
$DIMBLK
  1

  9
$DIMASO
 70
     1
  9
$DIMSHO
 70
     1
  9
$DIMPOST
  1

  9
$DIMAPOST
  1

  9
$DIMALT
 70
     0
  9
$DIMALTD
 70
     3
  9
$DIMALTF
 40
0.03937007874016
  9
$DIMLFAC
 40
1.0
  9
$DIMTOFL
 70
     1
  9
$DIMTVP
 40
0.0
  9
$DIMTIX
 70
     0
  9
$DIMSOXD
 70
     0
  9
$DIMSAH
 70
     0
  9
$DIMBLK1
  1

  9
$DIMBLK2
  1

  9
$DIMSTYLE
  2
ISO-25
  9
$DIMCLRD
 70
     0
  9
$DIMCLRE
 70
     0
  9
$DIMCLRT
 70
     0
  9
$DIMTFAC
 40
1.0
  9
$DIMGAP
 40
0.625
  9
$LUNITS
 70
     2
  9
$LUPREC
 70
     4
  9
$SKETCHINC
 40
1.0
  9
$FILLETRAD
 40
0.0
  9
$AUNITS
 70
     0
  9
$AUPREC
 70
     0
  9
$MENU
  1
.
  9
$ELEVATION
 40
0.0
  9
$PELEVATION
 40
0.0
  9
$THICKNESS
 40
0.0
  9
$LIMCHECK
 70
     0
  9
$BLIPMODE
 70
     0
  9
$CHAMFERA
 40
10.0
  9
$CHAMFERB
 40
10.0
  9
$SKPOLY
 70
     0
  9
$TDCREATE
 40
2453378.22126956
  9
$TDUPDATE
 40
2453411.5129844798
  9
$TDINDWG
 40
0.7544356829
  9
$TDUSRTIMER
 40
0.7544220139
  9
$USRTIMER
 70
     1
  9
$ANGBASE
 50
0.0
  9
$ANGDIR
 70
     0
  9
$PDMODE
 70
     0
  9
$PDSIZE
 40
0.0
  9
$PLINEWID
 40
0.0
  9
$COORDS
 70
     1
  9
$SPLFRAME
 70
     0
  9
$SPLINETYPE
 70
     6
  9
$SPLINESEGS
 70
     8
  9
$ATTDIA
 70
     0
  9
$ATTREQ
 70
     1
  9
$HANDLING
 70
     1
  9
$HANDSEED
  5
9BD18
  9
$SURFTAB1
 70
     6
  9
$SURFTAB2
 70
     6
  9
$SURFTYPE
 70
     6
  9
$SURFU
 70
     6
  9
$SURFV
 70
     6
  9
$UCSNAME
  2

  9
$UCSORG
 10
0.0
 20
0.0
 30
0.0
  9
$UCSXDIR
 10
1.0
 20
0.0
 30
0.0
  9
$UCSYDIR
 10
0.0
 20
1.0
 30
0.0
  9
$PUCSNAME
  2

  9
$PUCSORG
 10
0.0
 20
0.0
 30
0.0
  9
$PUCSXDIR
 10
1.0
 20
0.0
 30
0.0
  9
$PUCSYDIR
 10
0.0
 20
1.0
 30
0.0
  9
$USERI1
 70
     0
  9
$USERI2
 70
     0
  9
$USERI3
 70
     0
  9
$USERI4
 70
     0
  9
$USERI5
 70
     0
  9
$USERR1
 40
0.0
  9
$USERR2
 40
0.0
  9
$USERR3
 40
0.0
  9
$USERR4
 40
0.0
  9
$USERR5
 40
0.0
  9
$WORLDVIEW
 70
     1
  9
$SHADEDGE
 70
     3
  9
$SHADEDIF
 70
    70
  9
$TILEMODE
 70
     1
  9
$MAXACTVP
 70
    64
  9
$PLIMCHECK
 70
     0
  9
$PEXTMIN
 10
1.0000000000000000E+020
 20
1.0000000000000000E+020
 30
1.0000000000000000E+020
  9
$PEXTMAX
 10
-1.0000000000000000E+020
 20
-1.0000000000000000E+020
 30
-1.0000000000000000E+020
  9
$PLIMMIN
 10
0.0
 20
0.0
  9
$PLIMMAX
 10
420.0
 20
297.0
  9
$UNITMODE
 70
     0
  9
$VISRETAIN
 70
     1
  9
$PLINEGEN
 70
     0
  9
$PSLTSCALE
 70
     1
  0
ENDSEC
  0
SECTION
  2
TABLES
  0
TABLE
  2
VPORT
 70
     2
  0
VPORT
  2
*ACTIVE
 70
     0
 10
0.0
 20
0.0
 11
1.0
 21
1.0
 12
3.558008319202826
 22
1.946310904340252
 13
0.0
 23
0.0
 14
10.0
 24
10.0
 15
10.0
 25
10.0
 16
0.0
 26
0.0
 36
1.0
 17
0.0
 27
0.0
 37
0.0
 40
9.2826394259056162
 41
1.9608247422680409
 42
50.0
 43
0.0
 44
0.0
 50
0.0
 51
0.0
 71
     0
 72
  1000
 73
     1
 74
     3
 75
     0
 76
     0
 77
     0
 78
     0
  0
ENDTAB
  0
TABLE
  2
LTYPE
 70
     1
  0
LTYPE
  2
CONTINUOUS
 70
     0
  3
Solid line
 72
    65
 73
     0
 40
0.0
  0
ENDTAB
  0
TABLE
  2
LAYER
 70
     3
  0
LAYER
  2
0
 70
     0
 62
     7
  6
CONTINUOUS
  0
LAYER
  2
ASHADE
 70
     0
 62
     7
  6
CONTINUOUS
  0
LAYER
  2
DEFPOINTS
 70
     0
 62
     7
  6
CONTINUOUS
  0
ENDTAB
  0
TABLE
  2
STYLE
 70
     2
  0
STYLE
  2
STANDARD
 70
     0
 40
0.0
 41
1.0
 50
0.0
 71
     0
 42
0.001
  3
txt
  4

  0
STYLE
  2
ASHADE
 70
     0
 40
0.2
 41
1.0
 50
0.0
 71
     0
 42
2.5
  3
simplex.shx
  4

  0
ENDTAB
  0
TABLE
  2
VIEW
 70
     0
  0
ENDTAB
  0
TABLE
  2
UCS
 70
     0
  0
ENDTAB
  0
TABLE
  2
APPID
 70
     6
  0
APPID
  2
ACAD
 70
     0
  0
APPID
  2
AVE_RENDER
 70
     0
  0
APPID
  2
AVE_ENTITY_MATERIAL
 70
     0
  0
APPID
  2
AVE_FINISH
 70
     0
  0
APPID
  2
AVE_MATERIAL
 70
     0
  0
APPID
  2
AVE_GLOBAL
 70
     0
  0
ENDTAB
  0
TABLE
  2
DIMSTYLE
 70
     2
  0
DIMSTYLE
  2
ISO-25
 70
     0
  3

  4

  5

  6

  7

 40
1.0
 41
2.5
 42
0.625
 43
3.75
 44
1.25
 45
0.0
 46
0.0
 47
0.0
 48
0.0
140
2.5
141
2.5
142
0.0
143
0.03937007874016
144
1.0
145
0.0
146
1.0
147
0.625
 71
     0
 72
     0
 73
     0
 74
     0
 75
     0
 76
     0
 77
     1
 78
     8
170
     0
171
     3
172
     1
173
     0
174
     0
175
     0
176
     0
177
     0
178
     0
  0
DIMSTYLE
  2
STANDARD
 70
     0
  3

  4

  5

  6

  7

 40
1.0
 41
0.18
 42
0.0625
 43
0.38
 44
0.18
 45
0.0
 46
0.0
 47
0.0
 48
0.0
140
0.18
141
0.09
142
0.0
143
25.399999999999999
144
1.0
145
0.0
146
1.0
147
0.09
 71
     0
 72
     0
 73
     1
 74
     1
 75
     0
 76
     0
 77
     0
 78
     0
170
     0
171
     2
172
     0
173
     0
174
     0
175
     0
176
     0
177
     0
178
     0
  0
ENDTAB
  0
ENDSEC
  0
SECTION
  2
BLOCKS
  0
BLOCK
  8
0
  2
$MODEL_SPACE
 70
     0
 10
0.0
 20
0.0
 30
0.0
  3
$MODEL_SPACE
  1

  0
ENDBLK
  5
9B4DE
  8
0
  0
BLOCK
 67
     1
  8
0
  2
$PAPER_SPACE
 70
     0
 10
0.0
 20
0.0
 30
0.0
  3
$PAPER_SPACE
  1

  0
ENDBLK
  5
9B4DA
 67
     1
  8
0
  0
BLOCK
  8
ASHADE
  2
AVE_RENDER
 70
     0
 10
0.0
 20
0.0
 30
0.0
  3
AVE_RENDER
  1
AVE_RENDER
  0
ENDBLK
  5
31
  8
0
  0
BLOCK
  8
ASHADE
  2
AVE_GLOBAL
 70
     0
 10
0.0
 20
0.0
 30
0.0
  3
AVE_GLOBAL
  1
AVE_GLOBAL
  0
ENDBLK
  5
3F
  8
0
  0
BLOCK
  8
ASHADE
  2
RM_SDB
 70
     2
 10
0.0
 20
0.0
 30
0.0
  3
RM_SDB
  1
RM_SDB
  0
ATTDEF
  5
96286
  8
ASHADE
  6
CONTINUOUS
 62
     1
 10
0.0000000000000001
 20
-0.15
 30
0.0
 40
0.2
  1

 41
100.0
  7
ASHADE
 72
     1
 11
0.0000000000000001
 21
-0.15
 31
0.0
  3
Name
  2
NAME
 70
     0
  0
ENDBLK
  5
620
  8
0
  0
ENDSEC
  0
SECTION
  2
ENTITIES
  0
ATTDEF
  5
9B2EF
  8
0
 10
0.0
 20
0.0
 30
0.0
 40
0.001
  1
K-T14415-3
  3

  2
MODELNUMBER
 70
     8
  0
ATTDEF
  5
9B2F0
  8
0
 10
0.0
 20
-0.0016666666666667
 30
0.0
 40
0.001
  1
PURIST
  3

  2
TRADENAME
 70
     8
  0
ATTDEF
  5
9B2F1
  8
0
 10
0.0
 20
-0.0033333333333333
 30
0.0
 40
0.001
  1
FAUCETS
  3

  2
PRODUCT
 70
     8
  0
ATTDEF
  5
9B2F2
  8
0
 10
0.0
 20
-0.005
 30
0.0
 40
0.001
  1
BRASS
  3

  2
MATERIAL
 70
     8
  0
POLYLINE
  5
9B954
  8
ASHADE
 66
     1
 10
0.0
 20
0.0
 30
0.0
  0
VERTEX
  5
9BB24
  8
ASHADE
 10
9.7253033594710381
 20
1.49604918670653
 30
0.0
  0
VERTEX
  5
9BB25
  8
ASHADE
 10
9.7253028901440643
 20
1.289924182802429
 30
0.0
  0
VERTEX
  5
9BB26
  8
ASHADE
 10
9.7056179089171302
 20
1.2672504100799391
 30
0.0
  0
VERTEX
  5
9BB27
  8
ASHADE
 10
8.4582890208584711
 20
1.26725041007988
 30
0.0
  0
VERTEX
  5
9BB28
  8
ASHADE
 10
8.458298341264431
 20
0.019683807971461
 30
0.0
  0
VERTEX
  5
9BB29
  8
ASHADE
 10
8.4356186507565454
 20
-0.0000011733174397
 30
0.0
  0
VERTEX
  5
9BB2A
  8
ASHADE
 10
8.2294949417540053
 20
-0.0000311340918788
 30
0.0
  0
VERTEX
  5
9BB2B
  8
ASHADE
 10
8.0233442379457411
 20
-0.0000014079809283
 30
0.0
  0
VERTEX
  5
9BB2C
  8
ASHADE
 10
8.000664481304355
 20
0.0196834559142527
 30
0.0
  0
VERTEX
  5
9BB2D
  8
ASHADE
 10
8.0006593197943445
 20
1.2672559246505311
 30
0.0
  0
VERTEX
  5
9BB2E
  8
ASHADE
 10
6.7528315360767319
 20
1.2672507620751681
 30
0.0
  0
VERTEX
  5
9BB2F
  8
ASHADE
 10
6.7331465548498031
 20
1.289924417465909
 30
0.0
  0
VERTEX
  5
9BB30
  8
ASHADE
 10
6.733146080079436
 20
1.4960494213700191
 30
0.0
  0
VERTEX
  5
9BB31
  8
ASHADE
 10
6.7331465548498031
 20
1.7021744252741291
 30
0.0
  0
VERTEX
  5
9BB32
  8
ASHADE
 10
6.7528315360767319
 20
1.7248480806648701
 30
0.0
  0
VERTEX
  5
9BB33
  8
ASHADE
 10
8.0006593197943445
 20
1.7248429180895191
 30
0.0
  0
VERTEX
  5
9BB34
  8
ASHADE
 10
8.000664481304355
 20
2.9724153868257921
 30
0.0
  0
VERTEX
  5
9BB35
  8
ASHADE
 10
8.0233442379457411
 20
2.9921002507209682
 30
0.0
  0
VERTEX
  5
9BB36
  8
ASHADE
 10
8.2294949417540053
 20
2.9921299768319169
 30
0.0
  0
VERTEX
  5
9BB37
  8
ASHADE
 10
8.4356186507565454
 20
2.99210001605748
 30
0.0
  0
VERTEX
  5
9BB38
  8
ASHADE
 10
8.458298341264431
 20
2.972415034768578
 30
0.0
  0
VERTEX
  5
9BB39
  8
ASHADE
 10
8.4582890208584711
 20
1.7248484326601681
 30
0.0
  0
VERTEX
  5
9BB3A
  8
ASHADE
 10
9.7056179089171302
 20
1.724848432660103
 30
0.0
  0
VERTEX
  5
9BB3B
  8
ASHADE
 10
9.7253028901440643
 20
1.7021746599376091
 30
0.0
  0
VERTEX
  5
9BB3C
  8
ASHADE
 10
9.7253033594710381
 20
1.4960496560335059
 30
0.0
  0
SEQEND
  5
9BB3D
  8
ASHADE
  0
POLYLINE
  5
9B96C
  8
ASHADE
 66
     1
 10
0.0
 20
0.0
 30
0.0
  0
VERTEX
  5
9BB3E
  8
ASHADE
 10
-1.2896847087144809
 20
1.4960503600239701
 30
0.0
  0
VERTEX
  5
9BB3F
  8
ASHADE
 10
-1.2896842393875041
 20
1.289925356119868
 30
0.0
  0
VERTEX
  5
9BB40
  8
ASHADE
 10
-1.269999258160587
 20
1.2672515833973921
 30
0.0
  0
VERTEX
  5
9BB41
  8
ASHADE
 10
-0.0226703701019346
 20
1.267251583397317
 30
0.0
  0
VERTEX
  5
9BB42
  8
ASHADE
 10
-0.0226796905078928
 20
0.0196849812888989
 30
0.0
  0
VERTEX
  5
9BB43
  8
ASHADE
 10
0.0
 20
0.0
 30
0.0
  0
VERTEX
  5
9BB44
  8
ASHADE
 10
0.2061237090025472
 20
-0.0000299607744392
 30
0.0
  0
VERTEX
  5
9BB45
  8
ASHADE
 10
0.4122744128108026
 20
-0.0000002346634922
 30
0.0
  0
VERTEX
  5
9BB46
  8
ASHADE
 10
0.4349541694521834
 20
0.0196846292316906
 30
0.0
  0
VERTEX
  5
9BB47
  8
ASHADE
 10
0.434959330962201
 20
1.267257097967958
 30
0.0
  0
VERTEX
  5
9BB48
  8
ASHADE
 10
1.682787114679817
 20
1.267251935392619
 30
0.0
  0
VERTEX
  5
9BB49
  8
ASHADE
 10
1.702472095906735
 20
1.289925590783346
 30
0.0
  0
VERTEX
  5
9BB4A
  8
ASHADE
 10
1.7024725706771091
 20
1.49605059468746
 30
0.0
  0
VERTEX
  5
9BB4B
  8
ASHADE
 10
1.702472095906735
 20
1.7021755985915661
 30
0.0
  0
VERTEX
  5
9BB4C
  8
ASHADE
 10
1.682787114679817
 20
1.7248492539823079
 30
0.0
  0
VERTEX
  5
9BB4D
  8
ASHADE
 10
0.434959330962201
 20
1.724844091406958
 30
0.0
  0
VERTEX
  5
9BB4E
  8
ASHADE
 10
0.4349541694521834
 20
2.9724165601432282
 30
0.0
  0
VERTEX
  5
9BB4F
  8
ASHADE
 10
0.4122744128108026
 20
2.9921014240384061
 30
0.0
  0
VERTEX
  5
9BB50
  8
ASHADE
 10
0.2061237090025472
 20
2.992131150149361
 30
0.0
  0
VERTEX
  5
9BB51
  8
ASHADE
 10
0.0
 20
2.992101189374917
 30
0.0
  0
VERTEX
  5
9BB52
  8
ASHADE
 10
-0.0226796905078928
 20
2.9724162080860199
 30
0.0
  0
VERTEX
  5
9BB53
  8
ASHADE
 10
-0.0226703701019346
 20
1.7248496059776011
 30
0.0
  0
VERTEX
  5
9BB54
  8
ASHADE
 10
-1.269999258160587
 20
1.724849605977538
 30
0.0
  0
VERTEX
  5
9BB55
  8
ASHADE
 10
-1.2896842393875041
 20
1.7021758332550461
 30
0.0
  0
VERTEX
  5
9BB56
  8
ASHADE
 10
-1.2896847087144809
 20
1.4960508293509509
 30
0.0
  0
SEQEND
  5
9BB57
  8
ASHADE
  0
POLYLINE
  5
9B984
  8
0
 66
     1
 10
0.0
 20
0.0
 30
-0.00526464
 70
     1
  0
VERTEX
  5
9BB58
  8
0
 10
3.8008699999999989
 20
-0.0835859
 30
-0.00526464
  0
VERTEX
  5
9BB59
  8
0
 10
3.8021699999999989
 20
-0.0969005
 30
-0.00526464
  0
VERTEX
  5
9BB5A
  8
0
 10
3.8044799999999999
 20
-0.110166
 30
-0.00526464
  0
VERTEX
  5
9BB5B
  8
0
 10
3.8077699999999992
 20
-0.123352
 30
-0.00526464
  0
VERTEX
  5
9BB5C
  8
0
 10
3.8120500000000002
 20
-0.136425
 30
-0.00526464
  0
VERTEX
  5
9BB5D
  8
0
 10
3.8173099999999991
 20
-0.149354
 30
-0.00526464
  0
VERTEX
  5
9BB5E
  8
0
 10
3.8235399999999991
 20
-0.162108
 30
-0.00526464
  0
VERTEX
  5
9BB5F
  8
0
 10
3.8307099999999989
 20
-0.174656
 30
-0.00526464
  0
VERTEX
  5
9BB60
  8
0
 10
3.8388199999999988
 20
-0.186968
 30
-0.00526464
  0
VERTEX
  5
9BB61
  8
0
 10
3.8478400000000001
 20
-0.199015
 30
-0.00526464
  0
VERTEX
  5
9BB62
  8
0
 10
3.8577400000000002
 20
-0.210767
 30
-0.00526464
  0
VERTEX
  5
9BB63
  8
0
 10
3.8685199999999988
 20
-0.222196
 30
-0.00526464
  0
VERTEX
  5
9BB64
  8
0
 10
3.8801399999999999
 20
-0.233275
 30
-0.00526464
  0
VERTEX
  5
9BB65
  8
0
 10
3.8925699999999992
 20
-0.243976
 30
-0.00526464
  0
VERTEX
  5
9BB66
  8
0
 10
3.90578
 20
-0.254275
 30
-0.00526464
  0
VERTEX
  5
9BB67
  8
0
 10
3.91974
 20
-0.264145
 30
-0.00526464
  0
VERTEX
  5
9BB68
  8
0
 10
3.9344199999999989
 20
-0.273564
 30
-0.00526464
  0
VERTEX
  5
9BB69
  8
0
 10
3.9497900000000001
 20
-0.282509
 30
-0.00526464
  0
VERTEX
  5
9BB6A
  8
0
 10
3.9657900000000001
 20
-0.290958
 30
-0.00526464
  0
VERTEX
  5
9BB6B
  8
0
 10
3.9824099999999989
 20
-0.298891
 30
-0.00526464
  0
VERTEX
  5
9BB6C
  8
0
 10
3.9995899999999991
 20
-0.306289
 30
-0.00526464
  0
VERTEX
  5
9BB6D
  8
0
 10
4.0172999999999988
 20
-0.313133
 30
-0.00526464
  0
VERTEX
  5
9BB6E
  8
0
 10
4.0354900000000002
 20
-0.319408
 30
-0.00526464
  0
VERTEX
  5
9BB6F
  8
0
 10
4.0541099999999988
 20
-0.325099
 30
-0.00526464
  0
VERTEX
  5
9BB70
  8
0
 10
4.073129999999999
 20
-0.330191
 30
-0.00526464
  0
VERTEX
  5
9BB71
  8
0
 10
4.0925000000000002
 20
-0.3346719999999999
 30
-0.00526464
  0
VERTEX
  5
9BB72
  8
0
 10
4.112169999999999
 20
-0.338532
 30
-0.00526464
  0
VERTEX
  5
9BB73
  8
0
 10
4.1321000000000003
 20
-0.341761
 30
-0.00526464
  0
VERTEX
  5
9BB74
  8
0
 10
4.1522300000000003
 20
-0.344351
 30
-0.00526464
  0
VERTEX
  5
9BB75
  8
0
 10
4.1725199999999987
 20
-0.3462969999999999
 30
-0.00526464
  0
VERTEX
  5
9BB76
  8
0
 10
4.1929099999999986
 20
-0.347593
 30
-0.00526464
  0
VERTEX
  5
9BB77
  8
0
 10
4.2133699999999994
 20
-0.3482369999999999
 30
-0.00526464
  0
VERTEX
  5
9BB78
  8
0
 10
4.2338300000000002
 20
-0.348227
 30
-0.00526464
  0
VERTEX
  5
9BB79
  8
0
 10
4.2542599999999986
 20
-0.347562
 30
-0.00526464
  0
VERTEX
  5
9BB7A
  8
0
 10
4.2746000000000004
 20
-0.346245
 30
-0.00526464
  0
VERTEX
  5
9BB7B
  8
0
 10
4.2948000000000004
 20
-0.344278
 30
-0.00526464
  0
VERTEX
  5
9BB7C
  8
0
 10
4.3148200000000001
 20
-0.341667
 30
-0.00526464
  0
VERTEX
  5
9BB7D
  8
0
 10
4.3346
 20
-0.338418
 30
-0.00526464
  0
VERTEX
  5
9BB7E
  8
0
 10
4.354099999999999
 20
-0.334538
 30
-0.00526464
  0
VERTEX
  5
9BB7F
  8
0
 10
4.3732600000000001
 20
-0.330037
 30
-0.00526464
  0
VERTEX
  5
9BB80
  8
0
 10
4.392059999999999
 20
-0.324926
 30
-0.00526464
  0
VERTEX
  5
9BB81
  8
0
 10
4.410429999999999
 20
-0.319217
 30
-0.00526464
  0
VERTEX
  5
9BB82
  8
0
 10
4.4283400000000004
 20
-0.312923
 30
-0.00526464
  0
VERTEX
  5
9BB83
  8
0
 10
4.4457500000000003
 20
-0.306061
 30
-0.00526464
  0
VERTEX
  5
9BB84
  8
0
 10
4.4626000000000001
 20
-0.298646
 30
-0.00526464
  0
VERTEX
  5
9BB85
  8
0
 10
4.4788600000000001
 20
-0.290696
 30
-0.00526464
  0
VERTEX
  5
9BB86
  8
0
 10
4.494489999999999
 20
-0.282231
 30
-0.00526464
  0
VERTEX
  5
9BB87
  8
0
 10
4.5094599999999989
 20
-0.2732699999999999
 30
-0.00526464
  0
VERTEX
  5
9BB88
  8
0
 10
4.5237199999999991
 20
-0.263836
 30
-0.00526464
  0
VERTEX
  5
9BB89
  8
0
 10
4.5372399999999988
 20
-0.253952
 30
-0.00526464
  0
VERTEX
  5
9BB8A
  8
0
 10
4.5499999999999989
 20
-0.24364
 30
-0.00526464
  0
VERTEX
  5
9BB8B
  8
0
 10
4.5619500000000004
 20
-0.232926
 30
-0.00526464
  0
VERTEX
  5
9BB8C
  8
0
 10
4.57308
 20
-0.221836
 30
-0.00526464
  0
VERTEX
  5
9BB8D
  8
0
 10
4.5833399999999989
 20
-0.210396
 30
-0.00526464
  0
VERTEX
  5
9BB8E
  8
0
 10
4.5927300000000004
 20
-0.198634
 30
-0.00526464
  0
VERTEX
  5
9BB8F
  8
0
 10
4.60121
 20
-0.186578
 30
-0.00526464
  0
VERTEX
  5
9BB90
  8
0
 10
4.6087699999999989
 20
-0.174258
 30
-0.00526464
  0
VERTEX
  5
9BB91
  8
0
 10
4.6153899999999997
 20
-0.161703
 30
-0.00526464
  0
VERTEX
  5
9BB92
  8
0
 10
4.6210500000000003
 20
-0.148943
 30
-0.00526464
  0
VERTEX
  5
9BB93
  8
0
 10
4.625729999999999
 20
-0.136009
 30
-0.00526464
  0
VERTEX
  5
9BB94
  8
0
 10
4.6294300000000002
 20
-0.122932
 30
-0.00526464
  0
VERTEX
  5
9BB95
  8
0
 10
4.6321399999999988
 20
-0.109743
 30
-0.00526464
  0
VERTEX
  5
9BB96
  8
0
 10
4.6338499999999989
 20
-0.0964753
 30
-0.00526464
  0
VERTEX
  5
9BB97
  8
0
 10
4.6345599999999987
 20
-0.0831597
 30
-0.00526464
  0
VERTEX
  5
9BB98
  8
0
 10
4.634269999999999
 20
-0.0698286
 30
-0.00526464
  0
VERTEX
  5
9BB99
  8
0
 10
4.6329699999999994
 20
-0.0565141
 30
-0.00526464
  0
VERTEX
  5
9BB9A
  8
0
 10
4.6306699999999994
 20
-0.0432482
 30
-0.00526464
  0
VERTEX
  5
9BB9B
  8
0
 10
4.6273699999999991
 20
-0.0300629
 30
-0.00526464
  0
VERTEX
  5
9BB9C
  8
0
 10
4.6230900000000004
 20
-0.01699
 30
-0.00526464
  0
VERTEX
  5
9BB9D
  8
0
 10
4.6178299999999997
 20
-0.00406094
 30
-0.00526464
  0
VERTEX
  5
9BB9E
  8
0
 10
4.6116000000000001
 20
0.00869309
 30
-0.00526464
  0
VERTEX
  5
9BB9F
  8
0
 10
4.6044299999999998
 20
0.0212414
 30
-0.00526464
  0
VERTEX
  5
9BBA0
  8
0
 10
4.5963199999999986
 20
0.0335537
 30
-0.00526464
  0
VERTEX
  5
9BBA1
  8
0
 10
4.5873099999999987
 20
0.0456004
 30
-0.00526464
  0
VERTEX
  5
9BBA2
  8
0
 10
4.577399999999999
 20
0.0573525
 30
-0.00526464
  0
VERTEX
  5
9BBA3
  8
0
 10
4.5666199999999986
 20
0.0687816
 30
-0.00526464
  0
VERTEX
  5
9BBA4
  8
0
 10
4.5549999999999988
 20
0.0798602
 30
-0.00526464
  0
VERTEX
  5
9BBA5
  8
0
 10
4.5425800000000001
 20
0.0905616
 30
-0.00526464
  0
VERTEX
  5
9BBA6
  8
0
 10
4.5293599999999987
 20
0.10086
 30
-0.00526464
  0
VERTEX
  5
9BBA7
  8
0
 10
4.5153999999999987
 20
0.110731
 30
-0.00526464
  0
VERTEX
  5
9BBA8
  8
0
 10
4.5007199999999994
 20
0.12015
 30
-0.00526464
  0
VERTEX
  5
9BBA9
  8
0
 10
4.48536
 20
0.129095
 30
-0.00526464
  0
VERTEX
  5
9BBAA
  8
0
 10
4.4693500000000004
 20
0.137544
 30
-0.00526464
  0
VERTEX
  5
9BBAB
  8
0
 10
4.452729999999999
 20
0.145477
 30
-0.00526464
  0
VERTEX
  5
9BBAC
  8
0
 10
4.4355500000000001
 20
0.152874
 30
-0.00526464
  0
VERTEX
  5
9BBAD
  8
0
 10
4.4178399999999991
 20
0.159719
 30
-0.00526464
  0
VERTEX
  5
9BBAE
  8
0
 10
4.399659999999999
 20
0.165994
 30
-0.00526464
  0
VERTEX
  5
9BBAF
  8
0
 10
4.3810299999999991
 20
0.171684
 30
-0.00526464
  0
VERTEX
  5
9BBB0
  8
0
 10
4.3620099999999988
 20
0.176776
 30
-0.00526464
  0
VERTEX
  5
9BBB1
  8
0
 10
4.3426400000000003
 20
0.181257
 30
-0.00526464
  0
VERTEX
  5
9BBB2
  8
0
 10
4.3229699999999989
 20
0.185117
 30
-0.00526464
  0
VERTEX
  5
9BBB3
  8
0
 10
4.3030400000000002
 20
0.188346
 30
-0.00526464
  0
VERTEX
  5
9BBB4
  8
0
 10
4.2829100000000002
 20
0.190937
 30
-0.00526464
  0
VERTEX
  5
9BBB5
  8
0
 10
4.2626200000000001
 20
0.192883
 30
-0.00526464
  0
VERTEX
  5
9BBB6
  8
0
 10
4.2422300000000002
 20
0.194179
 30
-0.00526464
  0
VERTEX
  5
9BBB7
  8
0
 10
4.2217699999999994
 20
0.194822
 30
-0.00526464
  0
VERTEX
  5
9BBB8
  8
0
 10
4.2013099999999994
 20
0.194812
 30
-0.00526464
  0
VERTEX
  5
9BBB9
  8
0
 10
4.1808800000000002
 20
0.194147
 30
-0.00526464
  0
VERTEX
  5
9BBBA
  8
0
 10
4.1605400000000001
 20
0.19283
 30
-0.00526464
  0
VERTEX
  5
9BBBB
  8
0
 10
4.1403400000000001
 20
0.190864
 30
-0.00526464
  0
VERTEX
  5
9BBBC
  8
0
 10
4.12033
 20
0.188253
 30
-0.00526464
  0
VERTEX
  5
9BBBD
  8
0
 10
4.1005399999999996
 20
0.185004
 30
-0.00526464
  0
VERTEX
  5
9BBBE
  8
0
 10
4.0810500000000003
 20
0.181124
 30
-0.00526464
  0
VERTEX
  5
9BBBF
  8
0
 10
4.0618800000000004
 20
0.176623
 30
-0.00526464
  0
VERTEX
  5
9BBC0
  8
0
 10
4.0430799999999998
 20
0.171511
 30
-0.00526464
  0
VERTEX
  5
9BBC1
  8
0
 10
4.0247099999999989
 20
0.165802
 30
-0.00526464
  0
VERTEX
  5
9BBC2
  8
0
 10
4.0068000000000001
 20
0.159509
 30
-0.00526464
  0
VERTEX
  5
9BBC3
  8
0
 10
3.9893999999999989
 20
0.152646
 30
-0.00526464
  0
VERTEX
  5
9BBC4
  8
0
 10
3.97254
 20
0.145231
 30
-0.00526464
  0
VERTEX
  5
9BBC5
  8
0
 10
3.95628
 20
0.137281
 30
-0.00526464
  0
VERTEX
  5
9BBC6
  8
0
 10
3.9406500000000002
 20
0.128816
 30
-0.00526464
  0
VERTEX
  5
9BBC7
  8
0
 10
3.9256799999999998
 20
0.119856
 30
-0.00526464
  0
VERTEX
  5
9BBC8
  8
0
 10
3.9114199999999988
 20
0.110422
 30
-0.00526464
  0
VERTEX
  5
9BBC9
  8
0
 10
3.897899999999999
 20
0.100537
 30
-0.00526464
  0
VERTEX
  5
9BBCA
  8
0
 10
3.8851399999999998
 20
0.0902255
 30
-0.00526464
  0
VERTEX
  5
9BBCB
  8
0
 10
3.8731900000000001
 20
0.0795116
 30
-0.00526464
  0
VERTEX
  5
9BBCC
  8
0
 10
3.8620599999999992
 20
0.0684214
 30
-0.00526464
  0
VERTEX
  5
9BBCD
  8
0
 10
3.851799999999999
 20
0.0569815
 30
-0.00526464
  0
VERTEX
  5
9BBCE
  8
0
 10
3.8424099999999992
 20
0.0452196
 30
-0.00526464
  0
VERTEX
  5
9BBCF
  8
0
 10
3.8339300000000001
 20
0.0331639
 30
-0.00526464
  0
VERTEX
  5
9BBD0
  8
0
 10
3.8263699999999989
 20
0.0208436
 30
-0.00526464
  0
VERTEX
  5
9BBD1
  8
0
 10
3.8197499999999991
 20
0.00828826
 30
-0.00526464
  0
VERTEX
  5
9BBD2
  8
0
 10
3.8140999999999989
 20
-0.00447185
 30
-0.00526464
  0
VERTEX
  5
9BBD3
  8
0
 10
3.8094099999999989
 20
-0.017406
 30
-0.00526464
  0
VERTEX
  5
9BBD4
  8
0
 10
3.805709999999999
 20
-0.030483
 30
-0.00526464
  0
VERTEX
  5
9BBD5
  8
0
 10
3.802999999999999
 20
-0.0436713
 30
-0.00526464
  0
VERTEX
  5
9BBD6
  8
0
 10
3.8012899999999998
 20
-0.0569393
 30
-0.00526464
  0
VERTEX
  5
9BBD7
  8
0
 10
3.8005800000000001
 20
-0.0702548
 30
-0.00526464
  0
SEQEND
  5
9BBD8
  8
0
  0
POLYLINE
  5
9BA04
  8
0
 66
     1
 10
0.0
 20
0.0
 30
-0.00523549
 70
     1
  0
VERTEX
  5
9BBD9
  8
0
 10
3.9811699999999992
 20
-0.0653746
 30
-0.00523549
  0
VERTEX
  5
9BBDA
  8
0
 10
3.9821599999999999
 20
-0.0733613
 30
-0.00523549
  0
VERTEX
  5
9BBDB
  8
0
 10
3.983709999999999
 20
-0.0813006
 30
-0.00523549
  0
VERTEX
  5
9BBDC
  8
0
 10
3.98583
 20
-0.0891733
 30
-0.00523549
  0
VERTEX
  5
9BBDD
  8
0
 10
3.9885099999999989
 20
-0.0969604
 30
-0.00523549
  0
VERTEX
  5
9BBDE
  8
0
 10
3.9917400000000001
 20
-0.104643
 30
-0.00523549
  0
VERTEX
  5
9BBDF
  8
0
 10
3.9955199999999991
 20
-0.112203
 30
-0.00523549
  0
VERTEX
  5
9BBE0
  8
0
 10
3.9998300000000002
 20
-0.119622
 30
-0.00523549
  0
VERTEX
  5
9BBE1
  8
0
 10
4.0046799999999996
 20
-0.126882
 30
-0.00523549
  0
VERTEX
  5
9BBE2
  8
0
 10
4.01004
 20
-0.133966
 30
-0.00523549
  0
VERTEX
  5
9BBE3
  8
0
 10
4.0159000000000002
 20
-0.140856
 30
-0.00523549
  0
VERTEX
  5
9BBE4
  8
0
 10
4.02224
 20
-0.147536
 30
-0.00523549
  0
VERTEX
  5
9BBE5
  8
0
 10
4.029069999999999
 20
-0.15399
 30
-0.00523549
  0
VERTEX
  5
9BBE6
  8
0
 10
4.03634
 20
-0.160202
 30
-0.00523549
  0
VERTEX
  5
9BBE7
  8
0
 10
4.0440599999999991
 20
-0.166158
 30
-0.00523549
  0
VERTEX
  5
9BBE8
  8
0
 10
4.0522
 20
-0.171842
 30
-0.00523549
  0
VERTEX
  5
9BBE9
  8
0
 10
4.0607300000000004
 20
-0.177242
 30
-0.00523549
  0
VERTEX
  5
9BBEA
  8
0
 10
4.0696500000000002
 20
-0.182344
 30
-0.00523549
  0
VERTEX
  5
9BBEB
  8
0
 10
4.0789299999999997
 20
-0.187136
 30
-0.00523549
  0
VERTEX
  5
9BBEC
  8
0
 10
4.0885400000000001
 20
-0.191607
 30
-0.00523549
  0
VERTEX
  5
9BBED
  8
0
 10
4.0984699999999989
 20
-0.195745
 30
-0.00523549
  0
VERTEX
  5
9BBEE
  8
0
 10
4.1086799999999997
 20
-0.199541
 30
-0.00523549
  0
VERTEX
  5
9BBEF
  8
0
 10
4.119159999999999
 20
-0.202985
 30
-0.00523549
  0
VERTEX
  5
9BBF0
  8
0
 10
4.1298799999999991
 20
-0.20607
 30
-0.00523549
  0
VERTEX
  5
9BBF1
  8
0
 10
4.1408100000000001
 20
-0.208788
 30
-0.00523549
  0
VERTEX
  5
9BBF2
  8
0
 10
4.1519300000000001
 20
-0.211132
 30
-0.00523549
  0
VERTEX
  5
9BBF3
  8
0
 10
4.1632099999999994
 20
-0.213096
 30
-0.00523549
  0
VERTEX
  5
9BBF4
  8
0
 10
4.1746199999999991
 20
-0.214677
 30
-0.00523549
  0
VERTEX
  5
9BBF5
  8
0
 10
4.1861399999999991
 20
-0.215869
 30
-0.00523549
  0
VERTEX
  5
9BBF6
  8
0
 10
4.1977399999999996
 20
-0.216671
 30
-0.00523549
  0
VERTEX
  5
9BBF7
  8
0
 10
4.2093899999999991
 20
-0.21708
 30
-0.00523549
  0
VERTEX
  5
9BBF8
  8
0
 10
4.2210599999999987
 20
-0.217095
 30
-0.00523549
  0
VERTEX
  5
9BBF9
  8
0
 10
4.2327199999999987
 20
-0.216717
 30
-0.00523549
  0
VERTEX
  5
9BBFA
  8
0
 10
4.244349999999999
 20
-0.215945
 30
-0.00523549
  0
VERTEX
  5
9BBFB
  8
0
 10
4.2559100000000001
 20
-0.214783
 30
-0.00523549
  0
VERTEX
  5
9BBFC
  8
0
 10
4.2673899999999989
 20
-0.213233
 30
-0.00523549
  0
VERTEX
  5
9BBFD
  8
0
 10
4.2787499999999987
 20
-0.211298
 30
-0.00523549
  0
VERTEX
  5
9BBFE
  8
0
 10
4.2899599999999989
 20
-0.208984
 30
-0.00523549
  0
VERTEX
  5
9BBFF
  8
0
 10
4.3010000000000002
 20
-0.206295
 30
-0.00523549
  0
VERTEX
  5
9BC00
  8
0
 10
4.3118499999999989
 20
-0.203238
 30
-0.00523549
  0
VERTEX
  5
9BC01
  8
0
 10
4.3224599999999986
 20
-0.199822
 30
-0.00523549
  0
VERTEX
  5
9BC02
  8
0
 10
4.3328300000000004
 20
-0.196053
 30
-0.00523549
  0
VERTEX
  5
9BC03
  8
0
 10
4.3429199999999986
 20
-0.191941
 30
-0.00523549
  0
VERTEX
  5
9BC04
  8
0
 10
4.3527100000000001
 20
-0.187496
 30
-0.00523549
  0
VERTEX
  5
9BC05
  8
0
 10
4.3621800000000004
 20
-0.182728
 30
-0.00523549
  0
VERTEX
  5
9BC06
  8
0
 10
4.3713100000000003
 20
-0.17765
 30
-0.00523549
  0
VERTEX
  5
9BC07
  8
0
 10
4.3800600000000003
 20
-0.172273
 30
-0.00523549
  0
VERTEX
  5
9BC08
  8
0
 10
4.3884299999999996
 20
-0.16661
 30
-0.00523549
  0
VERTEX
  5
9BC09
  8
0
 10
4.3963799999999997
 20
-0.160675
 30
-0.00523549
  0
VERTEX
  5
9BC0A
  8
0
 10
4.4039099999999989
 20
-0.154482
 30
-0.00523549
  0
VERTEX
  5
9BC0B
  8
0
 10
4.4109899999999991
 20
-0.148046
 30
-0.00523549
  0
VERTEX
  5
9BC0C
  8
0
 10
4.4176099999999989
 20
-0.141383
 30
-0.00523549
  0
VERTEX
  5
9BC0D
  8
0
 10
4.4237500000000001
 20
-0.134509
 30
-0.00523549
  0
VERTEX
  5
9BC0E
  8
0
 10
4.4293899999999988
 20
-0.127439
 30
-0.00523549
  0
VERTEX
  5
9BC0F
  8
0
 10
4.43452
 20
-0.120193
 30
-0.00523549
  0
VERTEX
  5
9BC10
  8
0
 10
4.4391400000000001
 20
-0.112785
 30
-0.00523549
  0
VERTEX
  5
9BC11
  8
0
 10
4.4432199999999993
 20
-0.105236
 30
-0.00523549
  0
VERTEX
  5
9BC12
  8
0
 10
4.4467600000000003
 20
-0.0975618
 30
-0.00523549
  0
VERTEX
  5
9BC13
  8
0
 10
4.4497599999999986
 20
-0.0897821
 30
-0.00523549
  0
VERTEX
  5
9BC14
  8
0
 10
4.452189999999999
 20
-0.0819154
 30
-0.00523549
  0
VERTEX
  5
9BC15
  8
0
 10
4.4540600000000001
 20
-0.0739807
 30
-0.00523549
  0
VERTEX
  5
9BC16
  8
0
 10
4.4553699999999994
 20
-0.065997
 30
-0.00523549
  0
VERTEX
  5
9BC17
  8
0
 10
4.4561000000000002
 20
-0.0579835
 30
-0.00523549
  0
VERTEX
  5
9BC18
  8
0
 10
4.4562599999999994
 20
-0.0499597
 30
-0.00523549
  0
VERTEX
  5
9BC19
  8
0
 10
4.455849999999999
 20
-0.0419448
 30
-0.00523549
  0
VERTEX
  5
9BC1A
  8
0
 10
4.4548699999999988
 20
-0.033958
 30
-0.00523549
  0
VERTEX
  5
9BC1B
  8
0
 10
4.4533199999999988
 20
-0.0260188
 30
-0.00523549
  0
VERTEX
  5
9BC1C
  8
0
 10
4.4512
 20
-0.0181461
 30
-0.00523549
  0
VERTEX
  5
9BC1D
  8
0
 10
4.4485199999999994
 20
-0.010359
 30
-0.00523549
  0
VERTEX
  5
9BC1E
  8
0
 10
4.4452899999999991
 20
-0.00267624
 30
-0.00523549
  0
VERTEX
  5
9BC1F
  8
0
 10
4.4415100000000001
 20
0.00488372
 30
-0.00523549
  0
VERTEX
  5
9BC20
  8
0
 10
4.4371900000000002
 20
0.0123027
 30
-0.00523549
  0
VERTEX
  5
9BC21
  8
0
 10
4.4323499999999987
 20
0.0195627
 30
-0.00523549
  0
VERTEX
  5
9BC22
  8
0
 10
4.4269899999999991
 20
0.0266463
 30
-0.00523549
  0
VERTEX
  5
9BC23
  8
0
 10
4.4211299999999998
 20
0.0335365
 30
-0.00523549
  0
VERTEX
  5
9BC24
  8
0
 10
4.4147800000000004
 20
0.0402165
 30
-0.00523549
  0
VERTEX
  5
9BC25
  8
0
 10
4.4079600000000001
 20
0.0466705
 30
-0.00523549
  0
VERTEX
  5
9BC26
  8
0
 10
4.4006800000000004
 20
0.0528827
 30
-0.00523549
  0
VERTEX
  5
9BC27
  8
0
 10
4.39297
 20
0.0588383
 30
-0.00523549
  0
VERTEX
  5
9BC28
  8
0
 10
4.38483
 20
0.0645228
 30
-0.00523549
  0
VERTEX
  5
9BC29
  8
0
 10
4.37629
 20
0.0699227
 30
-0.00523549
  0
VERTEX
  5
9BC2A
  8
0
 10
4.3673699999999993
 20
0.0750248
 30
-0.00523549
  0
VERTEX
  5
9BC2B
  8
0
 10
4.3581000000000003
 20
0.0798169
 30
-0.00523549
  0
VERTEX
  5
9BC2C
  8
0
 10
4.3484899999999991
 20
0.0842874
 30
-0.00523549
  0
VERTEX
  5
9BC2D
  8
0
 10
4.3385600000000002
 20
0.0884256
 30
-0.00523549
  0
VERTEX
  5
9BC2E
  8
0
 10
4.328339999999999
 20
0.0922216
 30
-0.00523549
  0
VERTEX
  5
9BC2F
  8
0
 10
4.3178700000000001
 20
0.0956661
 30
-0.00523549
  0
VERTEX
  5
9BC30
  8
0
 10
4.30715
 20
0.0987508
 30
-0.00523549
  0
VERTEX
  5
9BC31
  8
0
 10
4.2962099999999994
 20
0.101468
 30
-0.00523549
  0
VERTEX
  5
9BC32
  8
0
 10
4.2850900000000003
 20
0.103812
 30
-0.00523549
  0
VERTEX
  5
9BC33
  8
0
 10
4.2738100000000001
 20
0.105777
 30
-0.00523549
  0
VERTEX
  5
9BC34
  8
0
 10
4.2624000000000004
 20
0.107357
 30
-0.00523549
  0
VERTEX
  5
9BC35
  8
0
 10
4.2508800000000004
 20
0.10855
 30
-0.00523549
  0
VERTEX
  5
9BC36
  8
0
 10
4.2392899999999996
 20
0.109351
 30
-0.00523549
  0
VERTEX
  5
9BC37
  8
0
 10
4.2276400000000001
 20
0.10976
 30
-0.00523549
  0
VERTEX
  5
9BC38
  8
0
 10
4.2159699999999987
 20
0.109776
 30
-0.00523549
  0
VERTEX
  5
9BC39
  8
0
 10
4.2043099999999987
 20
0.109397
 30
-0.00523549
  0
VERTEX
  5
9BC3A
  8
0
 10
4.1926800000000002
 20
0.108626
 30
-0.00523549
  0
VERTEX
  5
9BC3B
  8
0
 10
4.1811099999999994
 20
0.107464
 30
-0.00523549
  0
VERTEX
  5
9BC3C
  8
0
 10
4.1696400000000002
 20
0.105913
 30
-0.00523549
  0
VERTEX
  5
9BC3D
  8
0
 10
4.1582800000000004
 20
0.103979
 30
-0.00523549
  0
VERTEX
  5
9BC3E
  8
0
 10
4.1470599999999989
 20
0.101664
 30
-0.00523549
  0
VERTEX
  5
9BC3F
  8
0
 10
4.1360199999999994
 20
0.0989754
 30
-0.00523549
  0
VERTEX
  5
9BC40
  8
0
 10
4.1251800000000003
 20
0.0959189
 30
-0.00523549
  0
VERTEX
  5
9BC41
  8
0
 10
4.1145599999999991
 20
0.0925021
 30
-0.00523549
  0
VERTEX
  5
9BC42
  8
0
 10
4.1041999999999987
 20
0.0887332
 30
-0.00523549
  0
VERTEX
  5
9BC43
  8
0
 10
4.0941000000000001
 20
0.0846213
 30
-0.00523549
  0
VERTEX
  5
9BC44
  8
0
 10
4.0843099999999994
 20
0.0801762
 30
-0.00523549
  0
VERTEX
  5
9BC45
  8
0
 10
4.07484
 20
0.0754087
 30
-0.00523549
  0
VERTEX
  5
9BC46
  8
0
 10
4.0657199999999989
 20
0.0703303
 30
-0.00523549
  0
VERTEX
  5
9BC47
  8
0
 10
4.0569699999999989
 20
0.0649531
 30
-0.00523549
  0
VERTEX
  5
9BC48
  8
0
 10
4.0486000000000004
 20
0.0592902
 30
-0.00523549
  0
VERTEX
  5
9BC49
  8
0
 10
4.0406399999999989
 20
0.0533552
 30
-0.00523549
  0
VERTEX
  5
9BC4A
  8
0
 10
4.0331199999999994
 20
0.0471624
 30
-0.00523549
  0
VERTEX
  5
9BC4B
  8
0
 10
4.0260400000000001
 20
0.0407268
 30
-0.00523549
  0
VERTEX
  5
9BC4C
  8
0
 10
4.0194199999999993
 20
0.0340637
 30
-0.00523549
  0
VERTEX
  5
9BC4D
  8
0
 10
4.0132799999999991
 20
0.0271893
 30
-0.00523549
  0
VERTEX
  5
9BC4E
  8
0
 10
4.0076400000000003
 20
0.0201201
 30
-0.00523549
  0
VERTEX
  5
9BC4F
  8
0
 10
4.0025000000000004
 20
0.0128732
 30
-0.00523549
  0
VERTEX
  5
9BC50
  8
0
 10
3.9978899999999991
 20
0.00546594
 30
-0.00523549
  0
VERTEX
  5
9BC51
  8
0
 10
3.9937999999999989
 20
-0.0020837
 30
-0.00523549
  0
VERTEX
  5
9BC52
  8
0
 10
3.9902599999999988
 20
-0.0097576
 30
-0.00523549
  0
VERTEX
  5
9BC53
  8
0
 10
3.9872699999999992
 20
-0.0175373
 30
-0.00523549
  0
VERTEX
  5
9BC54
  8
0
 10
3.9848400000000002
 20
-0.025404
 30
-0.00523549
  0
VERTEX
  5
9BC55
  8
0
 10
3.9829599999999989
 20
-0.0333387
 30
-0.00523549
  0
VERTEX
  5
9BC56
  8
0
 10
3.9816599999999989
 20
-0.0413224
 30
-0.00523549
  0
VERTEX
  5
9BC57
  8
0
 10
3.9809199999999989
 20
-0.0493358
 30
-0.00523549
  0
VERTEX
  5
9BC58
  8
0
 10
3.9807600000000001
 20
-0.0573597
 30
-0.00523549
  0
SEQEND
  5
9BC59
  8
0
  0
POLYLINE
  5
9BA84
  8
0
 66
     1
 10
0.0
 20
0.0
 30
-0.00497209
  0
VERTEX
  5
9BC5A
  8
0
 10
4.63504
 20
0.285559
 30
-0.00497209
  0
VERTEX
  5
9BC5B
  8
0
 10
4.635019999999999
 20
0.291955
 30
-0.00497209
  0
VERTEX
  5
9BC5C
  8
0
 10
4.6347500000000004
 20
0.298348
 30
-0.00497209
  0
VERTEX
  5
9BC5D
  8
0
 10
4.63422
 20
0.304736
 30
-0.00497209
  0
VERTEX
  5
9BC5E
  8
0
 10
4.6334299999999997
 20
0.311113
 30
-0.00497209
  0
VERTEX
  5
9BC5F
  8
0
 10
4.6323999999999987
 20
0.317476
 30
-0.00497209
  0
VERTEX
  5
9BC60
  8
0
 10
4.6311099999999987
 20
0.323822
 30
-0.00497209
  0
VERTEX
  5
9BC61
  8
0
 10
4.6295699999999993
 20
0.3301449999999999
 30
-0.00497209
  0
VERTEX
  5
9BC62
  8
0
 10
4.6277799999999996
 20
0.336444
 30
-0.00497209
  0
VERTEX
  5
9BC63
  8
0
 10
4.625729999999999
 20
0.342712
 30
-0.00497209
  0
VERTEX
  5
9BC64
  8
0
 10
4.6234400000000004
 20
0.348948
 30
-0.00497209
  0
VERTEX
  5
9BC65
  8
0
 10
4.6208999999999989
 20
0.355147
 30
-0.00497209
  0
VERTEX
  5
9BC66
  8
0
 10
4.6181199999999993
 20
0.361304
 30
-0.00497209
  0
VERTEX
  5
9BC67
  8
0
 10
4.6150900000000004
 20
0.367418
 30
-0.00497209
  0
VERTEX
  5
9BC68
  8
0
 10
4.6118199999999989
 20
0.373483
 30
-0.00497209
  0
VERTEX
  5
9BC69
  8
0
 10
4.6083099999999986
 20
0.379496
 30
-0.00497209
  0
VERTEX
  5
9BC6A
  8
0
 10
4.6045699999999989
 20
0.385453
 30
-0.00497209
  0
VERTEX
  5
9BC6B
  8
0
 10
4.600579999999999
 20
0.391351
 30
-0.00497209
  0
VERTEX
  5
9BC6C
  8
0
 10
4.5963599999999989
 20
0.397187
 30
-0.00497209
  0
VERTEX
  5
9BC6D
  8
0
 10
4.59192
 20
0.402956
 30
-0.00497209
  0
VERTEX
  5
9BC6E
  8
0
 10
4.5872400000000004
 20
0.408655
 30
-0.00497209
  0
VERTEX
  5
9BC6F
  8
0
 10
4.5823400000000003
 20
0.4142800000000001
 30
-0.00497209
  0
VERTEX
  5
9BC70
  8
0
 10
4.5772199999999987
 20
0.419829
 30
-0.00497209
  0
VERTEX
  5
9BC71
  8
0
 10
4.5718699999999988
 20
0.4252970000000001
 30
-0.00497209
  0
VERTEX
  5
9BC72
  8
0
 10
4.5663199999999993
 20
0.430682
 30
-0.00497209
  0
VERTEX
  5
9BC73
  8
0
 10
4.5605399999999996
 20
0.43598
 30
-0.00497209
  0
VERTEX
  5
9BC74
  8
0
 10
4.5545599999999986
 20
0.441188
 30
-0.00497209
  0
VERTEX
  5
9BC75
  8
0
 10
4.548379999999999
 20
0.446303
 30
-0.00497209
  0
VERTEX
  5
9BC76
  8
0
 10
4.5419900000000002
 20
0.4513220000000001
 30
-0.00497209
  0
VERTEX
  5
9BC77
  8
0
 10
4.5354099999999988
 20
0.456241
 30
-0.00497209
  0
VERTEX
  5
9BC78
  8
0
 10
4.5286299999999997
 20
0.461057
 30
-0.00497209
  0
VERTEX
  5
9BC79
  8
0
 10
4.5216599999999989
 20
0.465769
 30
-0.00497209
  0
VERTEX
  5
9BC7A
  8
0
 10
4.5145099999999987
 20
0.4703720000000001
 30
-0.00497209
  0
VERTEX
  5
9BC7B
  8
0
 10
4.5071799999999991
 20
0.474864
 30
-0.00497209
  0
VERTEX
  5
9BC7C
  8
0
 10
4.4996700000000001
 20
0.479242
 30
-0.00497209
  0
VERTEX
  5
9BC7D
  8
0
 10
4.4919900000000004
 20
0.4835040000000001
 30
-0.00497209
  0
VERTEX
  5
9BC7E
  8
0
 10
4.48414
 20
0.487646
 30
-0.00497209
  0
VERTEX
  5
9BC7F
  8
0
 10
4.4761300000000004
 20
0.4916680000000001
 30
-0.00497209
  0
VERTEX
  5
9BC80
  8
0
 10
4.4679599999999988
 20
0.495565
 30
-0.00497209
  0
VERTEX
  5
9BC81
  8
0
 10
4.4596400000000003
 20
0.499336
 30
-0.00497209
  0
VERTEX
  5
9BC82
  8
0
 10
4.4511699999999994
 20
0.5029779999999999
 30
-0.00497209
  0
VERTEX
  5
9BC83
  8
0
 10
4.4425600000000003
 20
0.5064890000000001
 30
-0.00497209
  0
VERTEX
  5
9BC84
  8
0
 10
4.4338100000000003
 20
0.509867
 30
-0.00497209
  0
VERTEX
  5
9BC85
  8
0
 10
4.4249299999999998
 20
0.5131100000000001
 30
-0.00497209
  0
VERTEX
  5
9BC86
  8
0
 10
4.415919999999999
 20
0.516216
 30
-0.00497209
  0
VERTEX
  5
9BC87
  8
0
 10
4.4067999999999987
 20
0.519183
 30
-0.00497209
  0
VERTEX
  5
9BC88
  8
0
 10
4.3975599999999986
 20
0.5220090000000001
 30
-0.00497209
  0
VERTEX
  5
9BC89
  8
0
 10
4.3882099999999991
 20
0.5246930000000001
 30
-0.00497209
  0
VERTEX
  5
9BC8A
  8
0
 10
4.3787500000000001
 20
0.5272319999999999
 30
-0.00497209
  0
VERTEX
  5
9BC8B
  8
0
 10
4.3692000000000002
 20
0.5296260000000002
 30
-0.00497209
  0
VERTEX
  5
9BC8C
  8
0
 10
4.3595499999999987
 20
0.531873
 30
-0.00497209
  0
VERTEX
  5
9BC8D
  8
0
 10
4.3498199999999994
 20
0.5339710000000001
 30
-0.00497209
  0
VERTEX
  5
9BC8E
  8
0
 10
4.3400099999999986
 20
0.53592
 30
-0.00497209
  0
VERTEX
  5
9BC8F
  8
0
 10
4.3301199999999991
 20
0.537717
 30
-0.00497209
  0
VERTEX
  5
9BC90
  8
0
 10
4.3201599999999987
 20
0.5393620000000001
 30
-0.00497209
  0
VERTEX
  5
9BC91
  8
0
 10
4.3101500000000001
 20
0.540854
 30
-0.00497209
  0
VERTEX
  5
9BC92
  8
0
 10
4.3000699999999989
 20
0.5421930000000002
 30
-0.00497209
  0
VERTEX
  5
9BC93
  8
0
 10
4.2899500000000002
 20
0.543376
 30
-0.00497209
  0
VERTEX
  5
9BC94
  8
0
 10
4.2797799999999997
 20
0.5444040000000001
 30
-0.00497209
  0
VERTEX
  5
9BC95
  8
0
 10
4.269569999999999
 20
0.545276
 30
-0.00497209
  0
VERTEX
  5
9BC96
  8
0
 10
4.259339999999999
 20
0.545991
 30
-0.00497209
  0
VERTEX
  5
9BC97
  8
0
 10
4.2490699999999988
 20
0.546549
 30
-0.00497209
  0
VERTEX
  5
9BC98
  8
0
 10
4.2387899999999989
 20
0.5469490000000001
 30
-0.00497209
  0
VERTEX
  5
9BC99
  8
0
 10
4.2285000000000004
 20
0.547192
 30
-0.00497209
  0
VERTEX
  5
9BC9A
  8
0
 10
4.2182000000000004
 20
0.547276
 30
-0.00497209
  0
VERTEX
  5
9BC9B
  8
0
 10
4.2079000000000004
 20
0.5472030000000001
 30
-0.00497209
  0
VERTEX
  5
9BC9C
  8
0
 10
4.1976000000000004
 20
0.5469720000000001
 30
-0.00497209
  0
VERTEX
  5
9BC9D
  8
0
 10
4.1873199999999988
 20
0.5465840000000001
 30
-0.00497209
  0
VERTEX
  5
9BC9E
  8
0
 10
4.1770500000000004
 20
0.5460380000000001
 30
-0.00497209
  0
VERTEX
  5
9BC9F
  8
0
 10
4.166809999999999
 20
0.545334
 30
-0.00497209
  0
VERTEX
  5
9BCA0
  8
0
 10
4.1566000000000001
 20
0.5444740000000001
 30
-0.00497209
  0
VERTEX
  5
9BCA1
  8
0
 10
4.1464299999999996
 20
0.5434580000000001
 30
-0.00497209
  0
VERTEX
  5
9BCA2
  8
0
 10
4.136309999999999
 20
0.5422860000000001
 30
-0.00497209
  0
VERTEX
  5
9BCA3
  8
0
 10
4.1262299999999996
 20
0.540959
 30
-0.00497209
  0
VERTEX
  5
9BCA4
  8
0
 10
4.1162099999999988
 20
0.5394790000000002
 30
-0.00497209
  0
VERTEX
  5
9BCA5
  8
0
 10
4.1062500000000002
 20
0.537845
 30
-0.00497209
  0
VERTEX
  5
9BCA6
  8
0
 10
4.0963500000000002
 20
0.5360590000000001
 30
-0.00497209
  0
VERTEX
  5
9BCA7
  8
0
 10
4.0865299999999998
 20
0.534122
 30
-0.00497209
  0
VERTEX
  5
9BCA8
  8
0
 10
4.0768000000000004
 20
0.532034
 30
-0.00497209
  0
VERTEX
  5
9BCA9
  8
0
 10
4.0671400000000002
 20
0.5297990000000001
 30
-0.00497209
  0
VERTEX
  5
9BCAA
  8
0
 10
4.0575799999999997
 20
0.5274160000000001
 30
-0.00497209
  0
VERTEX
  5
9BCAB
  8
0
 10
4.0481199999999991
 20
0.5248870000000001
 30
-0.00497209
  0
VERTEX
  5
9BCAC
  8
0
 10
4.038759999999999
 20
0.5222140000000001
 30
-0.00497209
  0
VERTEX
  5
9BCAD
  8
0
 10
4.0295100000000001
 20
0.5193979999999999
 30
-0.00497209
  0
VERTEX
  5
9BCAE
  8
0
 10
4.0203800000000003
 20
0.516442
 30
-0.00497209
  0
VERTEX
  5
9BCAF
  8
0
 10
4.0113599999999989
 20
0.513346
 30
-0.00497209
  0
VERTEX
  5
9BCB0
  8
0
 10
4.0024699999999989
 20
0.5101130000000002
 30
-0.00497209
  0
VERTEX
  5
9BCB1
  8
0
 10
3.9937199999999988
 20
0.506745
 30
-0.00497209
  0
VERTEX
  5
9BCB2
  8
0
 10
3.9850899999999991
 20
0.503244
 30
-0.00497209
  0
VERTEX
  5
9BCB3
  8
0
 10
3.9766099999999991
 20
0.499611
 30
-0.00497209
  0
VERTEX
  5
9BCB4
  8
0
 10
3.96828
 20
0.49585
 30
-0.00497209
  0
VERTEX
  5
9BCB5
  8
0
 10
3.9601000000000002
 20
0.491962
 30
-0.00497209
  0
VERTEX
  5
9BCB6
  8
0
 10
3.95208
 20
0.4879500000000001
 30
-0.00497209
  0
VERTEX
  5
9BCB7
  8
0
 10
3.9442199999999992
 20
0.483816
 30
-0.00497209
  0
VERTEX
  5
9BCB8
  8
0
 10
3.9365199999999989
 20
0.479563
 30
-0.00497209
  0
VERTEX
  5
9BCB9
  8
0
 10
3.9289999999999989
 20
0.475194
 30
-0.00497209
  0
VERTEX
  5
9BCBA
  8
0
 10
3.9216499999999992
 20
0.4707100000000001
 30
-0.00497209
  0
VERTEX
  5
9BCBB
  8
0
 10
3.9144899999999998
 20
0.466115
 30
-0.00497209
  0
VERTEX
  5
9BCBC
  8
0
 10
3.9075099999999989
 20
0.461412
 30
-0.00497209
  0
VERTEX
  5
9BCBD
  8
0
 10
3.9007199999999989
 20
0.456603
 30
-0.00497209
  0
VERTEX
  5
9BCBE
  8
0
 10
3.8941199999999991
 20
0.4516910000000001
 30
-0.00497209
  0
VERTEX
  5
9BCBF
  8
0
 10
3.887719999999999
 20
0.44668
 30
-0.00497209
  0
VERTEX
  5
9BCC0
  8
0
 10
3.8815199999999992
 20
0.4415729999999999
 30
-0.00497209
  0
VERTEX
  5
9BCC1
  8
0
 10
3.875519999999999
 20
0.4363710000000001
 30
-0.00497209
  0
VERTEX
  5
9BCC2
  8
0
 10
3.8697300000000001
 20
0.4310800000000001
 30
-0.00497209
  0
VERTEX
  5
9BCC3
  8
0
 10
3.86416
 20
0.4257010000000001
 30
-0.00497209
  0
VERTEX
  5
9BCC4
  8
0
 10
3.8588
 20
0.4202390000000001
 30
-0.00497209
  0
VERTEX
  5
9BCC5
  8
0
 10
3.8536599999999992
 20
0.414696
 30
-0.00497209
  0
VERTEX
  5
9BCC6
  8
0
 10
3.8487399999999998
 20
0.409076
 30
-0.00497209
  0
VERTEX
  5
9BCC7
  8
0
 10
3.8440500000000002
 20
0.403383
 30
-0.00497209
  0
VERTEX
  5
9BCC8
  8
0
 10
3.8395800000000002
 20
0.397619
 30
-0.00497209
  0
VERTEX
  5
9BCC9
  8
0
 10
3.83535
 20
0.391788
 30
-0.00497209
  0
VERTEX
  5
9BCCA
  8
0
 10
3.83135
 20
0.385895
 30
-0.00497209
  0
VERTEX
  5
9BCCB
  8
0
 10
3.8275800000000002
 20
0.379942
 30
-0.00497209
  0
VERTEX
  5
9BCCC
  8
0
 10
3.8240599999999989
 20
0.373932
 30
-0.00497209
  0
VERTEX
  5
9BCCD
  8
0
 10
3.8207699999999991
 20
0.367871
 30
-0.00497209
  0
VERTEX
  5
9BCCE
  8
0
 10
3.8177199999999991
 20
0.361761
 30
-0.00497209
  0
VERTEX
  5
9BCCF
  8
0
 10
3.814919999999999
 20
0.355607
 30
-0.00497209
  0
VERTEX
  5
9BCD0
  8
0
 10
3.8123599999999991
 20
0.349411
 30
-0.00497209
  0
VERTEX
  5
9BCD1
  8
0
 10
3.8100499999999999
 20
0.343178
 30
-0.00497209
  0
VERTEX
  5
9BCD2
  8
0
 10
3.8079900000000002
 20
0.336912
 30
-0.00497209
  0
VERTEX
  5
9BCD3
  8
0
 10
3.8061799999999999
 20
0.330615
 30
-0.00497209
  0
VERTEX
  5
9BCD4
  8
0
 10
3.804619999999999
 20
0.324293
 30
-0.00497209
  0
VERTEX
  5
9BCD5
  8
0
 10
3.8033199999999989
 20
0.317949
 30
-0.00497209
  0
VERTEX
  5
9BCD6
  8
0
 10
3.80226
 20
0.311587
 30
-0.00497209
  0
VERTEX
  5
9BCD7
  8
0
 10
3.8014600000000001
 20
0.305211
 30
-0.00497209
  0
VERTEX
  5
9BCD8
  8
0
 10
3.80091
 20
0.298824
 30
-0.00497209
  0
VERTEX
  5
9BCD9
  8
0
 10
3.800619999999999
 20
0.292431
 30
-0.00497209
  0
VERTEX
  5
9BCDA
  8
0
 10
3.8005800000000001
 20
0.286036
 30
-0.00497209
  0
SEQEND
  5
9BCDB
  8
0
  0
POLYLINE
  5
9BB04
  8
ASHADE
 66
     1
 10
0.0
 20
0.0
 30
0.0025177844672434
  0
VERTEX
  5
9BCDC
  8
ASHADE
 10
0.4349581877543799
 20
0.9909359011316549
 30
0.0025177844672434
 42
0.1834059839698454
  0
VERTEX
  5
9BCDD
  8
ASHADE
 10
0.7135334920174038
 20
1.267255945437048
 30
0.0025177844672434
  0
SEQEND
  5
9BCDE
  8
ASHADE
  0
POLYLINE
  5
9BB05
  8
ASHADE
 66
     1
 10
0.0
 20
0.0
 30
0.0025177844672434
  0
VERTEX
  5
9BCDF
  8
ASHADE
 10
-0.2930020597166283
 20
1.2672515833973299
 30
0.0025177844672434
 42
0.1791739233855783
  0
VERTEX
  5
9BCE0
  8
ASHADE
 10
-0.0226724064171022
 20
0.994684183954175
 30
0.0025177844672434
  0
SEQEND
  5
9BCE1
  8
ASHADE
  0
POLYLINE
  5
9BB06
  8
ASHADE
 66
     1
 10
0.0
 20
0.0
 30
0.0029508544419804
  0
VERTEX
  5
9BCE2
  8
ASHADE
 10
-0.7511026692907235
 20
1.267251583397349
 30
0.0029508544419804
 42
0.2825562041332916
  0
VERTEX
  5
9BCE3
  8
ASHADE
 10
-0.0226758118430811
 20
0.5388568596507009
 30
0.0029508544419804
  0
SEQEND
  5
9BCE4
  8
ASHADE
  0
POLYLINE
  5
9BB07
  8
ASHADE
 66
     1
 10
0.0
 20
0.0
 30
0.0025177844672434
  0
VERTEX
  5
9BCE5
  8
ASHADE
 10
0.7135309216994294
 20
1.724845243927237
 30
0.0025177844672434
 42
0.1834030809438208
  0
VERTEX
  5
9BCE6
  8
ASHADE
 10
0.4349581877777723
 20
2.0011596344297962
 30
0.0025177844672434
  0
SEQEND
  5
9BCE7
  8
ASHADE
  0
POLYLINE
  5
9BB08
  8
ASHADE
 66
     1
 10
0.0
 20
0.0
 30
0.0025177844672434
  0
VERTEX
  5
9BCE8
  8
ASHADE
 10
-0.0226724063748618
 20
1.9974113516373071
 30
0.0025177844672434
 42
0.1791710246859447
  0
VERTEX
  5
9BCE9
  8
ASHADE
 10
-0.2929994893346863
 20
1.72484960597759
 30
0.0025177844672434
  0
SEQEND
  5
9BCEA
  8
ASHADE
  0
POLYLINE
  5
9BB09
  8
ASHADE
 66
     1
 10
0.0
 20
0.0
 30
0.0029508544419804
  0
VERTEX
  5
9BCEB
  8
ASHADE
 10
-0.0226758125237945
 20
2.453335445507816
 30
0.0029508544419804
 42
0.2825819005050042
  0
VERTEX
  5
9BCEC
  8
ASHADE
 10
-0.7511244477752399
 20
1.7248496059775591
 30
0.0029508544419804
  0
SEQEND
  5
9BCED
  8
ASHADE
  0
POLYLINE
  5
9BB0A
  8
ASHADE
 66
     1
 10
0.0
 20
0.0
 30
0.0029508544419804
  0
VERTEX
  5
9BCEE
  8
ASHADE
 10
1.163378103848081
 20
1.724847105057429
 30
0.0029508544419804
 42
0.2825748653814367
  0
VERTEX
  5
9BCEF
  8
ASHADE
 10
0.4349563170438556
 20
2.453328884842076
 30
0.0029508544419804
  0
SEQEND
  5
9BCF0
  8
ASHADE
  0
POLYLINE
  5
9BB0B
  8
ASHADE
 66
     1
 10
0.0
 20
0.0
 30
0.0029508544419804
  0
VERTEX
  5
9BCF1
  8
ASHADE
 10
0.4349563174208245
 20
0.538863420569263
 30
0.0029508544419804
 42
0.282549168847502
  0
VERTEX
  5
9BCF2
  8
ASHADE
 10
1.1633563256367569
 20
1.2672540844075759
 30
0.0029508544419804
  0
SEQEND
  5
9BCF3
  8
ASHADE
  0
POLYLINE
  5
9BB0C
  8
ASHADE
 66
     1
 10
0.0
 20
0.0
 30
3.8005781962979732
210
0.9999999999999975
220
0.0000000718511335
230
0.0
  0
VERTEX
  5
9BCF4
  8
ASHADE
 10
1.4960499109505021
 20
-0.0035593814920285
 30
3.8005781962979732
  0
VERTEX
  5
9BCF5
  8
ASHADE
 10
-0.0702550889746917
 20
-0.0052646411738243
 30
3.8005781962979732
  0
SEQEND
  5
9BCF6
  8
ASHADE
  0
POLYLINE
  5
9BB0D
  8
ASHADE
 66
     1
 10
0.0
 20
0.0
 30
4.63504073290117
210
0.9999999999999975
220
0.0000000718511332
230
0.0
  0
VERTEX
  5
9BCF7
  8
ASHADE
 10
1.496049674995815
 20
-0.0035593814920285
 30
4.63504073290117
  0
VERTEX
  5
9BCF8
  8
ASHADE
 10
-0.0702553249293895
 20
-0.0052646411738243
 30
4.63504073290117
  0
SEQEND
  5
9BCF9
  8
ASHADE
  0
POLYLINE
  5
9BB0E
  8
ASHADE
 66
     1
 10
0.0
 20
0.0
 30
0.0029508544419804
  0
VERTEX
  5
9BCFA
  8
ASHADE
 10
9.1867213200472602
 20
1.7248484326601221
 30
0.0029508544419804
 42
0.2825562041332916
  0
VERTEX
  5
9BCFB
  8
ASHADE
 10
8.4582944625996177
 20
2.453243156406772
 30
0.0029508544419804
  0
SEQEND
  5
9BCFC
  8
ASHADE
  0
POLYLINE
  5
9BB0F
  8
ASHADE
 66
     1
 10
0.0
 20
0.0
 30
0.0025177844672434
  0
VERTEX
  5
9BCFD
  8
ASHADE
 10
8.7286207104731854
 20
1.7248484326601461
 30
0.0025177844672434
 42
0.1791739233855787
  0
VERTEX
  5
9BCFE
  8
ASHADE
 10
8.4582910571736587
 20
1.997415832103302
 30
0.0025177844672434
  0
SEQEND
  5
9BCFF
  8
ASHADE
  0
POLYLINE
  5
9BB10
  8
ASHADE
 66
     1
 10
0.0
 20
0.0
 30
0.0029508544419804
  0
VERTEX
  5
9BD00
  8
ASHADE
 10
8.0006623333357147
 20
2.4532365954882098
 30
0.0029508544419804
 42
0.282549168847503
  0
VERTEX
  5
9BD01
  8
ASHADE
 10
7.2722623251197787
 20
1.724845931649895
 30
0.0029508544419804
  0
SEQEND
  5
9BD02
  8
ASHADE
  0
POLYLINE
  5
9BB11
  8
ASHADE
 66
     1
 10
0.0
 20
0.0
 30
0.0025177844672434
  0
VERTEX
  5
9BD03
  8
ASHADE
 10
8.0006604630021751
 20
2.0011641149258219
 30
0.0025177844672434
 42
0.1834059839698449
  0
VERTEX
  5
9BD04
  8
ASHADE
 10
7.7220851587391541
 20
1.7248440706204291
 30
0.0025177844672434
  0
SEQEND
  5
9BD05
  8
ASHADE
  0
POLYLINE
  5
9BB12
  8
ASHADE
 66
     1
 10
0.0
 20
0.0
 30
0.0029508544419804
  0
VERTEX
  5
9BD06
  8
ASHADE
 10
7.2722405469084537
 20
1.267252911000043
 30
0.0029508544419804
 42
0.2825748653814373
  0
VERTEX
  5
9BD07
  8
ASHADE
 10
8.0006623337126825
 20
0.5387711312153961
 30
0.0029508544419804
  0
SEQEND
  5
9BD08
  8
ASHADE
  0
POLYLINE
  5
9BB13
  8
ASHADE
 66
     1
 10
0.0
 20
0.0
 30
0.0025177844672434
  0
VERTEX
  5
9BD09
  8
ASHADE
 10
7.7220877290571277
 20
1.2672547721302401
 30
0.0025177844672434
 42
0.1834030809438215
  0
VERTEX
  5
9BD0A
  8
ASHADE
 10
8.0006604629787859
 20
0.9909403816276805
 30
0.0025177844672434
  0
SEQEND
  5
9BD0B
  8
ASHADE
  0
POLYLINE
  5
9BB14
  8
ASHADE
 66
     1
 10
0.0
 20
0.0
 30
-0.0035593814920285
  0
VERTEX
  5
9BD0C
  8
ASHADE
 10
4.6350406254082559
 20
1.4960501840263549
 30
-0.0035593814920285
 42
0.9999995781774324
  0
VERTEX
  5
9BD0D
  8
ASHADE
 10
3.8005780253482961
 20
1.4960501840263549
 30
-0.0035593814920285
  0
SEQEND
  5
9BD0E
  8
ASHADE
  0
POLYLINE
  5
9BB15
  8
ASHADE
 66
     1
 10
0.0
 20
0.0
 30
0.0029506940847786
  0
VERTEX
  5
9BD0F
  8
ASHADE
 10
4.6350406894624641
 20
0.6045654709140607
 30
0.0029506940847786
 42
4.4957077305424038
  0
VERTEX
  5
9BD10
  8
ASHADE
 10
3.8005781528573781
 20
0.6045917581741955
 30
0.0029506940847786
  0
SEQEND
  5
9BD11
  8
ASHADE
  0
POLYLINE
  5
9BB16
  8
ASHADE
 66
     1
 10
0.0
 20
0.0
 30
0.0025177844672434
  0
VERTEX
  5
9BD12
  8
ASHADE
 10
8.4582910571314187
 20
0.9946886644201699
 30
0.0025177844672434
 42
0.1791710246859449
  0
VERTEX
  5
9BD13
  8
ASHADE
 10
8.7286181400912444
 20
1.2672504100798869
 30
0.0025177844672434
  0
SEQEND
  5
9BD14
  8
ASHADE
  0
POLYLINE
  5
9BB17
  8
ASHADE
 66
     1
 10
0.0
 20
0.0
 30
0.0029508544419804
  0
VERTEX
  5
9BD15
  8
ASHADE
 10
8.4582944632803319
 20
0.5387645705496567
 30
0.0029508544419804
 42
0.2825819005050043
  0
VERTEX
  5
9BD16
  8
ASHADE
 10
9.1867430985317764
 20
1.267250410079914
 30
0.0029508544419804
  0
SEQEND
  5
9BD17
  8
ASHADE
  0
ENDSEC
  0
EOF
