  0
SECTION
  2
HEADER
  9
$ACADVER
  1
AC1009
  9
$INSBASE
 10
0.0
 20
0.0
 30
0.0
  9
$EXTMIN
 10
-2.250139509477171
 20
-0.005
 30
-0.0102764
  9
$EXTMAX
 10
12.76814386599867
 20
9.9299580364643543
 30
0.0
  9
$LIMMIN
 10
0.0
 20
0.0
  9
$LIMMAX
 10
420.0
 20
297.0
  9
$ORTHOMODE
 70
     1
  9
$REGENMODE
 70
     1
  9
$FILLMODE
 70
     1
  9
$QTEXTMODE
 70
     0
  9
$MIRRTEXT
 70
     1
  9
$DRAGMODE
 70
     2
  9
$LTSCALE
 40
1.0
  9
$OSMODE
 70
    37
  9
$ATTMODE
 70
     1
  9
$TEXTSIZE
 40
0.001
  9
$TRACEWID
 40
1.0
  9
$TEXTSTYLE
  7
STANDARD
  9
$CLAYER
  8
0
  9
$CELTYPE
  6
BYLAYER
  9
$CECOLOR
 62
   256
  9
$DIMSCALE
 40
1.0
  9
$DIMASZ
 40
2.5
  9
$DIMEXO
 40
0.625
  9
$DIMDLI
 40
3.75
  9
$DIMRND
 40
0.0
  9
$DIMDLE
 40
0.0
  9
$DIMEXE
 40
1.25
  9
$DIMTP
 40
0.0
  9
$DIMTM
 40
0.0
  9
$DIMTXT
 40
2.5
  9
$DIMCEN
 40
2.5
  9
$DIMTSZ
 40
0.0
  9
$DIMTOL
 70
     0
  9
$DIMLIM
 70
     0
  9
$DIMTIH
 70
     0
  9
$DIMTOH
 70
     0
  9
$DIMSE1
 70
     0
  9
$DIMSE2
 70
     0
  9
$DIMTAD
 70
     1
  9
$DIMZIN
 70
     8
  9
$DIMBLK
  1

  9
$DIMASO
 70
     1
  9
$DIMSHO
 70
     1
  9
$DIMPOST
  1

  9
$DIMAPOST
  1

  9
$DIMALT
 70
     0
  9
$DIMALTD
 70
     3
  9
$DIMALTF
 40
0.03937007874016
  9
$DIMLFAC
 40
1.0
  9
$DIMTOFL
 70
     1
  9
$DIMTVP
 40
0.0
  9
$DIMTIX
 70
     0
  9
$DIMSOXD
 70
     0
  9
$DIMSAH
 70
     0
  9
$DIMBLK1
  1

  9
$DIMBLK2
  1

  9
$DIMSTYLE
  2
ISO-25
  9
$DIMCLRD
 70
     0
  9
$DIMCLRE
 70
     0
  9
$DIMCLRT
 70
     0
  9
$DIMTFAC
 40
1.0
  9
$DIMGAP
 40
0.625
  9
$LUNITS
 70
     2
  9
$LUPREC
 70
     4
  9
$SKETCHINC
 40
1.0
  9
$FILLETRAD
 40
0.0
  9
$AUNITS
 70
     0
  9
$AUPREC
 70
     0
  9
$MENU
  1
.
  9
$ELEVATION
 40
0.0
  9
$PELEVATION
 40
0.0
  9
$THICKNESS
 40
0.0
  9
$LIMCHECK
 70
     0
  9
$BLIPMODE
 70
     0
  9
$CHAMFERA
 40
10.0
  9
$CHAMFERB
 40
10.0
  9
$SKPOLY
 70
     0
  9
$TDCREATE
 40
2453378.22126956
  9
$TDUPDATE
 40
2453418.6244044681
  9
$TDINDWG
 40
0.6900445486
  9
$TDUSRTIMER
 40
0.6900308681
  9
$USRTIMER
 70
     1
  9
$ANGBASE
 50
0.0
  9
$ANGDIR
 70
     0
  9
$PDMODE
 70
     0
  9
$PDSIZE
 40
0.0
  9
$PLINEWID
 40
0.0
  9
$COORDS
 70
     1
  9
$SPLFRAME
 70
     0
  9
$SPLINETYPE
 70
     6
  9
$SPLINESEGS
 70
     8
  9
$ATTDIA
 70
     0
  9
$ATTREQ
 70
     1
  9
$HANDLING
 70
     1
  9
$HANDSEED
  5
88FEB
  9
$SURFTAB1
 70
     6
  9
$SURFTAB2
 70
     6
  9
$SURFTYPE
 70
     6
  9
$SURFU
 70
     6
  9
$SURFV
 70
     6
  9
$UCSNAME
  2

  9
$UCSORG
 10
0.0
 20
0.0
 30
0.0
  9
$UCSXDIR
 10
1.0
 20
0.0
 30
0.0
  9
$UCSYDIR
 10
0.0
 20
1.0
 30
0.0
  9
$PUCSNAME
  2

  9
$PUCSORG
 10
0.0
 20
0.0
 30
0.0
  9
$PUCSXDIR
 10
1.0
 20
0.0
 30
0.0
  9
$PUCSYDIR
 10
0.0
 20
1.0
 30
0.0
  9
$USERI1
 70
     0
  9
$USERI2
 70
     0
  9
$USERI3
 70
     0
  9
$USERI4
 70
     0
  9
$USERI5
 70
     0
  9
$USERR1
 40
0.0
  9
$USERR2
 40
0.0
  9
$USERR3
 40
0.0
  9
$USERR4
 40
0.0
  9
$USERR5
 40
0.0
  9
$WORLDVIEW
 70
     1
  9
$SHADEDGE
 70
     3
  9
$SHADEDIF
 70
    70
  9
$TILEMODE
 70
     1
  9
$MAXACTVP
 70
    64
  9
$PLIMCHECK
 70
     0
  9
$PEXTMIN
 10
1.0000000000000000E+020
 20
1.0000000000000000E+020
 30
1.0000000000000000E+020
  9
$PEXTMAX
 10
-1.0000000000000000E+020
 20
-1.0000000000000000E+020
 30
-1.0000000000000000E+020
  9
$PLIMMIN
 10
0.0
 20
0.0
  9
$PLIMMAX
 10
420.0
 20
297.0
  9
$UNITMODE
 70
     0
  9
$VISRETAIN
 70
     1
  9
$PLINEGEN
 70
     0
  9
$PSLTSCALE
 70
     1
  0
ENDSEC
  0
SECTION
  2
TABLES
  0
TABLE
  2
VPORT
 70
     2
  0
VPORT
  2
*ACTIVE
 70
     0
 10
0.0
 20
0.0
 11
1.0
 21
1.0
 12
5.0450462607809561
 22
2.8185750531824492
 13
0.0
 23
0.0
 14
10.0
 24
10.0
 15
10.0
 25
10.0
 16
0.0
 26
0.0
 36
1.0
 17
0.0
 27
0.0
 37
0.0
 40
10.352144404996761
 41
1.9608247422680409
 42
50.0
 43
0.0
 44
0.0
 50
0.0
 51
0.0
 71
     0
 72
  1000
 73
     1
 74
     3
 75
     0
 76
     0
 77
     0
 78
     0
  0
ENDTAB
  0
TABLE
  2
LTYPE
 70
     1
  0
LTYPE
  2
CONTINUOUS
 70
     0
  3
Solid line
 72
    65
 73
     0
 40
0.0
  0
ENDTAB
  0
TABLE
  2
LAYER
 70
     3
  0
LAYER
  2
0
 70
     0
 62
     7
  6
CONTINUOUS
  0
LAYER
  2
ASHADE
 70
     0
 62
     7
  6
CONTINUOUS
  0
LAYER
  2
DEFPOINTS
 70
     0
 62
     7
  6
CONTINUOUS
  0
ENDTAB
  0
TABLE
  2
STYLE
 70
     2
  0
STYLE
  2
STANDARD
 70
     0
 40
0.0
 41
1.0
 50
0.0
 71
     0
 42
0.001
  3
txt
  4

  0
STYLE
  2
ASHADE
 70
     0
 40
0.2
 41
1.0
 50
0.0
 71
     0
 42
2.5
  3
simplex.shx
  4

  0
ENDTAB
  0
TABLE
  2
VIEW
 70
     0
  0
ENDTAB
  0
TABLE
  2
UCS
 70
     0
  0
ENDTAB
  0
TABLE
  2
APPID
 70
     6
  0
APPID
  2
ACAD
 70
     0
  0
APPID
  2
AVE_RENDER
 70
     0
  0
APPID
  2
AVE_ENTITY_MATERIAL
 70
     0
  0
APPID
  2
AVE_FINISH
 70
     0
  0
APPID
  2
AVE_MATERIAL
 70
     0
  0
APPID
  2
AVE_GLOBAL
 70
     0
  0
ENDTAB
  0
TABLE
  2
DIMSTYLE
 70
     2
  0
DIMSTYLE
  2
ISO-25
 70
     0
  3

  4

  5

  6

  7

 40
1.0
 41
2.5
 42
0.625
 43
3.75
 44
1.25
 45
0.0
 46
0.0
 47
0.0
 48
0.0
140
2.5
141
2.5
142
0.0
143
0.03937007874016
144
1.0
145
0.0
146
1.0
147
0.625
 71
     0
 72
     0
 73
     0
 74
     0
 75
     0
 76
     0
 77
     1
 78
     8
170
     0
171
     3
172
     1
173
     0
174
     0
175
     0
176
     0
177
     0
178
     0
  0
DIMSTYLE
  2
STANDARD
 70
     0
  3

  4

  5

  6

  7

 40
1.0
 41
0.18
 42
0.0625
 43
0.38
 44
0.18
 45
0.0
 46
0.0
 47
0.0
 48
0.0
140
0.18
141
0.09
142
0.0
143
25.399999999999999
144
1.0
145
0.0
146
1.0
147
0.09
 71
     0
 72
     0
 73
     1
 74
     1
 75
     0
 76
     0
 77
     0
 78
     0
170
     0
171
     2
172
     0
173
     0
174
     0
175
     0
176
     0
177
     0
178
     0
  0
ENDTAB
  0
ENDSEC
  0
SECTION
  2
BLOCKS
  0
BLOCK
  8
0
  2
$MODEL_SPACE
 70
     0
 10
0.0
 20
0.0
 30
0.0
  3
$MODEL_SPACE
  1

  0
ENDBLK
  5
88F60
  8
0
  0
BLOCK
 67
     1
  8
0
  2
$PAPER_SPACE
 70
     0
 10
0.0
 20
0.0
 30
0.0
  3
$PAPER_SPACE
  1

  0
ENDBLK
  5
88F5C
 67
     1
  8
0
  0
BLOCK
  8
ASHADE
  2
AVE_RENDER
 70
     0
 10
0.0
 20
0.0
 30
0.0
  3
AVE_RENDER
  1
AVE_RENDER
  0
ENDBLK
  5
31
  8
0
  0
BLOCK
  8
ASHADE
  2
AVE_GLOBAL
 70
     0
 10
0.0
 20
0.0
 30
0.0
  3
AVE_GLOBAL
  1
AVE_GLOBAL
  0
ENDBLK
  5
3F
  8
0
  0
BLOCK
  8
ASHADE
  2
RM_SDB
 70
     2
 10
0.0
 20
0.0
 30
0.0
  3
RM_SDB
  1
RM_SDB
  0
ATTDEF
  5
82986
  8
ASHADE
  6
CONTINUOUS
 62
     1
 10
0.0000000000000001
 20
-0.15
 30
0.0
 40
0.2
  1

 41
100.0
  7
ASHADE
 72
     1
 11
0.0000000000000001
 21
-0.15
 31
0.0
  3
Name
  2
NAME
 70
     0
  0
ENDBLK
  5
620
  8
0
  0
ENDSEC
  0
SECTION
  2
ENTITIES
  0
ATTDEF
  5
888F4
  8
0
 10
0.0
 20
0.0
 30
0.0
 40
0.001
  1
K-T12887-4
  3

  2
MODELNUMBER
 70
     8
  0
ATTDEF
  5
888F5
  8
0
 10
0.0
 20
-0.0016666666666667
 30
0.0
 40
0.001
  1
FAIRFAX
  3

  2
TRADENAME
 70
     8
  0
ATTDEF
  5
888F6
  8
0
 10
0.0
 20
-0.0033333333333333
 30
0.0
 40
0.001
  1
FAUCETS
  3

  2
PRODUCT
 70
     8
  0
ATTDEF
  5
888F7
  8
0
 10
0.0
 20
-0.005
 30
0.0
 40
0.001
  1
BRASS
  3

  2
MATERIAL
 70
     8
  0
POLYLINE
  5
88C33
  8
ASHADE
 66
     1
 10
0.0
 20
0.0
 30
0.0
 70
     1
  0
VERTEX
  5
88F7D
  8
ASHADE
 10
0.5935067833959914
 20
2.513749167696087
 30
0.0
 42
0.396412802727122
  0
VERTEX
  5
88F7E
  8
ASHADE
 10
0.6186128431558516
 20
2.2652262210403382
 30
0.0
 42
0.7241160622749683
  0
VERTEX
  5
88F7F
  8
ASHADE
 10
0.6186128431558516
 20
2.0683764087711269
 30
0.0
  0
VERTEX
  5
88F80
  8
ASHADE
 10
1.8677843089103621
 20
2.0683764087711269
 30
0.0
 42
0.7241160622749683
  0
VERTEX
  5
88F81
  8
ASHADE
 10
1.8677843089103621
 20
2.2652262210403382
 30
0.0
 42
0.396412802727122
  0
VERTEX
  5
88F82
  8
ASHADE
 10
1.8928903686702101
 20
2.513749167696087
 30
0.0
 42
-0.0239621325350766
  0
VERTEX
  5
88F83
  8
ASHADE
 10
1.779830322206009
 20
2.678610826805679
 30
0.0
 42
0.1905568736123858
  0
VERTEX
  5
88F84
  8
ASHADE
 10
1.243198576033099
 20
2.8360911459480209
 30
0.0
 42
0.1905568736123857
  0
VERTEX
  5
88F85
  8
ASHADE
 10
0.7065668298602076
 20
2.678610826805679
 30
0.0
 42
-0.0239621325350766
  0
SEQEND
  5
88F86
  8
ASHADE
  0
POLYLINE
  5
88C37
  8
ASHADE
 66
     1
 10
0.0
 20
0.0
 30
0.0
  0
VERTEX
  5
88F87
  8
ASHADE
 10
1.8677843089103621
 20
2.0683764087711269
 30
0.0
 42
0.240279351049286
  0
VERTEX
  5
88F88
  8
ASHADE
 10
1.904167943835243
 20
1.871526479170168
 30
0.0
 42
0.0505166392160246
  0
VERTEX
  5
88F89
  8
ASHADE
 10
2.243113302409637
 20
1.6463133606170191
 30
0.0
 42
-0.4933352047049404
  0
VERTEX
  5
88F8A
  8
ASHADE
 10
2.229927561104291
 20
1.1585438322578361
 30
0.0
  0
VERTEX
  5
88F8B
  8
ASHADE
 10
2.0007064752289021
 20
1.15854394958958
 30
0.0
  0
VERTEX
  5
88F8C
  8
ASHADE
 10
2.000712726116169
 20
0.4935773826245902
 30
0.0
 42
0.299635124549019
  0
VERTEX
  5
88F8D
  8
ASHADE
 10
2.222095197916035
 20
0.2201560973939287
 30
0.0
  0
VERTEX
  5
88F8E
  8
ASHADE
 10
2.4301992363333591
 20
0.220156053394529
 30
0.0
 42
-0.2855970061167033
  0
VERTEX
  5
88F8F
  8
ASHADE
 10
2.4864034025029991
 20
0.1650380443599815
 30
0.0
  0
VERTEX
  5
88F90
  8
ASHADE
 10
2.4863971520662189
 20
0.0
 30
0.0
  0
VERTEX
  5
88F91
  8
ASHADE
 10
1.243198576033099
 20
0.0000005279928352
 30
0.0
  0
VERTEX
  5
88F92
  8
ASHADE
 10
0.0
 20
0.0
 30
0.0
  0
VERTEX
  5
88F93
  8
ASHADE
 10
-0.0000062504367762
 20
0.1650380443599815
 30
0.0
 42
-0.2855970061167035
  0
VERTEX
  5
88F94
  8
ASHADE
 10
0.0561979157328629
 20
0.220156053394529
 30
0.0
  0
VERTEX
  5
88F95
  8
ASHADE
 10
0.2643019541501912
 20
0.2201560973939287
 30
0.0
 42
0.2996351245490192
  0
VERTEX
  5
88F96
  8
ASHADE
 10
0.4856844259500477
 20
0.4935773826245902
 30
0.0
  0
VERTEX
  5
88F97
  8
ASHADE
 10
0.4856906768373115
 20
1.15854394958958
 30
0.0
  0
VERTEX
  5
88F98
  8
ASHADE
 10
0.2564695909619239
 20
1.1585438322578361
 30
0.0
 42
-0.4933352047049403
  0
VERTEX
  5
88F99
  8
ASHADE
 10
0.2432838496565734
 20
1.6463133606170171
 30
0.0
 42
0.0505166392160246
  0
VERTEX
  5
88F9A
  8
ASHADE
 10
0.5822292082309633
 20
1.871526479170168
 30
0.0
 42
0.240279351049286
  0
VERTEX
  5
88F9B
  8
ASHADE
 10
0.6186128431558519
 20
2.0683764087711269
 30
0.0
  0
SEQEND
  5
88F9C
  8
ASHADE
  0
POLYLINE
  5
88C4F
  8
ASHADE
 66
     1
 10
0.0
 20
0.0
 30
-0.0012432471513746
  0
VERTEX
  5
88F9D
  8
ASHADE
 10
0.6170563202500206
 20
2.2655153264556871
 30
-0.0012432471513746
 42
-0.0404128121171534
  0
VERTEX
  5
88F9E
  8
ASHADE
 10
-0.1924242935776804
 20
2.572056004181948
 30
-0.0012432471513746
 42
0.1274682026232904
  0
VERTEX
  5
88F9F
  8
ASHADE
 10
-1.30035321480036
 20
2.7549149447236871
 30
-0.0012432471513746
 42
0.0268946736242378
  0
VERTEX
  5
88FA0
  8
ASHADE
 10
-1.773946604609498
 20
2.6955474292789421
 30
-0.0012432471513746
 42
-0.098478990420433
  0
VERTEX
  5
88FA1
  8
ASHADE
 10
-2.1834792092442541
 20
2.6645690331016501
 30
-0.0012432471513746
 42
-0.508732588681812
  0
VERTEX
  5
88FA2
  8
ASHADE
 10
-2.1823068304657962
 20
2.926633236244768
 30
-0.0012432471513746
 42
-0.2132838670436432
  0
VERTEX
  5
88FA3
  8
ASHADE
 10
-1.3003527454733881
 20
3.2443384986673278
 30
-0.0012432471513746
 42
-0.1047959238004223
  0
VERTEX
  5
88FA4
  8
ASHADE
 10
-0.0914340462088679
 20
2.86689518715486
 30
-0.0012432471513746
 42
0.0363071217981488
  0
VERTEX
  5
88FA5
  8
ASHADE
 10
0.6308596958518002
 20
2.5796607437883381
 30
-0.0012432471513746
  0
SEQEND
  5
88FA6
  8
ASHADE
  0
POLYLINE
  5
88C67
  8
ASHADE
 66
     1
 10
0.0
 20
0.0
 30
-0.0014152559608529
  0
VERTEX
  5
88FA7
  8
ASHADE
 10
9.8871446606696924
 20
2.5796201769935081
 30
-0.0014152559608529
 42
0.0363071217981488
  0
VERTEX
  5
88FA8
  8
ASHADE
 10
10.60943840273036
 20
2.86685462036003
 30
-0.0014152559608529
 42
-0.1047959238004223
  0
VERTEX
  5
88FA9
  8
ASHADE
 10
11.81835710199489
 20
3.2442979318725009
 30
-0.0014152559608529
 42
-0.2132838670436431
  0
VERTEX
  5
88FAA
  8
ASHADE
 10
12.700311186987291
 20
2.9265926694499358
 30
-0.0014152559608529
 42
-0.5087325886818129
  0
VERTEX
  5
88FAB
  8
ASHADE
 10
12.701483565765759
 20
2.6645284663068192
 30
-0.0014152559608529
 42
-0.098478990420433
  0
VERTEX
  5
88FAC
  8
ASHADE
 10
12.29195096113099
 20
2.6955068624841081
 30
-0.0014152559608529
 42
0.0268946736242378
  0
VERTEX
  5
88FAD
  8
ASHADE
 10
11.81835757132187
 20
2.7548743779288669
 30
-0.0014152559608529
 42
0.1274682026232903
  0
VERTEX
  5
88FAE
  8
ASHADE
 10
10.710428650099161
 20
2.5720154373871278
 30
-0.0014152559608529
 42
-0.0404128121171534
  0
VERTEX
  5
88FAF
  8
ASHADE
 10
9.9009480362714726
 20
2.2654747596608562
 30
-0.0014152559608529
  0
SEQEND
  5
88FB0
  8
ASHADE
  0
POLYLINE
  5
88C6F
  8
ASHADE
 66
     1
 10
0.0
 20
0.0
 30
-0.0001720088094784
 70
     1
  0
VERTEX
  5
88FB1
  8
ASHADE
 10
9.9244975731254872
 20
2.513708600901261
 30
-0.0001720088094784
 42
-0.0239621325350763
  0
VERTEX
  5
88FB2
  8
ASHADE
 10
9.8114375266612939
 20
2.6785702600108592
 30
-0.0001720088094784
 42
0.1905568736123858
  0
VERTEX
  5
88FB3
  8
ASHADE
 10
9.2748057804883928
 20
2.836050579153198
 30
-0.0001720088094784
 42
0.1905568736123857
  0
VERTEX
  5
88FB4
  8
ASHADE
 10
8.7381740343154881
 20
2.6785702600108592
 30
-0.0001720088094784
 42
-0.0239621325350766
  0
VERTEX
  5
88FB5
  8
ASHADE
 10
8.6251139878512824
 20
2.5137086009012601
 30
-0.0001720088094784
 42
0.3964128027271206
  0
VERTEX
  5
88FB6
  8
ASHADE
 10
8.6502200476111302
 20
2.2651856542455082
 30
-0.0001720088094784
 42
0.7241160622749696
  0
VERTEX
  5
88FB7
  8
ASHADE
 10
8.6502200476111302
 20
2.0683358419763
 30
-0.0001720088094784
 42
-0.2402793510492872
  0
VERTEX
  5
88FB8
  8
ASHADE
 10
8.6138364126862434
 20
1.871485912375346
 30
-0.0001720088094784
 42
-0.0505166392160246
  0
VERTEX
  5
88FB9
  8
ASHADE
 10
8.2748910541118619
 20
1.6462727938221891
 30
-0.0001720088094784
 42
0.4933352047049424
  0
VERTEX
  5
88FBA
  8
ASHADE
 10
8.2880767954172132
 20
1.1585032654630101
 30
-0.0001720088094784
  0
VERTEX
  5
88FBB
  8
ASHADE
 10
8.5172978812925901
 20
1.158503382794748
 30
-0.0001720088094784
  0
VERTEX
  5
88FBC
  8
ASHADE
 10
8.517291630405321
 20
0.4935368158297706
 30
-0.0001720088094784
 42
-0.2996351245490189
  0
VERTEX
  5
88FBD
  8
ASHADE
 10
8.2959091586054754
 20
0.2201155305991023
 30
-0.0001720088094784
  0
VERTEX
  5
88FBE
  8
ASHADE
 10
8.0878051201881291
 20
0.2201154865997037
 30
-0.0001720088094784
 42
0.2855970061166996
  0
VERTEX
  5
88FBF
  8
ASHADE
 10
8.0316009540185043
 20
0.1649974775651497
 30
-0.0001720088094784
  0
VERTEX
  5
88FC0
  8
ASHADE
 10
8.0316072044552786
 20
-0.0000405667948407
 30
-0.0001720088094784
  0
VERTEX
  5
88FC1
  8
ASHADE
 10
9.2748057804883928
 20
-0.0000400388019912
 30
-0.0001720088094784
  0
VERTEX
  5
88FC2
  8
ASHADE
 10
10.5180043565215
 20
-0.0000405667948407
 30
-0.0001720088094784
  0
VERTEX
  5
88FC3
  8
ASHADE
 10
10.518010606958279
 20
0.1649974775651497
 30
-0.0001720088094784
 42
0.2855970061167019
  0
VERTEX
  5
88FC4
  8
ASHADE
 10
10.461806440788649
 20
0.2201154865997026
 30
-0.0001720088094784
  0
VERTEX
  5
88FC5
  8
ASHADE
 10
10.253702402371299
 20
0.2201155305991023
 30
-0.0001720088094784
 42
-0.2996351245490192
  0
VERTEX
  5
88FC6
  8
ASHADE
 10
10.03231993057145
 20
0.4935368158297706
 30
-0.0001720088094784
  0
VERTEX
  5
88FC7
  8
ASHADE
 10
10.032313679684179
 20
1.158503382794748
 30
-0.0001720088094784
  0
VERTEX
  5
88FC8
  8
ASHADE
 10
10.261534765559571
 20
1.1585032654630101
 30
-0.0001720088094784
 42
0.4933352047049393
  0
VERTEX
  5
88FC9
  8
ASHADE
 10
10.27472050686492
 20
1.6462727938221891
 30
-0.0001720088094784
 42
-0.0505166392160246
  0
VERTEX
  5
88FCA
  8
ASHADE
 10
9.9357751482905314
 20
1.871485912375348
 30
-0.0001720088094784
 42
-0.2402793510492863
  0
VERTEX
  5
88FCB
  8
ASHADE
 10
9.8993915133656394
 20
2.0683358419763
 30
-0.0001720088094784
 42
0.7241160622749696
  0
VERTEX
  5
88FCC
  8
ASHADE
 10
9.8993915133656394
 20
2.2651856542455082
 30
-0.0001720088094784
 42
0.3964128027271205
  0
SEQEND
  5
88FCD
  8
ASHADE
  0
POLYLINE
  5
88D8B
  8
ASHADE
 66
     1
 10
0.0
 20
0.0
 30
-0.0001720088094784
  0
VERTEX
  5
88FCE
  8
ASHADE
 10
8.5172978812925901
 20
1.158503382794748
 30
-0.0001720088094784
  0
VERTEX
  5
88FCF
  8
ASHADE
 10
10.03231367955031
 20
1.15851762440243
 30
-0.0001720088094784
  0
SEQEND
  5
88FD0
  8
ASHADE
  0
POLYLINE
  5
88D8C
  8
ASHADE
 66
     1
 10
0.0
 20
0.0
 30
-0.0001720088094784
  0
VERTEX
  5
88FD1
  8
ASHADE
 10
8.6502200476111302
 20
2.2651856542455082
 30
-0.0001720088094784
  0
VERTEX
  5
88FD2
  8
ASHADE
 10
9.8993915133656394
 20
2.2651856542455082
 30
-0.0001720088094784
  0
SEQEND
  5
88FD3
  8
ASHADE
  0
POLYLINE
  5
88D8D
  8
ASHADE
 66
     1
 10
0.0
 20
0.0
 30
-0.0001720088094784
  0
VERTEX
  5
88FD4
  8
ASHADE
 10
8.6502200476111302
 20
2.0683358419763
 30
-0.0001720088094784
  0
VERTEX
  5
88FD5
  8
ASHADE
 10
9.8993915133656394
 20
2.0683358419763
 30
-0.0001720088094784
  0
SEQEND
  5
88FD6
  8
ASHADE
  0
POLYLINE
  5
88D8E
  8
ASHADE
 66
     1
 10
0.0
 20
0.0
 30
-0.0001720088094784
  0
VERTEX
  5
88FD7
  8
ASHADE
 10
8.2959091586054541
 20
0.2201155305991023
 30
-0.0001720088094784
  0
VERTEX
  5
88FD8
  8
ASHADE
 10
10.253702402371321
 20
0.2201155305991023
 30
-0.0001720088094784
  0
SEQEND
  5
88FD9
  8
ASHADE
  0
POLYLINE
  5
88D94
  8
ASHADE
 66
     1
 10
0.0
 20
0.0
 30
0.0
  0
VERTEX
  5
88FDA
  8
ASHADE
 10
1.8677843089103621
 20
2.2652262210403382
 30
0.0
  0
VERTEX
  5
88FDB
  8
ASHADE
 10
0.6186128431558516
 20
2.2652262210403382
 30
0.0
  0
SEQEND
  5
88FDC
  8
ASHADE
  0
POLYLINE
  5
88D95
  8
ASHADE
 66
     1
 10
0.0
 20
0.0
 30
0.0
  0
VERTEX
  5
88FDD
  8
ASHADE
 10
2.0007064752289021
 20
1.15854394958958
 30
0.0
  0
VERTEX
  5
88FDE
  8
ASHADE
 10
0.485690676971178
 20
1.158558191197258
 30
0.0
  0
SEQEND
  5
88FDF
  8
ASHADE
  0
POLYLINE
  5
88D96
  8
ASHADE
 66
     1
 10
0.0
 20
0.0
 30
0.0
  0
VERTEX
  5
88FE0
  8
ASHADE
 10
2.222095197916035
 20
0.2201560973939287
 30
0.0
  0
VERTEX
  5
88FE1
  8
ASHADE
 10
0.2643019541501808
 20
0.2201560973939287
 30
0.0
  0
SEQEND
  5
88FE2
  8
ASHADE
  0
ENDSEC
  0
EOF
