  0
SECTION
  2
HEADER
  9
$ACADVER
  1
AC1009
  9
$INSBASE
 10
4.0582631028999989
 20
26.8942990589
 30
0.0
  9
$EXTMIN
 10
3.0682631029
 20
18.379600264499992
 30
0.0
  9
$EXTMAX
 10
5.0482631029
 20
26.907813966199949
 30
0.0
  9
$LIMMIN
 10
0.0
 20
0.0
  9
$LIMMAX
 10
11.692913385800001
 20
8.2677165353999982
  9
$ORTHOMODE
 70
     0
  9
$REGENMODE
 70
     1
  9
$FILLMODE
 70
     1
  9
$QTEXTMODE
 70
     0
  9
$MIRRTEXT
 70
     0
  9
$DRAGMODE
 70
     2
  9
$LTSCALE
 40
0.6431102362
  9
$OSMODE
 70
  3071
  9
$ATTMODE
 70
     1
  9
$TEXTSIZE
 40
0.2
  9
$TRACEWID
 40
0.05
  9
$TEXTSTYLE
  7
STANDARD
  9
$CLAYER
  8
0
  9
$CELTYPE
  6
BYLAYER
  9
$CECOLOR
 62
   256
  9
$DIMSCALE
 40
1.0
  9
$DIMASZ
 40
0.1875
  9
$DIMEXO
 40
0.0625
  9
$DIMDLI
 40
0.4443307087
  9
$DIMRND
 40
0.0
  9
$DIMDLE
 40
0.0
  9
$DIMEXE
 40
0.125
  9
$DIMTP
 40
0.01
  9
$DIMTM
 40
0.01
  9
$DIMTXT
 40
0.15625
  9
$DIMCEN
 40
0.1052362205
  9
$DIMTSZ
 40
0.0
  9
$DIMTOL
 70
     1
  9
$DIMLIM
 70
     0
  9
$DIMTIH
 70
     1
  9
$DIMTOH
 70
     1
  9
$DIMSE1
 70
     0
  9
$DIMSE2
 70
     0
  9
$DIMTAD
 70
     0
  9
$DIMZIN
 70
     0
  9
$DIMBLK
  1

  9
$DIMASO
 70
     1
  9
$DIMSHO
 70
     1
  9
$DIMPOST
  1

  9
$DIMAPOST
  1

  9
$DIMALT
 70
     0
  9
$DIMALTD
 70
     2
  9
$DIMALTF
 40
25.399999999999999
  9
$DIMLFAC
 40
1.0
  9
$DIMTOFL
 70
     0
  9
$DIMTVP
 40
0.0
  9
$DIMTIX
 70
     0
  9
$DIMSOXD
 70
     0
  9
$DIMSAH
 70
     0
  9
$DIMBLK1
  1

  9
$DIMBLK2
  1

  9
$DIMSTYLE
  2
STANDARD
  9
$DIMCLRD
 70
     0
  9
$DIMCLRE
 70
     0
  9
$DIMCLRT
 70
     0
  9
$DIMTFAC
 40
1.0
  9
$DIMGAP
 40
0.09
  9
$LUNITS
 70
     2
  9
$LUPREC
 70
     4
  9
$SKETCHINC
 40
0.1
  9
$FILLETRAD
 40
0.0
  9
$AUNITS
 70
     0
  9
$AUPREC
 70
     0
  9
$MENU
  1
.
  9
$ELEVATION
 40
0.0
  9
$PELEVATION
 40
0.0
  9
$THICKNESS
 40
0.0
  9
$LIMCHECK
 70
     0
  9
$BLIPMODE
 70
     0
  9
$CHAMFERA
 40
0.0
  9
$CHAMFERB
 40
0.0
  9
$SKPOLY
 70
     0
  9
$TDCREATE
 40
2457662.5701642018
  9
$TDUPDATE
 40
2457662.6819698042
  9
$TDINDWG
 40
0.0537587037
  9
$TDUSRTIMER
 40
0.0537587037
  9
$USRTIMER
 70
     1
  9
$ANGBASE
 50
0.0
  9
$ANGDIR
 70
     0
  9
$PDMODE
 70
     0
  9
$PDSIZE
 40
0.3125
  9
$PLINEWID
 40
0.0
  9
$COORDS
 70
     1
  9
$SPLFRAME
 70
     0
  9
$SPLINETYPE
 70
     6
  9
$SPLINESEGS
 70
     8
  9
$ATTDIA
 70
     1
  9
$ATTREQ
 70
     1
  9
$HANDLING
 70
     1
  9
$HANDSEED
  5
5FF
  9
$SURFTAB1
 70
     6
  9
$SURFTAB2
 70
     6
  9
$SURFTYPE
 70
     6
  9
$SURFU
 70
     6
  9
$SURFV
 70
     6
  9
$UCSNAME
  2

  9
$UCSORG
 10
0.0
 20
0.0
 30
0.0
  9
$UCSXDIR
 10
1.0
 20
0.0
 30
0.0
  9
$UCSYDIR
 10
0.0
 20
1.0
 30
0.0
  9
$PUCSNAME
  2

  9
$PUCSORG
 10
0.0
 20
0.0
 30
0.0
  9
$PUCSXDIR
 10
1.0
 20
0.0
 30
0.0
  9
$PUCSYDIR
 10
0.0
 20
1.0
 30
0.0
  9
$USERI1
 70
     0
  9
$USERI2
 70
     0
  9
$USERI3
 70
     0
  9
$USERI4
 70
     0
  9
$USERI5
 70
     0
  9
$USERR1
 40
0.0
  9
$USERR2
 40
0.0
  9
$USERR3
 40
0.0
  9
$USERR4
 40
0.0
  9
$USERR5
 40
0.0
  9
$WORLDVIEW
 70
     1
  9
$SHADEDGE
 70
     3
  9
$SHADEDIF
 70
    70
  9
$TILEMODE
 70
     1
  9
$MAXACTVP
 70
    64
  9
$PLIMCHECK
 70
     0
  9
$PEXTMIN
 10
1.0000000000000000E+020
 20
1.0000000000000000E+020
 30
1.0000000000000000E+020
  9
$PEXTMAX
 10
-1.0000000000000000E+020
 20
-1.0000000000000000E+020
 30
-1.0000000000000000E+020
  9
$PLIMMIN
 10
0.0
 20
0.0
  9
$PLIMMAX
 10
12.0
 20
9.0
  9
$UNITMODE
 70
     0
  9
$VISRETAIN
 70
     1
  9
$PLINEGEN
 70
     0
  9
$PSLTSCALE
 70
     1
  0
ENDSEC
  0
SECTION
  2
TABLES
  0
TABLE
  2
VPORT
 70
     1
  0
VPORT
  2
*ACTIVE
 70
     0
 10
0.0
 20
0.0
 11
1.0
 21
1.0
 12
0.0
 22
0.0
 13
0.0
 23
0.0
 14
1.0
 24
1.0
 15
0.0
 25
0.0
 16
-0.0000000000000053
 26
0.0
 36
25.22740641176442
 17
4.0582630634307861
 27
22.643747299872441
 37
0.0
 40
8.7572908438732338
 41
2.1638418079096038
 42
50.0
 43
0.0
 44
0.0
 50
0.0
 51
0.0
 71
     0
 72
   100
 73
     1
 74
     1
 75
     0
 76
     0
 77
     0
 78
     0
  0
ENDTAB
  0
TABLE
  2
LTYPE
 70
     1
  0
LTYPE
  2
CONTINUOUS
 70
     0
  3
Solid line
 72
    65
 73
     0
 40
0.0
  0
ENDTAB
  0
TABLE
  2
LAYER
 70
     2
  0
LAYER
  2
0
 70
     0
 62
     7
  6
CONTINUOUS
  0
LAYER
  2
DEFPOINTS
 70
     0
 62
     7
  6
CONTINUOUS
  0
ENDTAB
  0
TABLE
  2
STYLE
 70
     1
  0
STYLE
  2
STANDARD
 70
     0
 40
0.0
 41
0.8
 50
0.0
 71
     0
 42
0.2
  3
txt
  4

  0
ENDTAB
  0
TABLE
  2
VIEW
 70
     0
  0
ENDTAB
  0
TABLE
  2
UCS
 70
     0
  0
ENDTAB
  0
TABLE
  2
APPID
 70
     5
  0
APPID
  2
ACAD
 70
     0
  0
APPID
  2
ACAD_MLEADERVER
 70
     0
  0
APPID
  2
ACAD_EXEMPT_FROM_CAD_STANDARDS
 70
     0
  0
APPID
  2
ACAD_NAV_VCDISPLAY
 70
     0
  0
APPID
  2
ACDBATTR
 70
     0
  0
ENDTAB
  0
TABLE
  2
DIMSTYLE
 70
     1
  0
DIMSTYLE
  2
STANDARD
 70
     0
  3

  4

  5

  6

  7

 40
1.0
 41
0.1875
 42
0.0625
 43
0.38
 44
0.125
 45
0.0
 46
0.0
 47
0.01
 48
0.01
140
0.15625
141
0.09
142
0.0
143
25.399999999999999
144
1.0
145
0.0
146
1.0
147
0.09
 71
     1
 72
     0
 73
     1
 74
     1
 75
     0
 76
     0
 77
     0
 78
     4
170
     0
171
     2
172
     0
173
     0
174
     0
175
     0
176
     0
177
     0
178
     0
  0
ENDTAB
  0
ENDSEC
  0
SECTION
  2
BLOCKS
  0
BLOCK
  8
0
  2
$MODEL_SPACE
 70
     0
 10
0.0
 20
0.0
 30
0.0
  3
$MODEL_SPACE
  1

  0
ENDBLK
  5
21
  8
0
  0
BLOCK
 67
     1
  8
0
  2
$PAPER_SPACE
 70
     0
 10
0.0
 20
0.0
 30
0.0
  3
$PAPER_SPACE
  1

  0
ENDBLK
  5
1D
 67
     1
  8
0
  0
ENDSEC
  0
SECTION
  2
ENTITIES
  0
LINE
  5
251
  8
0
 10
3.1186847025999991
 20
26.590462349799999
 30
0.0
 11
3.1165231247960148
 21
26.7142990589
 31
0.0
  0
LINE
  5
252
  8
0
 10
3.0682631029
 20
26.7142990589
 30
0.0
 11
3.0682631029
 21
26.8942990589
 31
0.0
  0
LINE
  5
257
  8
0
 10
3.6832631028999998
 20
26.434299058899999
 30
0.0
 11
3.6832631028999998
 21
18.686782281100001
 31
0.0
  0
LINE
  5
25C
  8
0
 10
4.4332631028999989
 20
26.434299058899999
 30
0.0
 11
4.4332631028999998
 21
18.68678228109999
 31
0.0
  0
LINE
  5
261
  8
0
 10
5.0482631029
 20
26.7142990589
 30
0.0
 11
5.0482631029
 21
26.8942990589
 31
0.0
  0
LINE
  5
262
  8
0
 10
4.9978415031000001
 20
26.590462349799999
 30
0.0
 11
5.0000030809039853
 21
26.7142990589
 31
0.0
  0
LINE
  5
263
  8
0
 10
3.6282631029000001
 20
26.434299058899999
 30
0.0
 11
4.4882631029000004
 21
26.434299058899999
 31
0.0
  0
LINE
  5
265
  8
0
 10
3.0682631029
 20
26.7142990589
 30
0.0
 11
5.0482631029
 21
26.7142990589
 31
0.0
  0
LINE
  5
266
  8
0
 10
5.0482631029
 20
26.8942990589
 30
0.0
 11
3.0682631029
 21
26.8942990589
 31
0.0
  0
LINE
  5
269
  8
0
 10
3.1580515155999991
 20
26.551779373799999
 30
0.0
 11
3.6024252078861601
 21
26.551779373799999
 31
0.0
  0
LINE
  5
26A
  8
0
 10
4.5141009979138387
 20
26.551779373799999
 30
0.0
 11
4.9584746901000001
 21
26.551779373799999
 31
0.0
  0
LINE
  5
270
  8
0
 10
5.0031449926000002
 20
26.8942990589
 30
0.0
 11
4.5182631028999989
 21
26.8942990589
 31
0.0
  0
ARC
  5
2F1
  8
0
 10
3.2266992706000002
 20
26.0427352267
 30
0.0
 40
0.69
 50
72.752665122899984
 51
76.725438652165323
  0
ARC
  5
2F2
  8
0
 10
4.8898269351000003
 20
26.0427352267
 30
0.0
 40
0.69
 50
103.27456134783471
 51
107.2473348771
  0
ARC
  5
2F4
  8
0
 10
3.3482631028999998
 20
26.434299058899999
 30
0.0
 40
0.28
 50
0.0
 51
72.752665122899984
  0
ARC
  5
2F5
  8
0
 10
4.7682631028999989
 20
26.434299058899999
 30
0.0
 40
0.28
 50
107.2473348771
 51
180.0
  0
ARC
  5
2F8
  8
0
 10
3.1580487851000001
 20
26.591149452600011
 30
0.0
 40
0.0393700787
 50
181.00000025380001
 51
270.0000131992
  0
ARC
  5
2F9
  8
0
 10
4.9584774206000004
 20
26.591149452600011
 30
0.0
 40
0.0393700787
 50
269.9999868008
 51
358.9999997462001
  0
ARC
  5
468
  8
0
 10
4.0582631028999998
 20
18.762086508199008
 30
0.0
 40
0.3824862436990116
 50
191.35462018225081
 51
348.64537981774907
  0
ARC
  5
469
  8
0
 10
4.058263102899998
 20
19.14351483839906
 30
0.0
 40
0.3824862436990568
 50
191.3546201822858
 51
348.6453798177148
  0
LINE
  5
46C
  8
0
 10
4.5141009979138387
 20
26.551779373799999
 30
0.0
 11
4.9584774206000004
 21
26.551779373799999
 31
0.0
  0
ATTDEF
  5
515
  8
DEFPOINTS
 10
4.0669708300820266
 20
26.901813966199949
 30
0.0
 40
0.001
  1
BRASS
  3

  2
MATERIAL
 70
     0
1001
ACDBATTR
1070
     0
1070
     1
  0
ATTDEF
  5
516
  8
DEFPOINTS
 10
4.0669708300820266
 20
26.903480632866611
 30
0.0
 40
0.001
  1
FAUCET TRIM
  3

  2
PRODUCT
 70
     0
1001
ACDBATTR
1070
     0
1070
     1
  0
ATTDEF
  5
517
  8
DEFPOINTS
 10
4.0669708300820266
 20
26.905147299533279
 30
0.0
 40
0.001
  1
PURIST
  3

  2
TRADENAME
 70
     0
1001
ACDBATTR
1070
     0
1070
     1
  0
ATTDEF
  5
518
  8
DEFPOINTS
 10
4.0669708300820266
 20
26.906813966199952
 30
0.0
 40
0.001
  1
K-T11837
  3

  2
MODELNUMBER
 70
     0
1001
ACDBATTR
1070
     0
1070
     1
  0
ENDSEC
  0
EOF
