  0
SECTION
  2
HEADER
  9
$ACADVER
  1
AC1009
  9
$INSBASE
 10
29.97320708140068
 20
-0.0968409885335389
 30
0.0
  9
$EXTMIN
 10
22.159540682290899
 20
-0.1073164495114023
 30
0.0
  9
$EXTMAX
 10
31.422532796500001
 20
6.6696232277497174
 30
0.0
  9
$LIMMIN
 10
0.0
 20
0.0
  9
$LIMMAX
 10
11.692913385800001
 20
8.2677165353999982
  9
$ORTHOMODE
 70
     0
  9
$REGENMODE
 70
     1
  9
$FILLMODE
 70
     1
  9
$QTEXTMODE
 70
     0
  9
$MIRRTEXT
 70
     0
  9
$DRAGMODE
 70
     2
  9
$LTSCALE
 40
0.6431102362
  9
$OSMODE
 70
  3071
  9
$ATTMODE
 70
     1
  9
$TEXTSIZE
 40
0.2
  9
$TRACEWID
 40
0.05
  9
$TEXTSTYLE
  7
STANDARD
  9
$CLAYER
  8
0
  9
$CELTYPE
  6
BYLAYER
  9
$CECOLOR
 62
   256
  9
$DIMSCALE
 40
1.0
  9
$DIMASZ
 40
0.1875
  9
$DIMEXO
 40
0.0625
  9
$DIMDLI
 40
0.4443307087
  9
$DIMRND
 40
0.0
  9
$DIMDLE
 40
0.0
  9
$DIMEXE
 40
0.125
  9
$DIMTP
 40
0.01
  9
$DIMTM
 40
0.01
  9
$DIMTXT
 40
1.0
  9
$DIMCEN
 40
0.1052362205
  9
$DIMTSZ
 40
0.0
  9
$DIMTOL
 70
     1
  9
$DIMLIM
 70
     0
  9
$DIMTIH
 70
     1
  9
$DIMTOH
 70
     1
  9
$DIMSE1
 70
     0
  9
$DIMSE2
 70
     0
  9
$DIMTAD
 70
     0
  9
$DIMZIN
 70
     0
  9
$DIMBLK
  1

  9
$DIMASO
 70
     1
  9
$DIMSHO
 70
     1
  9
$DIMPOST
  1
\X
  9
$DIMAPOST
  1

  9
$DIMALT
 70
     1
  9
$DIMALTD
 70
     2
  9
$DIMALTF
 40
25.399999999999999
  9
$DIMLFAC
 40
1.0
  9
$DIMTOFL
 70
     0
  9
$DIMTVP
 40
0.0
  9
$DIMTIX
 70
     0
  9
$DIMSOXD
 70
     0
  9
$DIMSAH
 70
     0
  9
$DIMBLK1
  1

  9
$DIMBLK2
  1

  9
$DIMSTYLE
  2
STANDARD
  9
$DIMCLRD
 70
     0
  9
$DIMCLRE
 70
     0
  9
$DIMCLRT
 70
     0
  9
$DIMTFAC
 40
1.0
  9
$DIMGAP
 40
0.09
  9
$LUNITS
 70
     2
  9
$LUPREC
 70
     4
  9
$SKETCHINC
 40
0.1
  9
$FILLETRAD
 40
0.0
  9
$AUNITS
 70
     0
  9
$AUPREC
 70
     0
  9
$MENU
  1
.
  9
$ELEVATION
 40
0.0
  9
$PELEVATION
 40
0.0
  9
$THICKNESS
 40
0.0
  9
$LIMCHECK
 70
     0
  9
$BLIPMODE
 70
     0
  9
$CHAMFERA
 40
0.0
  9
$CHAMFERB
 40
0.0
  9
$SKPOLY
 70
     0
  9
$TDCREATE
 40
2457893.5860250811
  9
$TDUPDATE
 40
2457906.4224064238
  9
$TDINDWG
 40
0.6963546065
  9
$TDUSRTIMER
 40
0.6963546065
  9
$USRTIMER
 70
     1
  9
$ANGBASE
 50
0.0
  9
$ANGDIR
 70
     0
  9
$PDMODE
 70
     0
  9
$PDSIZE
 40
0.3125
  9
$PLINEWID
 40
0.0
  9
$COORDS
 70
     1
  9
$SPLFRAME
 70
     0
  9
$SPLINETYPE
 70
     6
  9
$SPLINESEGS
 70
     8
  9
$ATTDIA
 70
     1
  9
$ATTREQ
 70
     1
  9
$HANDLING
 70
     1
  9
$HANDSEED
  5
1546
  9
$SURFTAB1
 70
     6
  9
$SURFTAB2
 70
     6
  9
$SURFTYPE
 70
     6
  9
$SURFU
 70
     6
  9
$SURFV
 70
     6
  9
$UCSNAME
  2

  9
$UCSORG
 10
0.0
 20
0.0
 30
0.0
  9
$UCSXDIR
 10
1.0
 20
0.0
 30
0.0
  9
$UCSYDIR
 10
0.0
 20
1.0
 30
0.0
  9
$PUCSNAME
  2

  9
$PUCSORG
 10
0.0
 20
0.0
 30
0.0
  9
$PUCSXDIR
 10
1.0
 20
0.0
 30
0.0
  9
$PUCSYDIR
 10
0.0
 20
1.0
 30
0.0
  9
$USERI1
 70
     0
  9
$USERI2
 70
     0
  9
$USERI3
 70
     0
  9
$USERI4
 70
     0
  9
$USERI5
 70
     0
  9
$USERR1
 40
0.0
  9
$USERR2
 40
0.0
  9
$USERR3
 40
0.0
  9
$USERR4
 40
0.0
  9
$USERR5
 40
0.0
  9
$WORLDVIEW
 70
     1
  9
$SHADEDGE
 70
     3
  9
$SHADEDIF
 70
    70
  9
$TILEMODE
 70
     1
  9
$MAXACTVP
 70
    48
  9
$PLIMCHECK
 70
     0
  9
$PEXTMIN
 10
1.0000000000000000E+020
 20
1.0000000000000000E+020
 30
1.0000000000000000E+020
  9
$PEXTMAX
 10
-1.0000000000000000E+020
 20
-1.0000000000000000E+020
 30
-1.0000000000000000E+020
  9
$PLIMMIN
 10
0.0
 20
0.0
  9
$PLIMMAX
 10
12.0
 20
9.0
  9
$UNITMODE
 70
     0
  9
$VISRETAIN
 70
     1
  9
$PLINEGEN
 70
     0
  9
$PSLTSCALE
 70
     1
  0
ENDSEC
  0
SECTION
  2
TABLES
  0
TABLE
  2
VPORT
 70
     1
  0
VPORT
  2
*ACTIVE
 70
     0
 10
0.0
 20
0.0
 11
1.0
 21
1.0
 12
0.0
 22
0.0
 13
0.0
 23
0.0
 14
1.0
 24
1.0
 15
0.0
 25
0.0
 16
-0.0000000000000071
 26
0.0
 36
28.695430505047248
 17
26.791286352944589
 27
3.2811533891191571
 37
0.0
 40
11.477769087227401
 41
1.798307475317348
 42
50.0
 43
0.0
 44
0.0
 50
0.0
 51
0.0
 71
     0
 72
   100
 73
     1
 74
     1
 75
     0
 76
     0
 77
     0
 78
     0
  0
ENDTAB
  0
TABLE
  2
LTYPE
 70
     8
  0
LTYPE
  2
CONTINUOUS
 70
     0
  3
Solid line
 72
    65
 73
     0
 40
0.0
  0
LTYPE
  2
PHANTOM2
 70
     0
  3
___ _ _ ___ _ _ ___ _ _ ___ _ _
 72
    65
 73
     6
 40
1.25
 49
0.625
 49
-0.125
 49
0.125
 49
-0.125
 49
0.125
 49
-0.125
  0
ENDTAB
  0
TABLE
  2
LAYER
 70
    17
  0
LAYER
  2
0
 70
     0
 62
     7
  6
CONTINUOUS
  0
LAYER
  2
DEFPOINTS
 70
     0
 62
     7
  6
CONTINUOUS
  0
ENDTAB
  0
TABLE
  2
STYLE
 70
     2
  0
STYLE
  2
STANDARD
 70
     0
 40
0.0
 41
0.8
 50
0.0
 71
     0
 42
0.2
  3
txt
  4

  0
ENDTAB
  0
TABLE
  2
VIEW
 70
     0
  0
ENDTAB
  0
TABLE
  2
UCS
 70
     0
  0
ENDTAB
  0
TABLE
  2
APPID
 70
     7
  0
APPID
  2
ACAD
 70
     0
  0
APPID
  2
ACAD_MLEADERVER
 70
     0
  0
APPID
  2
ACAD_NAV_VCDISPLAY
 70
     0
  0
APPID
  2
ACAD_EXEMPT_FROM_CAD_STANDARDS
 70
     0
  0
APPID
  2
ACAD_DSTYLE_DIMJAG
 70
     0
  0
APPID
  2
ACAD_DSTYLE_DIMTALN
 70
     0
  0
APPID
  2
AcDbAttr
 70
     0
  0
ENDTAB
  0
TABLE
  2
DIMSTYLE
 70
     2
  0
DIMSTYLE
  2
STANDARD
 70
     0
  3

  4

  5

  6

  7

 40
1.0
 41
0.1875
 42
0.0625
 43
0.38
 44
0.125
 45
0.0
 46
0.0
 47
0.01
 48
0.01
140
0.15625
141
0.09
142
0.0
143
25.399999999999999
144
1.0
145
0.0
146
1.0
147
0.09
 71
     1
 72
     0
 73
     1
 74
     1
 75
     0
 76
     0
 77
     0
 78
     4
170
     0
171
     2
172
     0
173
     0
174
     0
175
     0
176
     0
177
     0
178
     0
  0
ENDTAB
  0
ENDSEC
  0
SECTION
  2
BLOCKS
  0
BLOCK
  8
0
  2
$MODEL_SPACE
 70
     0
 10
0.0
 20
0.0
 30
0.0
  3
$MODEL_SPACE
  1

  0
ENDBLK
  5
21
  8
0
  0
BLOCK
 67
     1
  8
0
  2
$PAPER_SPACE
 70
     0
 10
0.0
 20
0.0
 30
0.0
  3
$PAPER_SPACE
  1

  0
ENDBLK
  5
1D
 67
     1
  8
0
  0
ENDSEC
  0
SECTION
  2
ENTITIES
  0
ARC
  5
1183
  8
0
 10
29.977291848857419
 20
5.7685241251799662
 30
0.0
 40
1.273384183215023
 50
269.84247793127207
 51
279.20119604183782
  0
ARC
  5
1184
  8
0
 10
30.063853982157202
 20
5.234144054092984
 30
0.0
 40
0.7320385789137271
 50
279.20119604183787
 51
286.0321887421639
  0
ARC
  5
1185
  8
0
 10
30.308664364219059
 20
4.3821954875568681
 30
0.0
 40
0.154385971281165
 50
74.792114361200944
 51
106.0321887421628
  0
ARC
  5
1187
  8
0
 10
30.305903797958781
 20
4.3505139104439898
 30
0.0
 40
0.1857680748190029
 50
58.978716607457642
 51
76.534030227337126
  0
ARC
  5
1188
  8
0
 10
30.353573050053679
 20
4.4239850386234094
 30
0.0
 40
0.0982838485223655
 50
32.456652203936777
 51
60.720632473586981
  0
ARC
  5
1189
  8
0
 10
30.4081708938322
 20
4.4567967043995314
 30
0.0
 40
0.0346431842713514
 50
359.44371493310172
 51
35.127227571141539
  0
ARC
  5
118A
  8
0
 10
29.956431885068469
 20
4.4924443001279304
 30
0.0
 40
0.4877098455071798
 50
336.39463867455902
 51
355.76878925667432
  0
ARC
  5
118B
  8
0
 10
29.697184853095109
 20
4.5578733737876274
 30
0.0
 40
0.7527432434819815
 50
324.69663018018792
 51
339.73476448582909
  0
ARC
  5
118C
  8
0
 10
29.995636191560649
 20
4.3644690392221621
 30
0.0
 40
0.3976761006721082
 50
300.91284926158681
 51
322.58705622314631
  0
ARC
  5
118D
  8
0
 10
29.987872982353259
 20
4.3902267847274121
 30
0.0
 40
0.4238141342449195
 50
268.09589010736761
 51
300.02431552706548
  0
ARC
  5
118E
  8
0
 10
30.287710812080789
 20
4.3921026088005783
 30
0.0
 40
0.1416904076744088
 50
65.372442048746606
 51
94.068072011545965
  0
ARC
  5
1190
  8
0
 10
30.340440021001971
 20
4.5001174852607777
 30
0.0
 40
0.0217250684135661
 50
39.900329368711368
 51
73.099397312019505
  0
ARC
  5
1191
  8
0
 10
30.345914825055011
 20
4.5084175139534439
 30
0.0
 40
0.0125306473033164
 50
312.96163342074931
 51
26.72736695724052
  0
ARC
  5
1192
  8
0
 10
30.22983265496077
 20
4.6598139633794187
 30
0.0
 40
0.2032540864178231
 50
285.25523153273951
 51
307.81643014331661
  0
ARC
  5
1193
  8
0
 10
29.993865664214361
 20
5.4852248128455363
 30
0.0
 40
1.0617192877456809
 50
268.91660092759042
 51
285.82029643047571
  0
ARC
  5
1194
  8
0
 10
31.342574652708858
 20
3.9408616063769339
 30
0.0
 40
1.141500838322379
 50
175.72762573452229
 51
194.9967340569863
  0
ARC
  5
1195
  8
0
 10
31.917073628594778
 20
4.1438927609175158
 30
0.0
 40
1.7496135818818539
 50
196.5510110555737
 51
205.62657289156721
  0
ARC
  5
1196
  8
0
 10
209.02108775790819
 20
86.839117466409505
 30
0.0
 40
197.20880414908169
 50
205.03459339233399
 51
205.06384667441651
  0
ARC
  5
1197
  8
0
 10
28.504229732748609
 20
2.3204516774011679
 30
0.0
 40
2.1162177920094258
 50
12.773762402887479
 51
27.44958098597975
  0
ARC
  5
1198
  8
0
 10
30.55091548380522
 20
2.7856441534921612
 30
0.0
 40
0.0173694372555488
 50
270.936199575221
 51
8.9671587708846197
  0
LINE
  5
1199
  8
0
 10
30.551199283700001
 20
2.7682770349000001
 30
0.0
 11
29.39625337460927
 21
2.768275569313134
 31
0.0
  0
LINE
  5
11C1
  8
0
 10
30.548790976199999
 20
2.7682728772999998
 30
0.0
 11
30.548791739999999
 21
2.7482728772999998
 31
0.0
  0
LINE
  5
11C2
  8
0
 10
30.548791739999999
 20
2.7482728772999998
 30
0.0
 11
29.398792503799999
 21
2.7482728772999998
 31
0.0
  0
LINE
  5
11C3
  8
0
 10
29.398792503799999
 20
2.7482728772999998
 30
0.0
 11
29.39879174
 21
2.7682728772999998
 31
0.0
  0
ARC
  5
11C4
  8
0
 10
30.52079174
 20
2.7282728772999989
 30
0.0
 40
0.0200000000000008
 50
14.48443863560051
 51
82.499999999994188
  0
ARC
  5
11C5
  8
0
 10
29.426791739999999
 20
2.728272877300002
 30
0.0
 40
0.0199999999999982
 50
97.50000000000685
 51
165.51556136440681
  0
LINE
  5
11C6
  8
0
 10
29.3893539876
 20
2.7332728773000001
 30
0.0
 11
30.5582332882
 21
2.7332728773000001
 31
0.0
  0
ARC
  5
11C7
  8
0
 10
30.5582332882
 20
2.716532877199942
 30
0.0
 40
0.0167400001000577
 50
27.203911332084811
 51
89.999999999999389
  0
ARC
  5
11C8
  8
0
 10
30.721648926409149
 20
2.8005312100887978
 30
0.0
 40
0.1670000084430183
 50
207.2039113320848
 51
246.25214442079721
  0
ARC
  5
11C9
  8
0
 10
30.648060970449119
 20
2.6332728772126761
 30
0.0
 40
0.0157307694212325
 50
320.28957225192829
 51
66.252144420794494
  0
ARC
  5
11CA
  8
0
 10
30.864791753693979
 20
2.4532728719052042
 30
0.0
 40
0.2660000139813285
 50
140.28957225192809
 51
176.60574080822539
  0
ARC
  5
11CB
  8
0
 10
30.58254275744212
 20
2.4700131722083021
 30
0.0
 40
0.0167449833916064
 50
271.35588104785552
 51
356.60574080823068
  0
ARC
  5
11CC
  8
0
 10
30.58293898365357
 20
2.4362728774123279
 30
0.0
 40
0.0169999998876711
 50
3.9999996355187051
 51
90.000000180547616
  0
ARC
  5
11CD
  8
0
 10
34.216048844467743
 20
2.5014070508041391
 30
0.0
 40
3.6167166617518411
 50
181.0131175378493
 51
216.6346930261937
  0
LINE
  5
11CE
  8
0
 10
31.313791739980449
 20
0.3432728773
 30
0.0
 11
31.313791739999999
 21
0.3332728773
 31
0.0
  0
LINE
  5
11CF
  8
0
 10
31.313791739999999
 20
0.3332728773
 30
0.0
 11
28.6337924812
 21
0.3332728773
 31
0.0
  0
ARC
  5
11D0
  8
0
 10
31.298765414519369
 20
0.3182774388261869
 30
0.0
 40
0.0150236797329215
 50
322.60442350183922
 51
86.486341456794733
  0
ARC
  5
11D1
  8
0
 10
31.844424804466058
 20
-0.0988439171769555
 30
0.0
 40
0.671805553389034
 50
142.60442350183919
 51
176.61441755396439
  0
ARC
  5
11D2
  8
0
 10
31.133826684779869
 20
-0.0568060488603748
 30
0.0
 40
0.0400349273888976
 50
269.93851215293438
 51
356.61441755396379
  0
LINE
  5
11D3
  8
0
 10
31.3218598784314
 20
-0.0968409542144842
 30
0.0
 11
28.551563190627871
 21
-0.0968410247099919
 31
0.0
  0
ARC
  5
11D4
  8
0
 10
29.389274294789988
 20
2.716532877199942
 30
0.0
 40
0.0167400001000577
 50
90.000000000000625
 51
152.79608866791509
  0
ARC
  5
11D5
  8
0
 10
29.225858656580851
 20
2.8005312100887978
 30
0.0
 40
0.1670000084430183
 50
293.74785557920279
 51
332.79608866791511
  0
ARC
  5
11D6
  8
0
 10
29.29944661254088
 20
2.6332728772126761
 30
0.0
 40
0.0157307694212325
 50
113.74785557920551
 51
219.71042774807179
  0
ARC
  5
11D7
  8
0
 10
29.082715829296021
 20
2.4532728719052042
 30
0.0
 40
0.2660000139813285
 50
3.3942591917746352
 51
39.710427748071773
  0
ARC
  5
11D8
  8
0
 10
29.364964825547879
 20
2.4700131722083021
 30
0.0
 40
0.0167449833916064
 50
183.39425919176941
 51
268.64411895214448
  0
ARC
  5
11D9
  8
0
 10
29.36456859933643
 20
2.4362728774123279
 30
0.0
 40
0.0169999998876711
 50
89.999999819452171
 51
176.00000036448131
  0
ARC
  5
11DA
  8
0
 10
25.73145873852225
 20
2.5014070508041391
 30
0.0
 40
3.6167166617518411
 50
323.3653069738063
 51
358.98688246215067
  0
LINE
  5
11DB
  8
0
 10
28.633715843009551
 20
0.3432728773
 30
0.0
 11
28.63371584299
 21
0.3332728773
 31
0.0
  0
ARC
  5
11DC
  8
0
 10
28.64874216847063
 20
0.3182774388261869
 30
0.0
 40
0.0150236797329215
 50
93.513658543205267
 51
217.39557649816081
  0
ARC
  5
11DD
  8
0
 10
28.103082778523941
 20
-0.0988439171769555
 30
0.0
 40
0.671805553389034
 50
3.385582446035531
 51
37.395576498160779
  0
ARC
  5
11DE
  8
0
 10
28.81368089821013
 20
-0.0568060488603748
 30
0.0
 40
0.0400349273888976
 50
183.3855824460361
 51
270.06148784706568
  0
LINE
  5
11DF
  8
0
 10
29.287345194488129
 20
2.6232223653999989
 30
0.0
 11
30.66016238850187
 21
2.6232223653999989
 31
0.0
  0
LINE
  5
11E0
  8
0
 10
30.582938983599998
 20
2.4532728772999981
 30
0.0
 11
29.364568599418149
 21
2.453272877299999
 31
0.0
  0
ARC
  5
11E1
  8
0
 10
29.97029008154259
 20
5.7685241251799662
 30
0.0
 40
1.273384183215023
 50
260.79880395816218
 51
270.15752206872793
  0
ARC
  5
11E2
  8
0
 10
29.883727948242811
 20
5.234144054092984
 30
0.0
 40
0.7320385789137271
 50
253.96781125783599
 51
260.79880395816218
  0
ARC
  5
11E3
  8
0
 10
29.63891756618095
 20
4.3821954875568681
 30
0.0
 40
0.154385971281165
 50
73.967811257837212
 51
105.2078856387991
  0
ARC
  5
11E4
  8
0
 10
29.641678132441221
 20
4.3505139104439898
 30
0.0
 40
0.1857680748190029
 50
103.4659697726628
 51
121.0212833925425
  0
ARC
  5
11E5
  8
0
 10
29.59400888034633
 20
4.4239850386234094
 30
0.0
 40
0.0982838485223655
 50
119.2793675264131
 51
147.5433477960633
  0
ARC
  5
11E6
  8
0
 10
29.53941103656781
 20
4.4567967043995314
 30
0.0
 40
0.0346431842713514
 50
144.87277242885841
 51
180.55628506689831
  0
ARC
  5
11E7
  8
0
 10
29.99115004533154
 20
4.4924443001279304
 30
0.0
 40
0.4877098455071798
 50
184.2312107433257
 51
203.60536132544101
  0
ARC
  5
11E8
  8
0
 10
30.2503970773049
 20
4.5578733737876274
 30
0.0
 40
0.7527432434819815
 50
200.26523551417091
 51
215.30336981981219
  0
ARC
  5
11E9
  8
0
 10
29.95194573883936
 20
4.3644690392221621
 30
0.0
 40
0.3976761006721082
 50
217.41294377685381
 51
239.08715073841319
  0
ARC
  5
11EA
  8
0
 10
29.95970894804675
 20
4.3902267847274121
 30
0.0
 40
0.4238141342449195
 50
239.9756844729346
 51
271.90410989263222
  0
ARC
  5
11EB
  8
0
 10
29.65987111831922
 20
4.3921026088005783
 30
0.0
 40
0.1416904076744088
 50
85.931927988454206
 51
114.62755795125339
  0
ARC
  5
11EC
  8
0
 10
29.607141909398042
 20
4.5001174852607777
 30
0.0
 40
0.0217250684135661
 50
106.9006026879803
 51
140.0996706312888
  0
ARC
  5
11ED
  8
0
 10
29.601667105345001
 20
4.5084175139534439
 30
0.0
 40
0.0125306473033164
 50
153.2726330427594
 51
227.03836657925089
  0
ARC
  5
11EE
  8
0
 10
29.717749275439239
 20
4.6598139633794187
 30
0.0
 40
0.2032540864178231
 50
232.18356985668339
 51
254.7447684672606
  0
ARC
  5
11EF
  8
0
 10
29.953716266185651
 20
5.4852248128455363
 30
0.0
 40
1.0617192877456809
 50
254.17970356952441
 51
271.08339907240969
  0
ARC
  5
11F0
  8
0
 10
28.605007277691151
 20
3.9408616063769339
 30
0.0
 40
1.141500838322379
 50
345.00326594301362
 51
4.2723742654777199
  0
ARC
  5
11F1
  8
0
 10
28.030508301805231
 20
4.1438927609175158
 30
0.0
 40
1.7496135818818539
 50
334.37342710843291
 51
343.44898894442628
  0
ARC
  5
11F2
  8
0
 10
-149.07350582750809
 20
86.839117466409505
 30
0.0
 40
197.20880414908169
 50
334.93615332558358
 51
334.96540660766613
  0
ARC
  5
11F3
  8
0
 10
31.4433521976514
 20
2.3204516774011679
 30
0.0
 40
2.1162177920094258
 50
152.55041901402029
 51
167.22623759711249
  0
ARC
  5
11F4
  8
0
 10
29.396666446594779
 20
2.7856441534921612
 30
0.0
 40
0.0173694372555488
 50
171.03284122911529
 51
269.06380042477912
  0
LINE
  5
1236
  8
0
 10
23.3313008929
 20
4.3119807635000003
 30
0.0
 11
23.28701422913921
 21
4.207139546983437
 31
0.0
  0
LINE
  5
1237
  8
0
 10
23.28701422913921
 20
4.207139546983437
 30
0.0
 11
23.249078892892861
 21
4.223164060383084
 31
0.0
  0
LINE
  5
1238
  8
0
 10
23.249078892892861
 20
4.223164060383084
 30
0.0
 11
23.18487344113802
 21
4.071168468526178
 31
0.0
  0
LINE
  5
1239
  8
0
 10
23.18487344113802
 20
4.071168468526178
 30
0.0
 11
22.245264327499999
 21
4.4680748977000002
 31
0.0
  0
LINE
  5
123A
  8
0
 10
22.245264327499999
 20
4.4680748977000002
 30
0.0
 11
22.309469779299999
 21
4.6200704895999989
 31
0.0
  0
LINE
  5
123B
  8
0
 10
22.309469779299999
 20
4.6200704895999989
 30
0.0
 11
22.271534443098499
 21
4.6360950029964521
 31
0.0
  0
LINE
  5
123C
  8
0
 10
22.271534443098499
 20
4.6360950029964521
 30
0.0
 11
22.315821106784352
 21
4.7409362193624522
 31
0.0
  0
LINE
  5
123D
  8
0
 10
22.241218888399999
 20
4.7724494302
 30
0.0
 11
23.410640840999999
 21
4.278466257199999
 31
0.0
  0
ARC
  5
123E
  8
0
 10
23.43595926755318
 20
4.3384033672775999
 30
0.0
 40
0.0650651972069819
 50
247.10000000061979
 51
318.10718729810861
  0
ARC
  5
123F
  8
0
 10
26.688988394749511
 20
1.42036376304905
 30
0.0
 40
4.3049638226319038
 50
121.8026854957384
 51
138.1071872981085
  0
ARC
  5
1240
  8
0
 10
25.72069942104245
 20
2.9818905767230102
 30
0.0
 40
2.467588105358645
 50
96.292771281646097
 51
121.8026854957384
  0
ARC
  5
1241
  8
0
 10
25.666841580060829
 20
3.4702937335913511
 30
0.0
 40
1.9762243799228301
 50
48.454456028313587
 51
96.292771281645997
  0
ARC
  5
1242
  8
0
 10
24.149322257501741
 20
2.1566791798099132
 30
0.0
 40
3.9746268478240419
 50
17.60673048480875
 51
44.638101841869329
  0
ARC
  5
1243
  8
0
 10
18.106186042690499
 20
-0.1333782018068807
 30
0.0
 40
10.4334098454902
 50
5.8623756842962393
 51
19.555739221085421
  0
ARC
  5
1244
  8
0
 10
13.495435908461801
 20
-0.553507944082131
 30
0.0
 40
15.06305126500053
 50
1.7373038485435739
 51
5.6607532388547943
  0
ARC
  5
1245
  8
0
 10
22.266512653253098
 20
4.8323269574566341
 30
0.0
 40
0.0650007139254103
 50
194.28734704398269
 51
247.09958826492129
  0
ARC
  5
1246
  8
0
 10
23.602126064288498
 20
5.1724564497960177
 30
0.0
 40
1.4432428027097539
 50
181.7294424245606
 51
194.28734704398281
  0
ARC
  5
1247
  8
0
 10
22.219594787423208
 20
5.1307128051633386
 30
0.0
 40
0.0600814732264663
 50
143.3638344080529
 51
181.72944242456069
  0
ARC
  5
1248
  8
0
 10
25.01135303229546
 20
3.1111797700291608
 30
0.0
 40
3.5057153034900761
 50
116.34098120125191
 51
144.10542723665489
  0
ARC
  5
1249
  8
0
 10
25.278825875364021
 20
2.4978221480642482
 30
0.0
 40
4.1741947186329416
 50
93.301905569969776
 51
115.8955156679697
  0
ARC
  5
124A
  8
0
 10
25.335805629345948
 20
2.3340000518071569
 30
0.0
 40
4.3412860448185464
 50
59.653369426014329
 51
93.928150436764398
  0
ARC
  5
124B
  8
0
 10
24.853165018125068
 20
1.816768136734902
 30
0.0
 40
5.0338865895380378
 50
27.02696497093314
 51
57.886711102837758
  0
ARC
  5
124C
  8
0
 10
21.751686499410109
 20
-0.0119606815439203
 30
0.0
 40
8.6304497091275163
 50
23.82307785491022
 51
28.485507739050881
  0
ARC
  5
124D
  8
0
 10
33.956943313015657
 20
3.8707775989328259
 30
0.0
 40
4.0926691891915192
 50
220.18119926740201
 51
231.3484230451572
  0
ARC
  5
124E
  8
0
 10
31.362422045621681
 20
0.627553297867557
 30
0.0
 40
0.0606505649432129
 50
352.3499381583901
 51
50.827654221235797
  0
ARC
  5
124F
  8
0
 10
30.290993808233019
 20
0.7556862618711843
 30
0.0
 40
1.139707333130368
 50
343.84826855562181
 51
353.13615105375521
  0
ARC
  5
1250
  8
0
 10
32.795086240527212
 20
0.1422349886610892
 30
0.0
 40
1.4402024866229499
 50
168.12319729813149
 51
179.70941935043979
  0
ARC
  5
1251
  8
0
 10
21.152969881343012
 20
1.392329924063656
 30
0.0
 40
10.277351491390959
 50
351.66860931818201
 51
353.05449812941748
  0
ATTDEF
  5
142C
  8
DEFPOINTS
 10
29.979145566682149
 20
-0.1023164495114068
 30
0.0
 40
0.001
  1
K-T10278-4
  3

  2
MODELNUMBER
 70
     0
1001
AcDbAttr
1070
     0
1070
     1
  0
ATTDEF
  5
142D
  8
DEFPOINTS
 10
29.979145566682149
 20
-0.103983116178072
 30
0.0
 40
0.001
  1
FORTE
  3

  2
TRADENAME
 70
     0
1001
AcDbAttr
1070
     0
1070
     1
  0
ATTDEF
  5
142E
  8
DEFPOINTS
 10
29.979145566682149
 20
-0.1056497828447371
 30
0.0
 40
0.001
  1
BATH FAUCET
  3

  2
PRODUCT
 70
     0
1001
AcDbAttr
1070
     0
1070
     1
  0
ATTDEF
  5
142F
  8
DEFPOINTS
 10
29.979145566682149
 20
-0.1073164495114023
 30
0.0
 40
0.001
  1
BRASS
  3

  2
MATERIAL
 70
     0
1001
AcDbAttr
1070
     0
1070
     1
  0
ENDSEC
  0
EOF
