  0
SECTION
  2
HEADER
  9
$ACADVER
  1
AC1009
  9
$INSBASE
 10
71.92449646614827
 20
8.1882066525000035
 30
0.0
  9
$EXTMIN
 10
66.301127198858026
 20
8.1882066524999981
 30
0.0
  9
$EXTMAX
 10
72.993236857848274
 20
13.33837568191063
 30
0.0
  9
$LIMMIN
 10
0.0
 20
0.0
  9
$LIMMAX
 10
11.692913385800001
 20
8.2677165353999982
  9
$ORTHOMODE
 70
     1
  9
$REGENMODE
 70
     1
  9
$FILLMODE
 70
     1
  9
$QTEXTMODE
 70
     0
  9
$MIRRTEXT
 70
     0
  9
$DRAGMODE
 70
     2
  9
$LTSCALE
 40
0.6431102362
  9
$OSMODE
 70
  3071
  9
$ATTMODE
 70
     1
  9
$TEXTSIZE
 40
0.2
  9
$TRACEWID
 40
0.05
  9
$TEXTSTYLE
  7
STANDARD
  9
$CLAYER
  8
0
  9
$CELTYPE
  6
BYLAYER
  9
$CECOLOR
 62
   256
  9
$DIMSCALE
 40
1.0
  9
$DIMASZ
 40
0.1875
  9
$DIMEXO
 40
0.0625
  9
$DIMDLI
 40
0.4443307087
  9
$DIMRND
 40
0.0
  9
$DIMDLE
 40
0.0
  9
$DIMEXE
 40
0.125
  9
$DIMTP
 40
0.01
  9
$DIMTM
 40
0.01
  9
$DIMTXT
 40
1.0
  9
$DIMCEN
 40
0.1052362205
  9
$DIMTSZ
 40
0.0
  9
$DIMTOL
 70
     1
  9
$DIMLIM
 70
     0
  9
$DIMTIH
 70
     1
  9
$DIMTOH
 70
     1
  9
$DIMSE1
 70
     0
  9
$DIMSE2
 70
     0
  9
$DIMTAD
 70
     0
  9
$DIMZIN
 70
     0
  9
$DIMBLK
  1

  9
$DIMASO
 70
     1
  9
$DIMSHO
 70
     1
  9
$DIMPOST
  1
\X
  9
$DIMAPOST
  1

  9
$DIMALT
 70
     1
  9
$DIMALTD
 70
     2
  9
$DIMALTF
 40
25.399999999999999
  9
$DIMLFAC
 40
1.0
  9
$DIMTOFL
 70
     0
  9
$DIMTVP
 40
0.0
  9
$DIMTIX
 70
     0
  9
$DIMSOXD
 70
     0
  9
$DIMSAH
 70
     0
  9
$DIMBLK1
  1

  9
$DIMBLK2
  1

  9
$DIMSTYLE
  2
STANDARD
  9
$DIMCLRD
 70
     0
  9
$DIMCLRE
 70
     0
  9
$DIMCLRT
 70
     0
  9
$DIMTFAC
 40
1.0
  9
$DIMGAP
 40
0.09
  9
$LUNITS
 70
     2
  9
$LUPREC
 70
     4
  9
$SKETCHINC
 40
0.1
  9
$FILLETRAD
 40
0.0
  9
$AUNITS
 70
     0
  9
$AUPREC
 70
     0
  9
$MENU
  1
.
  9
$ELEVATION
 40
0.0
  9
$PELEVATION
 40
0.0
  9
$THICKNESS
 40
0.0
  9
$LIMCHECK
 70
     0
  9
$BLIPMODE
 70
     0
  9
$CHAMFERA
 40
0.0
  9
$CHAMFERB
 40
0.0
  9
$SKPOLY
 70
     0
  9
$TDCREATE
 40
2458284.5242901971
  9
$TDUPDATE
 40
2458284.8198191551
  9
$TDINDWG
 40
0.2118791551
  9
$TDUSRTIMER
 40
0.2118791551
  9
$USRTIMER
 70
     1
  9
$ANGBASE
 50
0.0
  9
$ANGDIR
 70
     0
  9
$PDMODE
 70
     0
  9
$PDSIZE
 40
0.3125
  9
$PLINEWID
 40
0.0
  9
$COORDS
 70
     1
  9
$SPLFRAME
 70
     0
  9
$SPLINETYPE
 70
     6
  9
$SPLINESEGS
 70
     8
  9
$ATTDIA
 70
     1
  9
$ATTREQ
 70
     1
  9
$HANDLING
 70
     1
  9
$HANDSEED
  5
2219
  9
$SURFTAB1
 70
     6
  9
$SURFTAB2
 70
     6
  9
$SURFTYPE
 70
     6
  9
$SURFU
 70
     6
  9
$SURFV
 70
     6
  9
$UCSNAME
  2

  9
$UCSORG
 10
0.0
 20
0.0
 30
0.0
  9
$UCSXDIR
 10
1.0
 20
0.0
 30
0.0
  9
$UCSYDIR
 10
0.0
 20
1.0
 30
0.0
  9
$PUCSNAME
  2

  9
$PUCSORG
 10
0.0
 20
0.0
 30
0.0
  9
$PUCSXDIR
 10
1.0
 20
0.0
 30
0.0
  9
$PUCSYDIR
 10
0.0
 20
1.0
 30
0.0
  9
$USERI1
 70
     0
  9
$USERI2
 70
     0
  9
$USERI3
 70
     0
  9
$USERI4
 70
     0
  9
$USERI5
 70
     0
  9
$USERR1
 40
0.0
  9
$USERR2
 40
0.0
  9
$USERR3
 40
0.0
  9
$USERR4
 40
0.0
  9
$USERR5
 40
0.0
  9
$WORLDVIEW
 70
     1
  9
$SHADEDGE
 70
     3
  9
$SHADEDIF
 70
    70
  9
$TILEMODE
 70
     1
  9
$MAXACTVP
 70
    64
  9
$PLIMCHECK
 70
     0
  9
$PEXTMIN
 10
1.0000000000000000E+020
 20
1.0000000000000000E+020
 30
1.0000000000000000E+020
  9
$PEXTMAX
 10
-1.0000000000000000E+020
 20
-1.0000000000000000E+020
 30
-1.0000000000000000E+020
  9
$PLIMMIN
 10
0.0
 20
0.0
  9
$PLIMMAX
 10
12.0
 20
9.0
  9
$UNITMODE
 70
     0
  9
$VISRETAIN
 70
     1
  9
$PLINEGEN
 70
     0
  9
$PSLTSCALE
 70
     1
  0
ENDSEC
  0
SECTION
  2
TABLES
  0
TABLE
  2
VPORT
 70
     1
  0
VPORT
  2
*ACTIVE
 70
     0
 10
0.0
 20
0.0
 11
1.0
 21
1.0
 12
0.0
 22
0.0
 13
0.0
 23
0.0
 14
1.0
 24
1.0
 15
0.0
 25
0.0
 16
0.0
 26
0.0
 36
23.61268489861002
 17
69.647182342963063
 27
10.76329116720531
 37
0.0
 40
8.4486038815749982
 41
2.0834248079034019
 42
50.0
 43
0.0
 44
0.0
 50
0.0
 51
0.0
 71
     0
 72
   100
 73
     1
 74
     1
 75
     0
 76
     0
 77
     0
 78
     0
  0
ENDTAB
  0
TABLE
  2
LTYPE
 70
     2
  0
LTYPE
  2
CONTINUOUS
 70
     0
  3
Solid line
 72
    65
 73
     0
 40
0.0
  0
LTYPE
  2
PHANTOM2
 70
     0
  3
___ _ _ ___ _ _ ___ _ _ ___ _ _
 72
    65
 73
     6
 40
1.25
 49
0.625
 49
-0.125
 49
0.125
 49
-0.125
 49
0.125
 49
-0.125
  0
ENDTAB
  0
TABLE
  2
LAYER
 70
     2
  0
LAYER
  2
0
 70
     0
 62
   255
  6
CONTINUOUS
  0
LAYER
  2
DEFPOINTS
 70
     0
 62
     7
  6
CONTINUOUS
  0
ENDTAB
  0
TABLE
  2
STYLE
 70
     1
  0
STYLE
  2
STANDARD
 70
     0
 40
0.0
 41
0.8
 50
0.0
 71
     0
 42
0.2
  3
txt
  4

  0
ENDTAB
  0
TABLE
  2
VIEW
 70
     0
  0
ENDTAB
  0
TABLE
  2
UCS
 70
     0
  0
ENDTAB
  0
TABLE
  2
APPID
 70
     9
  0
APPID
  2
ACAD
 70
     0
  0
APPID
  2
ACAD_MLEADERVER
 70
     0
  0
APPID
  2
ACAD_EXEMPT_FROM_CAD_STANDARDS
 70
     0
  0
APPID
  2
ACAD_NAV_VCDISPLAY
 70
     0
  0
APPID
  2
ACAD_DSTYLE_DIMJAG
 70
     0
  0
APPID
  2
ACAD_DSTYLE_DIMTALN
 70
     0
  0
APPID
  2
ACAECLAYERSTANDARD
 70
     0
  0
APPID
  2
ACCMTRANSPARENCY
 70
     0
  0
APPID
  2
AcDbAttr
 70
     0
  0
ENDTAB
  0
TABLE
  2
DIMSTYLE
 70
     1
  0
DIMSTYLE
  2
STANDARD
 70
     0
  3

  4

  5

  6

  7

 40
1.0
 41
0.1875
 42
0.0625
 43
0.38
 44
0.125
 45
0.0
 46
0.0
 47
0.01
 48
0.01
140
0.15625
141
0.09
142
0.0
143
25.399999999999999
144
1.0
145
0.0
146
1.0
147
0.09
 71
     1
 72
     0
 73
     1
 74
     1
 75
     0
 76
     0
 77
     0
 78
     4
170
     0
171
     2
172
     0
173
     0
174
     0
175
     0
176
     0
177
     0
178
     0
  0
ENDTAB
  0
ENDSEC
  0
SECTION
  2
BLOCKS
  0
BLOCK
  8
0
  2
$MODEL_SPACE
 70
     0
 10
0.0
 20
0.0
 30
0.0
  3
$MODEL_SPACE
  1

  0
ENDBLK
  5
21
  8
0
  0
BLOCK
 67
     1
  8
0
  2
$PAPER_SPACE
 70
     0
 10
0.0
 20
0.0
 30
0.0
  3
$PAPER_SPACE
  1

  0
ENDBLK
  5
1D
 67
     1
  8
0
  0
ENDSEC
  0
SECTION
  2
ENTITIES
  0
LINE
  5
1E62
  8
0
 10
70.856595551841494
 20
8.3163890945405985
 30
0.0
 11
70.855736857848271
 21
8.2184682690999988
 31
0.0
  0
LINE
  5
1E63
  8
0
 10
71.636996466148275
 20
10.2363218541
 30
0.0
 11
71.636996466148275
 21
10.2463218541
 31
0.0
  0
LINE
  5
1E64
  8
0
 10
71.543897167248275
 20
10.2765836546
 30
0.0
 11
71.549068112138499
 21
10.979284578472029
 31
0.0
  0
LINE
  5
1E65
  8
0
 10
71.52478375234827
 20
11.0375224126
 30
0.0
 11
71.526359704648272
 21
11.2018066454
 31
0.0
  0
LINE
  5
1E66
  8
0
 10
71.897990247748268
 20
13.081294699700001
 30
0.0
 11
71.893842547548275
 21
12.874074505999999
 31
0.0
  0
LINE
  5
1E67
  8
0
 10
72.020312460048274
 20
12.800171777199999
 30
0.0
 11
72.020731741148253
 21
12.775889859299999
 31
0.0
  0
LINE
  5
1E68
  8
0
 10
72.324209179948269
 20
11.0375224126
 30
0.0
 11
72.322633227648254
 21
11.2018066454
 31
0.0
  0
LINE
  5
1E69
  8
0
 10
72.299945490142704
 20
10.978767689321421
 30
0.0
 11
72.305095765048264
 21
10.276583651599999
 31
0.0
  0
LINE
  5
1E6A
  8
0
 10
72.211996466148264
 20
10.2363218541
 30
0.0
 11
72.211996466148264
 21
10.2463218541
 31
0.0
  0
LINE
  5
1E6B
  8
0
 10
72.427267030448263
 20
12.722666180299999
 30
0.0
 11
72.42864246584827
 21
12.8007694203
 31
0.0
  0
LINE
  5
1E6C
  8
0
 10
72.543017618848268
 20
13.0811800626
 30
0.0
 11
72.547235186148271
 21
12.8739611788
 31
0.0
  0
LINE
  5
1E6D
  8
0
 10
72.993236857848274
 20
8.2184682690999988
 30
0.0
 11
72.992397380455046
 21
8.3163890945405985
 31
0.0
  0
LINE
  5
1E6E
  8
0
 10
70.885736479648259
 20
8.1882066525000052
 30
0.0
 11
72.963256452648267
 21
8.1882066524999981
 31
0.0
  0
LINE
  5
1E6F
  8
0
 10
71.573305547248253
 20
10.2363218541
 30
0.0
 11
72.275687383648261
 21
10.2363218541
 31
0.0
  0
LINE
  5
1E70
  8
0
 10
71.573992645290033
 20
10.2463218541
 30
0.0
 11
72.275096893496382
 21
10.2463218541
 31
0.0
  0
LINE
  5
1E71
  8
0
 10
66.322013948948268
 20
12.604353203300001
 30
0.0
 11
67.596226079048265
 21
12.200200795600001
 31
0.0
  0
LINE
  5
1E72
  8
0
 10
70.669924537248278
 20
12.973473153300001
 30
0.0
 11
69.280492593648262
 21
13.1910269811
 31
0.0
  0
ARC
  5
1E7D
  8
0
 10
-49.56613709175172
 20
11.370395780200001
 30
0.0
 40
120.98915878699999
 50
359.61309793179998
 51
359.98172922420002
  0
ARC
  5
1E7E
  8
0
 10
72.04370832346477
 20
12.71678249940201
 30
0.0
 40
0.0300000360392166
 50
81.272628221407274
 51
170.7897789708887
  0
ARC
  5
1E7F
  8
0
 10
71.574060902598035
 20
10.276485671363501
 30
0.0
 40
0.0301638944926815
 50
179.81388226282331
 51
269.87034635042158
  0
ARC
  5
1E80
  8
0
 10
72.275096907748264
 20
10.276321854100001
 30
0.0
 40
0.03
 50
269.99997278090018
 51
0.5000028468000003
  0
ARC
  5
1E81
  8
0
 10
72.39491710225073
 20
12.66285611862882
 30
0.0
 40
0.0300133962360524
 50
0.0211171887195436
 51
81.260785615289237
  0
ARC
  5
1E82
  8
0
 10
72.275687256739573
 20
10.20632189464787
 30
0.0
 40
0.0299999594523953
 50
0.5444261155407084
 51
89.999757621932204
  0
ARC
  5
1E83
  8
0
 10
71.57330568459183
 20
10.206321870501039
 30
0.0
 40
0.0299999835992732
 50
90.000262307018772
 51
179.4559079400309
  0
ARC
  5
1F6E
  8
0
 10
67.605268408415483
 20
12.22900867026995
 30
0.0
 40
0.0301936642921212
 50
252.57376425683
 51
312.36344023463238
  0
ARC
  5
1F6F
  8
0
 10
68.21326129826619
 20
11.55436841537589
 30
0.0
 40
0.8779890344703899
 50
89.654226710411166
 51
132.0138871013466
  0
ARC
  5
1F70
  8
0
 10
68.130460427200404
 20
6.5561332187589763
 30
0.0
 40
5.8768686236605916
 50
79.318824744913627
 51
89.141053991884135
  0
ARC
  5
1F71
  8
0
 10
66.331210045407786
 20
12.632995994160581
 30
0.0
 40
0.0300828465497579
 50
148.52766916785879
 51
252.20017721296281
  0
ARC
  5
1F72
  8
0
 10
67.481236815407513
 20
11.911098135231891
 30
0.0
 40
1.3879094277895749
 50
100.8666594211444
 51
147.89655866355659
  0
ARC
  5
1F73
  8
0
 10
67.862303049210141
 20
10.108725248930289
 30
0.0
 40
3.2299869876900988
 50
90.827120626333141
 51
101.4776383707835
  0
ARC
  5
1F74
  8
0
 10
67.578075334036512
 20
3.6216908185855412
 30
0.0
 40
9.7195894520823725
 50
79.912426093019263
 51
88.599230065571945
  0
ARC
  5
1F75
  8
0
 10
70.201748118108966
 20
8.4992290807325848
 30
0.0
 40
4.4986719351762829
 50
68.064072721747024
 51
84.026416790214512
  0
ARC
  5
1F76
  8
0
 10
3739.1647744417642
 20
23443.857831064601
 30
0.0
 40
23717.186556288441
 50
261.09841064676448
 51
261.10090710801768
  0
ARC
  5
1F77
  8
0
 10
70.011484234040282
 20
9.661395395659067
 30
0.0
 40
2.5203399968765492
 50
64.360315100462472
 51
84.783067894866974
  0
ARC
  5
1F78
  8
0
 10
70.8293242984372
 20
11.40162743859103
 30
0.0
 40
0.5977818940284957
 50
353.29327780400371
 51
62.854719496313962
  0
ARC
  5
1F79
  8
0
 10
65.364603727981063
 20
10.374633576892339
 30
0.0
 40
6.0582974452756568
 50
349.901307851301
 51
1.6908807475876939
  0
ARC
  5
1F7A
  8
0
 10
68.476141149464581
 20
10.10949374866448
 30
0.0
 40
2.9621753221485299
 50
327.6058945512687
 51
344.38875045390591
  0
ARC
  5
1F7B
  8
0
 10
67.588352636399364
 20
10.51637198836594
 30
0.0
 40
3.9320082021946439
 50
326.5567076314432
 51
329.53062521449721
  0
ARC
  5
1F7C
  8
0
 10
70.907467370061084
 20
8.3157065007726718
 30
0.0
 40
0.0508763975063054
 50
138.53117266151199
 51
179.23125619381571
  0
ARC
  5
1F7D
  8
0
 10
70.887238040908727
 20
8.2196959696839844
 30
0.0
 40
0.0315250976672883
 50
182.2318679239394
 51
267.26993117236219
  0
ARC
  5
1F7E
  8
0
 10
72.962057285895725
 20
8.219376387587582
 30
0.0
 40
0.0311927938205357
 50
272.20320531265952
 51
358.33170732343768
  0
ARC
  5
1F7F
  8
0
 10
314.03553568089228
 20
12.043649721801749
 30
0.0
 40
241.61139867120181
 50
179.85315847671799
 51
180.35340115784049
  0
ARC
  5
1F80
  8
0
 10
78.484084520488011
 20
10.37459534945785
 30
0.0
 40
6.05799077891868
 50
178.3086714661051
 51
190.0988414827851
  0
ARC
  5
1F81
  8
0
 10
75.372851782831944
 20
10.10949374866448
 30
0.0
 40
2.9621753221485299
 50
195.61124954609409
 51
212.39410544873141
  0
ARC
  5
1F82
  8
0
 10
76.260640295897161
 20
10.51637198836594
 30
0.0
 40
3.9320082021946439
 50
210.46937478550279
 51
213.44329236855671
  0
ARC
  5
1F83
  8
0
 10
72.941525562235455
 20
8.3157065007726718
 30
0.0
 40
0.0508763975063054
 50
0.7687438061842307
 51
41.46882733848804
  0
ARC
  5
1F84
  8
0
 10
71.939890907229682
 20
12.763799033011731
 30
0.0
 40
0.1081855229600146
 50
237.84590987486081
 51
284.40090931662502
  0
ARC
  5
1F85
  8
0
 10
71.940677587032184
 20
12.727918620982219
 30
0.0
 40
0.0736902255860574
 50
290.75984657010508
 51
355.06878036468117
  0
LINE
  5
1F86
  8
0
 10
72.399477257535423
 20
12.6925210632167
 30
0.0
 11
72.048260319948255
 21
12.746435180400001
 31
0.0
  0
ARC
  5
1F87
  8
0
 10
72.05087317096887
 20
12.776468726450229
 30
0.0
 40
0.0301469878894681
 50
181.10023207436379
 51
265.02791463264782
  0
ARC
  5
1F88
  8
0
 10
72.010280074426646
 20
12.799967258904511
 30
0.0
 40
0.0100344700405199
 50
1.167859046310711
 51
85.239428601206299
  0
ARC
  5
1F89
  8
0
 10
72.464922441375251
 20
17.993640593043519
 30
0.0
 40
5.2035001582456522
 50
264.36951745809841
 51
264.99674304799117
  0
ARC
  5
1F8A
  8
0
 10
71.973143220601656
 20
12.910948445443911
 30
0.0
 40
0.0975220625082285
 50
238.03275736921881
 51
258.91594943039888
  0
ARC
  5
1F8B
  8
0
 10
71.944243470501846
 20
12.873207414673381
 30
0.0
 40
0.050408381068438
 50
179.0143876333949
 51
243.1951982747359
  0
ARC
  5
1F8C
  8
0
 10
71.948761653669294
 20
13.079977335006101
 30
0.0
 40
0.0507884938636189
 50
113.28175512508641
 51
178.5136810026811
  0
ARC
  5
1F8D
  8
0
 10
71.9726360494993
 20
13.056070898478779
 30
0.0
 40
0.0831270639302426
 50
99.842701505457612
 51
121.91719225286489
  0
ARC
  5
1F8E
  8
0
 10
72.220028310769663
 20
10.60705522975271
 30
0.0
 40
2.54440319164003
 50
84.040510530142285
 51
95.901282768683942
  0
ARC
  5
1F8F
  8
0
 10
72.462179429178008
 20
13.03866036020916
 30
0.0
 40
0.1014656611405802
 50
58.2095891452689
 51
77.464694209980777
  0
ARC
  5
1F90
  8
0
 10
72.492763445896387
 20
13.08014326330524
 30
0.0
 40
0.0502648669734157
 50
1.1819077726485829
 51
62.936404982747078
  0
ARC
  5
1F91
  8
0
 10
72.496671805290546
 20
12.87323715326311
 30
0.0
 40
0.0505685643136206
 50
297.12223256144267
 51
0.8203718169592446
  0
ARC
  5
1F92
  8
0
 10
72.470587445225092
 20
12.90421521556998
 30
0.0
 40
0.0904898241427929
 50
280.19689352132099
 51
302.88968254190542
  0
ARC
  5
1F93
  8
0
 10
71.485014867577021
 20
23.184761714722349
 30
0.0
 40
10.417866252192271
 50
275.24751481088327
 51
275.51703932274643
  0
ARC
  5
1F94
  8
0
 10
72.438679298556082
 20
12.800555867871831
 30
0.0
 40
0.0100391043148369
 50
94.930210647066332
 51
178.78110881045529
  0
ARC
  5
1F95
  8
0
 10
72.3972221574641
 20
12.72327011014977
 30
0.0
 40
0.0300509421465906
 50
261.39640389094291
 51
358.84845669693073
  0
ARC
  5
1F96
  8
0
 10
72.373901107589489
 20
-95.135016362640087
 30
0.0
 40
107.9455931137415
 50
89.966074730676169
 51
90.192562514203615
  0
ARC
  5
1F97
  8
0
 10
71.924496466254652
 20
12.72436835400503
 30
0.0
 40
1.5056194331050301
 50
258.96366909264322
 51
281.03633088747631
  0
ARC
  5
1F98
  8
0
 10
71.592595076480663
 20
11.09424339917336
 30
0.0
 40
0.1584880972797164
 50
74.002515041085914
 51
101.84514768977731
  0
ARC
  5
1F99
  8
0
 10
71.577611062305834
 20
11.201199361563379
 30
0.0
 40
0.0512549554228852
 50
110.02163359892489
 51
179.3211268127418
  0
ARC
  5
1F9A
  8
0
 10
72.256331195354505
 20
11.097756416749309
 30
0.0
 40
0.1550953893490559
 50
77.939707793669001
 51
106.33147908813071
  0
ARC
  5
1F9B
  8
0
 10
72.271076849534211
 20
11.20098421365436
 30
0.0
 40
0.0515629374475032
 50
0.9139096514868448
 51
69.970967838434277
  0
ARC
  5
1F9C
  8
0
 10
72.268994691681684
 20
11.037737944377721
 30
0.0
 40
0.0552149089330711
 50
327.0173511104598
 51
359.77634496163603
  0
ARC
  5
1F9D
  8
0
 10
72.125818889641209
 20
11.08984690580629
 30
0.0
 40
0.2065397427545077
 50
315.11236079338829
 51
336.55758248882807
  0
ARC
  5
1F9E
  8
0
 10
71.923879221722075
 20
11.65470546532655
 30
0.0
 40
0.7913723953210995
 50
245.30391356394199
 51
296.10933073056111
  0
ARC
  5
1F9F
  8
0
 10
71.680359350679765
 20
11.068213218741001
 30
0.0
 40
0.1585739334751768
 50
191.1595969771237
 51
236.6745863152594
  0
ARC
  5
1FA0
  8
0
 10
67.725146017756245
 20
10.11933195559217
 30
0.0
 40
3.8191583609601669
 50
350.30250926542749
 51
1.309427977425486
  0
ARC
  5
1FA1
  8
0
 10
69.629664819456877
 20
9.8797467714769223
 30
0.0
 40
1.9033794550058241
 50
328.50854385490328
 51
347.75360560487519
  0
ARC
  5
1FA2
  8
0
 10
67.69290229600405
 20
11.04394845103057
 30
0.0
 40
4.1630807693578786
 50
321.91242460809661
 51
328.76967482014578
  0
ARC
  5
1FA3
  8
0
 10
65.332433800914487
 20
12.83787695281257
 30
0.0
 40
7.1276806931267078
 50
320.97015586594227
 51
322.26729186074641
  0
ARC
  5
1FA4
  8
0
 10
75.489031076162391
 20
10.09271865165169
 30
0.0
 40
3.185381813536392
 50
177.95104314407271
 51
193.73339733325989
  0
ARC
  5
1FA5
  8
0
 10
74.941105132948664
 20
10.203945971534219
 30
0.0
 40
2.6900867284508969
 50
198.81188804261541
 51
219.9697358782968
  0
ARC
  5
1FA6
  8
0
 10
78.49389170954575
 20
12.81992675560655
 30
0.0
 40
7.0987685484205381
 50
217.73017593286599
 51
219.032509312207
  0
ARC
  5
1FA7
  8
0
 10
71.00100503155916
 20
8.4271427349538754
 30
0.0
 40
0.0580227741610068
 50
57.140410903966092
 51
122.8473606271847
  0
ARC
  5
1FA8
  8
0
 10
71.924496481346694
 20
11.508646203473541
 30
0.0
 40
3.161224320469052
 50
253.61011424619349
 51
286.38988731798861
  0
ARC
  5
1FA9
  8
0
 10
72.847984437764026
 20
8.4205887599912721
 30
0.0
 40
0.0636258329742609
 50
60.343875845690462
 51
119.6529174711125
  0
ATTDEF
  5
20C9
  8
DEFPOINTS
 10
71.92063955289187
 20
8.1957646325657301
 30
0.0
 40
0.001
  1
METAL
  3

  2
MATERIAL
 70
     0
1001
AcDbAttr
1070
     0
1070
     1
  0
ATTDEF
  5
20CA
  8
DEFPOINTS
 10
71.92063955289187
 20
8.1974312992323952
 30
0.0
 40
0.001
  1
BATHROOM SINK FAUCET
  3

  2
PRODUCT
 70
     0
1001
AcDbAttr
1070
     0
1070
     1
  0
ATTDEF
  5
20CB
  8
DEFPOINTS
 10
71.92063955289187
 20
8.1990979658990604
 30
0.0
 40
0.001
  1
RUBICON
  3

  2
TRADENAME
 70
     0
1001
AcDbAttr
1070
     0
1070
     1
  0
ATTDEF
  5
20CC
  8
DEFPOINTS
 10
71.92063955289187
 20
8.2007646325657255
 30
0.0
 40
0.001
  1
K-R76216-4D
  3

  2
MODELNUMBER
 70
     0
1001
AcDbAttr
1070
     0
1070
     1
  0
ENDSEC
  0
EOF
