  0
SECTION
  2
HEADER
  9
$ACADVER
  1
AC1009
  9
$INSBASE
 10
52.302695790748267
 20
8.1882066529999982
 30
0.0
  9
$EXTMIN
 10
45.555932231292353
 20
8.1815919915778181
 30
0.0
  9
$EXTMAX
 10
59.049459558904182
 20
13.33837568191063
 30
0.0
  9
$LIMMIN
 10
0.0
 20
0.0
  9
$LIMMAX
 10
11.692913385800001
 20
8.2677165353999982
  9
$ORTHOMODE
 70
     1
  9
$REGENMODE
 70
     1
  9
$FILLMODE
 70
     1
  9
$QTEXTMODE
 70
     0
  9
$MIRRTEXT
 70
     0
  9
$DRAGMODE
 70
     2
  9
$LTSCALE
 40
0.6431102362
  9
$OSMODE
 70
  3071
  9
$ATTMODE
 70
     1
  9
$TEXTSIZE
 40
0.2
  9
$TRACEWID
 40
0.05
  9
$TEXTSTYLE
  7
STANDARD
  9
$CLAYER
  8
0
  9
$CELTYPE
  6
BYLAYER
  9
$CECOLOR
 62
   256
  9
$DIMSCALE
 40
1.0
  9
$DIMASZ
 40
0.1875
  9
$DIMEXO
 40
0.0625
  9
$DIMDLI
 40
0.4443307087
  9
$DIMRND
 40
0.0
  9
$DIMDLE
 40
0.0
  9
$DIMEXE
 40
0.125
  9
$DIMTP
 40
0.01
  9
$DIMTM
 40
0.01
  9
$DIMTXT
 40
1.0
  9
$DIMCEN
 40
0.1052362205
  9
$DIMTSZ
 40
0.0
  9
$DIMTOL
 70
     1
  9
$DIMLIM
 70
     0
  9
$DIMTIH
 70
     1
  9
$DIMTOH
 70
     1
  9
$DIMSE1
 70
     0
  9
$DIMSE2
 70
     0
  9
$DIMTAD
 70
     0
  9
$DIMZIN
 70
     0
  9
$DIMBLK
  1

  9
$DIMASO
 70
     1
  9
$DIMSHO
 70
     1
  9
$DIMPOST
  1
\X
  9
$DIMAPOST
  1

  9
$DIMALT
 70
     1
  9
$DIMALTD
 70
     2
  9
$DIMALTF
 40
25.399999999999999
  9
$DIMLFAC
 40
1.0
  9
$DIMTOFL
 70
     0
  9
$DIMTVP
 40
0.0
  9
$DIMTIX
 70
     0
  9
$DIMSOXD
 70
     0
  9
$DIMSAH
 70
     0
  9
$DIMBLK1
  1

  9
$DIMBLK2
  1

  9
$DIMSTYLE
  2
STANDARD
  9
$DIMCLRD
 70
     0
  9
$DIMCLRE
 70
     0
  9
$DIMCLRT
 70
     0
  9
$DIMTFAC
 40
1.0
  9
$DIMGAP
 40
0.09
  9
$LUNITS
 70
     2
  9
$LUPREC
 70
     4
  9
$SKETCHINC
 40
0.1
  9
$FILLETRAD
 40
0.0
  9
$AUNITS
 70
     0
  9
$AUPREC
 70
     0
  9
$MENU
  1
.
  9
$ELEVATION
 40
0.0
  9
$PELEVATION
 40
0.0
  9
$THICKNESS
 40
0.0
  9
$LIMCHECK
 70
     0
  9
$BLIPMODE
 70
     0
  9
$CHAMFERA
 40
0.0
  9
$CHAMFERB
 40
0.0
  9
$SKPOLY
 70
     0
  9
$TDCREATE
 40
2458284.5242901971
  9
$TDUPDATE
 40
2458284.8196252552
  9
$TDINDWG
 40
0.2117008681
  9
$TDUSRTIMER
 40
0.2117008681
  9
$USRTIMER
 70
     1
  9
$ANGBASE
 50
0.0
  9
$ANGDIR
 70
     0
  9
$PDMODE
 70
     0
  9
$PDSIZE
 40
0.3125
  9
$PLINEWID
 40
0.0
  9
$COORDS
 70
     1
  9
$SPLFRAME
 70
     0
  9
$SPLINETYPE
 70
     6
  9
$SPLINESEGS
 70
     8
  9
$ATTDIA
 70
     1
  9
$ATTREQ
 70
     1
  9
$HANDLING
 70
     1
  9
$HANDSEED
  5
2218
  9
$SURFTAB1
 70
     6
  9
$SURFTAB2
 70
     6
  9
$SURFTYPE
 70
     6
  9
$SURFU
 70
     6
  9
$SURFV
 70
     6
  9
$UCSNAME
  2

  9
$UCSORG
 10
0.0
 20
0.0
 30
0.0
  9
$UCSXDIR
 10
1.0
 20
0.0
 30
0.0
  9
$UCSYDIR
 10
0.0
 20
1.0
 30
0.0
  9
$PUCSNAME
  2

  9
$PUCSORG
 10
0.0
 20
0.0
 30
0.0
  9
$PUCSXDIR
 10
1.0
 20
0.0
 30
0.0
  9
$PUCSYDIR
 10
0.0
 20
1.0
 30
0.0
  9
$USERI1
 70
     0
  9
$USERI2
 70
     0
  9
$USERI3
 70
     0
  9
$USERI4
 70
     0
  9
$USERI5
 70
     0
  9
$USERR1
 40
0.0
  9
$USERR2
 40
0.0
  9
$USERR3
 40
0.0
  9
$USERR4
 40
0.0
  9
$USERR5
 40
0.0
  9
$WORLDVIEW
 70
     1
  9
$SHADEDGE
 70
     3
  9
$SHADEDIF
 70
    70
  9
$TILEMODE
 70
     1
  9
$MAXACTVP
 70
    64
  9
$PLIMCHECK
 70
     0
  9
$PEXTMIN
 10
1.0000000000000000E+020
 20
1.0000000000000000E+020
 30
1.0000000000000000E+020
  9
$PEXTMAX
 10
-1.0000000000000000E+020
 20
-1.0000000000000000E+020
 30
-1.0000000000000000E+020
  9
$PLIMMIN
 10
0.0
 20
0.0
  9
$PLIMMAX
 10
12.0
 20
9.0
  9
$UNITMODE
 70
     0
  9
$VISRETAIN
 70
     1
  9
$PLINEGEN
 70
     0
  9
$PSLTSCALE
 70
     1
  0
ENDSEC
  0
SECTION
  2
TABLES
  0
TABLE
  2
VPORT
 70
     1
  0
VPORT
  2
*ACTIVE
 70
     0
 10
0.0
 20
0.0
 11
1.0
 21
1.0
 12
0.0
 22
0.0
 13
0.0
 23
0.0
 14
1.0
 24
1.0
 15
0.0
 25
0.0
 16
-0.0000000000000071
 26
0.0
 36
40.392630580234901
 17
52.302695895098267
 27
10.75998383674423
 37
0.0
 40
14.446681542935609
 41
2.0834248079034019
 42
50.0
 43
0.0
 44
0.0
 50
0.0
 51
0.0
 71
     0
 72
   100
 73
     1
 74
     1
 75
     0
 76
     0
 77
     0
 78
     0
  0
ENDTAB
  0
TABLE
  2
LTYPE
 70
     2
  0
LTYPE
  2
CONTINUOUS
 70
     0
  3
Solid line
 72
    65
 73
     0
 40
0.0
  0
LTYPE
  2
PHANTOM2
 70
     0
  3
___ _ _ ___ _ _ ___ _ _ ___ _ _
 72
    65
 73
     6
 40
1.25
 49
0.625
 49
-0.125
 49
0.125
 49
-0.125
 49
0.125
 49
-0.125
  0
ENDTAB
  0
TABLE
  2
LAYER
 70
     2
  0
LAYER
  2
0
 70
     0
 62
   255
  6
CONTINUOUS
  0
LAYER
  2
DEFPOINTS
 70
     0
 62
     7
  6
CONTINUOUS
  0
ENDTAB
  0
TABLE
  2
STYLE
 70
     1
  0
STYLE
  2
STANDARD
 70
     0
 40
0.0
 41
0.8
 50
0.0
 71
     0
 42
0.2
  3
txt
  4

  0
ENDTAB
  0
TABLE
  2
VIEW
 70
     0
  0
ENDTAB
  0
TABLE
  2
UCS
 70
     0
  0
ENDTAB
  0
TABLE
  2
APPID
 70
     9
  0
APPID
  2
ACAD
 70
     0
  0
APPID
  2
ACAD_MLEADERVER
 70
     0
  0
APPID
  2
ACAD_EXEMPT_FROM_CAD_STANDARDS
 70
     0
  0
APPID
  2
ACAD_NAV_VCDISPLAY
 70
     0
  0
APPID
  2
ACAD_DSTYLE_DIMJAG
 70
     0
  0
APPID
  2
ACAD_DSTYLE_DIMTALN
 70
     0
  0
APPID
  2
ACAECLAYERSTANDARD
 70
     0
  0
APPID
  2
ACCMTRANSPARENCY
 70
     0
  0
APPID
  2
AcDbAttr
 70
     0
  0
ENDTAB
  0
TABLE
  2
DIMSTYLE
 70
     1
  0
DIMSTYLE
  2
STANDARD
 70
     0
  3

  4

  5

  6

  7

 40
1.0
 41
0.1875
 42
0.0625
 43
0.38
 44
0.125
 45
0.0
 46
0.0
 47
0.01
 48
0.01
140
0.15625
141
0.09
142
0.0
143
25.399999999999999
144
1.0
145
0.0
146
1.0
147
0.09
 71
     1
 72
     0
 73
     1
 74
     1
 75
     0
 76
     0
 77
     0
 78
     4
170
     0
171
     2
172
     0
173
     0
174
     0
175
     0
176
     0
177
     0
178
     0
  0
ENDTAB
  0
ENDSEC
  0
SECTION
  2
BLOCKS
  0
BLOCK
  8
0
  2
$MODEL_SPACE
 70
     0
 10
0.0
 20
0.0
 30
0.0
  3
$MODEL_SPACE
  1

  0
ENDBLK
  5
21
  8
0
  0
BLOCK
 67
     1
  8
0
  2
$PAPER_SPACE
 70
     0
 10
0.0
 20
0.0
 30
0.0
  3
$PAPER_SPACE
  1

  0
ENDBLK
  5
1D
 67
     1
  8
0
  0
ENDSEC
  0
SECTION
  2
ENTITIES
  0
LINE
  5
1E3C
  8
0
 10
52.138325816348271
 20
12.274645017399999
 30
0.0
 11
52.121593532848259
 21
12.265882999900001
 31
0.0
  0
LINE
  5
1E3D
  8
0
 10
45.555932231292353
 20
10.9765183690093
 30
0.0
 11
45.555932231292353
 21
11.198251735259459
 31
0.0
  0
LINE
  5
1E3E
  8
0
 10
47.234788666648271
 20
8.3162521834999996
 30
0.0
 11
47.23393628684827
 21
8.2184682690999988
 31
0.0
  0
LINE
  5
1E3F
  8
0
 10
48.015195895148267
 20
10.24632178630017
 30
0.0
 11
48.015195895148267
 21
10.2363218541
 31
0.0
  0
LINE
  5
1E40
  8
0
 10
48.59019589514827
 20
10.246321847381919
 30
0.0
 11
48.59019589514827
 21
10.2363218541
 31
0.0
  0
LINE
  5
1E41
  8
0
 10
51.234641863248271
 20
8.310311908400001
 30
0.0
 11
51.234641863248271
 21
8.2182066529999993
 31
0.0
  0
LINE
  5
1E42
  8
0
 10
51.937947442648273
 20
12.39143634025438
 30
0.0
 11
51.937947442648273
 21
12.374119632799999
 31
0.0
  0
LINE
  5
1E43
  8
0
 10
51.979128719548271
 20
12.373030352000001
 30
0.0
 11
51.979128719548271
 21
12.419124783325319
 31
0.0
  0
LINE
  5
1E44
  8
0
 10
51.988960144448271
 20
12.380336252599999
 30
0.0
 11
51.988960144448271
 21
12.339055861
 31
0.0
  0
LINE
  5
1E45
  8
0
 10
52.022215055648267
 20
12.3270916513
 30
0.0
 11
52.022215055648267
 21
12.2933167855
 31
0.0
  0
LINE
  5
1E46
  8
0
 10
52.053882247248268
 20
12.301350406799999
 30
0.0
 11
52.053882247248268
 21
12.3426307983
 31
0.0
  0
LINE
  5
1E47
  8
0
 10
52.140294320248259
 20
12.321801975552461
 30
0.0
 11
52.140294320248259
 21
12.2794286059
 31
0.0
  0
LINE
  5
1E48
  8
0
 10
52.27438743534826
 20
12.2666460689
 30
0.0
 11
52.27438743534826
 21
12.30519158293947
 31
0.0
  0
LINE
  5
1E49
  8
0
 10
52.386761136148259
 20
12.309158405519559
 30
0.0
 11
52.386761136148259
 21
12.2696184517
 31
0.0
  0
LINE
  5
1E4A
  8
0
 10
52.397460348648259
 20
12.257546218
 30
0.0
 11
52.397460348648259
 21
12.2913210838
 31
0.0
  0
LINE
  5
1E4B
  8
0
 10
51.801425839148258
 20
11.439535833900001
 30
0.0
 11
51.80150155019215
 21
12.30894502679069
 31
0.0
  0
LINE
  5
1E4C
  8
0
 10
52.511475335248271
 20
12.289246668800001
 30
0.0
 11
52.511475335248271
 21
12.334521849774831
 31
0.0
  0
LINE
  5
1E4D
  8
0
 10
52.583983673848273
 20
12.3566524454
 30
0.0
 11
52.583983673848273
 21
12.315372053800001
 31
0.0
  0
LINE
  5
1E4E
  8
0
 10
52.616431645748271
 20
12.42274388638061
 30
0.0
 11
52.616431645748271
 21
12.389887572499999
 31
0.0
  0
LINE
  5
1E4F
  8
0
 10
52.619783936648268
 20
12.3091230058
 30
0.0
 11
52.619783936648268
 21
12.3428978716
 31
0.0
  0
LINE
  5
1E50
  8
0
 10
52.656361650348273
 20
12.3931223178
 30
0.0
 11
52.656361650348273
 21
12.398333672832569
 31
0.0
  0
LINE
  5
1E51
  8
0
 10
53.370749716748271
 20
8.2182066529999993
 30
0.0
 11
53.370747824848259
 21
8.3101003653000003
 31
0.0
  0
LINE
  5
1E52
  8
0
 10
47.26393510094826
 20
8.1882066524999981
 30
0.0
 11
49.341456689248268
 21
8.1882066524999981
 31
0.0
  0
LINE
  5
1E53
  8
0
 10
51.264442757448272
 20
8.1882066529999982
 30
0.0
 11
53.340948824048262
 21
8.1882066529999982
 31
0.0
  0
LINE
  5
1E54
  8
0
 10
48.653886812648267
 20
10.2363218541
 30
0.0
 11
47.951504976248273
 21
10.2363218541
 31
0.0
  0
LINE
  5
1E55
  8
0
 10
52.387780419168791
 20
12.264712063676111
 30
0.0
 11
52.396775386594072
 21
12.254773942601931
 31
0.0
  0
LINE
  5
1E56
  8
0
 10
52.397460348648259
 20
12.2913210838
 30
0.0
 11
52.38879908134826
 21
12.3010938445
 31
0.0
  0
LINE
  5
1E57
  8
0
 10
48.653437288448274
 20
10.2463218541
 30
0.0
 11
47.950240297848261
 21
10.246321779400001
 31
0.0
  0
LINE
  5
1E58
  8
0
 10
52.02523097864826
 20
12.2903291294
 30
0.0
 11
52.050866324248261
 21
12.2968325371
 31
0.0
  0
LINE
  5
1E59
  8
0
 10
52.047850401248269
 20
12.333595059
 30
0.0
 11
52.022215055648267
 21
12.3270916513
 31
0.0
  0
LINE
  5
1E5A
  8
0
 10
51.985157286848271
 20
12.3349950272
 30
0.0
 11
51.952832997348267
 21
12.3323764238
 31
0.0
  0
LINE
  5
1E5B
  8
0
 10
52.620234503348271
 20
12.386442880700001
 30
0.0
 11
52.652558792848261
 21
12.389061484000001
 31
0.0
  0
LINE
  5
1E5C
  8
0
 10
52.663522321148271
 20
12.351174778900001
 30
0.0
 11
52.630185097048269
 21
12.352056577700001
 31
0.0
  0
LINE
  5
1E5D
  8
0
 10
51.941869469048271
 20
12.3702631289
 30
0.0
 11
51.975206693148259
 21
12.3693813301
 31
0.0
  0
LINE
  5
1E5E
  8
0
 10
52.587393222748268
 20
12.311024143499999
 30
0.0
 11
52.616374387848268
 21
12.305965390400001
 31
0.0
  0
LINE
  5
1E5F
  8
0
 10
52.619783936648268
 20
12.3428978716
 30
0.0
 11
52.590802771548269
 21
12.3479566248
 31
0.0
  0
LINE
  5
1E60
  8
0
 10
52.53551660414827
 20
12.2768316277
 30
0.0
 11
52.514005995148267
 21
12.2845820872
 31
0.0
  0
ARC
  5
1E73
  8
0
 10
45.611095092144588
 20
10.980736643344409
 30
0.0
 40
0.0553239103441657
 50
184.37286716827199
 51
254.9203682552407
  0
ARC
  5
1E74
  8
0
 10
48.653422620417508
 20
10.276336542767281
 30
0.0
 40
0.0300146922513816
 50
270.02800016346629
 51
0.3597739793091795
  0
ARC
  5
1E75
  8
0
 10
47.950239487581783
 20
10.27631974595303
 30
0.0
 40
0.0299979665639779
 50
183.0942276607058
 51
270.00154759990301
  0
ARC
  5
1E76
  8
0
 10
48.653886569484591
 20
10.206321592138201
 30
0.0
 40
0.0300002619627862
 50
0.5446410107321958
 51
89.999535595642897
  0
ARC
  5
1E77
  8
0
 10
47.951505103656949
 20
10.20632189464787
 30
0.0
 40
0.0299999594523991
 50
90.000243332999972
 51
179.45558537295
  0
ARC
  5
1E84
  8
0
 10
47.266100555655093
 20
8.2203532568726754
 30
0.0
 40
0.0322194563389994
 50
183.3539842848804
 51
266.14627223632982
  0
ARC
  5
1E85
  8
0
 10
47.285709041177789
 20
8.3156584904117476
 30
0.0
 40
0.0509238354182962
 50
146.27627541057171
 51
179.33200477485531
  0
ARC
  5
1E86
  8
0
 10
40.465414279694443
 20
13.812520840927389
 30
0.0
 40
8.708958007544453
 50
321.10265349337891
 51
322.20957193281089
  0
ARC
  5
1E87
  8
0
 10
45.718428203706637
 20
9.9523505507227465
 30
0.0
 40
2.1987661880727858
 50
317.81739942677677
 51
352.4327202129748
  0
ARC
  5
1E88
  8
0
 10
42.578576195036867
 20
10.164701251118251
 30
0.0
 40
5.3430946383568694
 50
354.60993869578749
 51
0.44937328726413
  0
LINE
  5
1E89
  8
0
 10
49.37060197044827
 20
8.3163828291000002
 30
0.0
 11
49.371454720850423
 21
8.2184682690999971
 31
0.0
  0
ARC
  5
1E8A
  8
0
 10
49.319676761339679
 20
8.3156556348817947
 30
0.0
 40
0.0509304008838032
 50
0.8181081375218962
 51
33.722656667609868
  0
ARC
  5
1E8B
  8
0
 10
56.139977510502092
 20
13.812520840927389
 30
0.0
 40
8.708958007544453
 50
217.790428067189
 51
218.89734650662109
  0
ARC
  5
1E8C
  8
0
 10
50.886963586489912
 20
9.9523505507227465
 30
0.0
 40
2.1987661880727858
 50
187.5672797870252
 51
222.1826005732232
  0
ARC
  5
1E8D
  8
0
 10
54.026744202668347
 20
10.16469634625606
 30
0.0
 40
5.3430231008026441
 50
179.5505700393185
 51
185.3900808544345
  0
ARC
  5
1E8E
  8
0
 10
45.489265255582332
 20
10.23648385191567
 30
0.0
 40
2.4313203714772289
 50
0.900639577330603
 51
9.1495196840728248
  0
ARC
  5
1E8F
  8
0
 10
47.469592041426239
 20
10.45929093127949
 30
0.0
 40
0.4508663147332612
 50
21.30311823684227
 51
93.934931703710276
  0
ARC
  5
1E90
  8
0
 10
50.428024522615573
 20
-58.68442194136685
 30
0.0
 40
69.657690622355645
 50
92.459614227236671
 51
93.132292294121385
  0
ARC
  5
1E91
  8
0
 10
46.374392884056228
 20
15.57502119794573
 30
0.0
 40
4.7123189663162091
 50
260.50081403475951
 51
273.00975489930272
  0
ARC
  5
1E92
  8
0
 10
45.614667737768912
 20
11.192932917710889
 30
0.0
 40
0.0589758386220406
 50
96.101840460763029
 51
174.82567036546519
  0
ARC
  5
1E93
  8
0
 10
46.399807309205173
 20
17.51450024106342
 30
0.0
 40
6.306824680212463
 50
263.35363996987491
 51
271.69019416238348
  0
ARC
  5
1E94
  8
0
 10
48.061962030730463
 20
-196.14058704496321
 30
0.0
 40
207.3562596082339
 50
90.051681830127535
 51
90.407897046862843
  0
ARC
  5
1E95
  8
0
 10
47.906427986182663
 20
10.43240707970118
 30
0.0
 40
0.7838145475466525
 50
20.73629594654853
 51
92.303595438216362
  0
ARC
  5
1E96
  8
0
 10
47.155245494212849
 20
10.340420222701709
 30
0.0
 40
1.5295264049860311
 50
357.60580034918661
 51
13.98008288615792
  0
ARC
  5
1E97
  8
0
 10
47.379203748805402
 20
8.4205811354122169
 30
0.0
 40
0.0636345491348158
 50
60.347115740748812
 51
119.6406380338864
  0
ARC
  5
1E98
  8
0
 10
49.22618748695961
 20
8.420388890645027
 30
0.0
 40
0.0638019819154586
 50
60.444310133468193
 51
119.5671533140696
  0
ARC
  5
1E99
  8
0
 10
48.30269496821375
 20
11.50864903802804
 30
0.0
 40
3.1612267831708989
 50
253.61014502806299
 51
286.38988259181718
  0
ARC
  5
1E9A
  8
0
 10
49.339291928907471
 20
8.2203517368686381
 30
0.0
 40
0.032217893109265
 50
273.85267738398852
 51
356.64856057716429
  0
ARC
  5
1E9B
  8
0
 10
45.634860885651499
 20
11.02636263194718
 30
0.0
 40
0.2267612931716051
 50
90.227259585881384
 51
96.701434118115614
  0
ARC
  5
1E9C
  8
0
 10
45.629668633488961
 20
10.990892295495771
 30
0.0
 40
0.2622649812330644
 50
81.187095110783105
 51
89.062125733459055
  0
ARC
  5
1E9D
  8
0
 10
51.265118722732552
 20
8.218679686915987
 30
0.0
 40
0.0304805302629467
 50
180.88922124294919
 51
268.72925001854429
  0
ARC
  5
1E9E
  8
0
 10
53.340272859904282
 20
8.2186796842594134
 30
0.0
 40
0.0304805275817389
 50
271.27074794925539
 51
359.11078367312098
  0
ARC
  5
1E9F
  8
0
 10
51.286233693965812
 20
8.3098585751019076
 30
0.0
 40
0.0515938223808629
 50
144.30007502393579
 51
179.49655951577691
  0
ARC
  5
1EA0
  8
0
 10
45.247630243215141
 20
12.355198265824971
 30
0.0
 40
7.2168249874300896
 50
326.19479746414498
 51
327.64152314976462
  0
ARC
  5
1EA1
  8
0
 10
48.843792384059348
 20
10.15347422788658
 30
0.0
 40
3.0013954867069419
 50
326.40274351743739
 51
340.63863191859667
  0
ARC
  5
1EA2
  8
0
 10
47.779914107299703
 20
10.136029117431731
 30
0.0
 40
4.0163258383545246
 50
345.91242106917451
 51
1.444774482770363
  0
ARC
  5
1EA3
  8
0
 10
-44.689505756146929
 20
11.35709015151668
 30
0.0
 40
96.490966817720704
 50
359.33505678312179
 51
0.0489557765893675
  0
ARC
  5
1EA4
  8
0
 10
52.302690278750212
 20
10.504333024723421
 30
0.0
 40
2.8340426571896522
 50
81.186835353094494
 51
98.813314835116586
  0
ARC
  5
1EA5
  8
0
 10
51.882144041136328
 20
13.22334722092755
 30
0.0
 40
0.0827044226523368
 50
99.516024919852981
 51
183.01376323042041
  0
ARC
  5
1EA6
  8
0
 10
52.723996734949829
 20
13.224654781551649
 30
0.0
 40
0.0812908820962488
 50
2.159349163118307
 51
80.865298593162635
  0
ARC
  5
1EA7
  8
0
 10
33.957089359294088
 20
14.28077553806418
 30
0.0
 40
17.8740290391057
 50
354.19323721032629
 51
356.59443587417178
  0
ARC
  5
1EA8
  8
0
 10
52.303474592872803
 20
10.459966308679389
 30
0.0
 40
2.1887292963188241
 50
78.078963119955631
 51
101.9725902078377
  0
ARC
  5
1EA9
  8
0
 10
52.732726098365212
 20
12.474085911776649
 30
0.0
 40
0.1294404180526163
 50
47.468022762966513
 51
79.827868778650213
  0
ARC
  5
1EAA
  8
0
 10
52.692447310730437
 20
12.450198333270601
 30
0.0
 40
0.1747963943309625
 50
7.4112875303353096
 51
43.027520694990102
  0
ARC
  5
1EAB
  8
0
 10
69.178875817323544
 20
14.16107263400097
 30
0.0
 40
16.40022659159342
 50
183.2625285091267
 51
185.90880252925621
  0
ARC
  5
1EAC
  8
0
 10
51.87122526470008
 20
12.475128367927891
 30
0.0
 40
0.1278264167168773
 50
99.814360725547374
 51
132.42006087476449
  0
ARC
  5
1EAD
  8
0
 10
51.90893426082976
 20
12.452039427302029
 30
0.0
 40
0.1707490288781005
 50
136.53839218566489
 51
173.15382052377669
  0
ARC
  5
1EAE
  8
0
 10
51.961751650041883
 20
12.46334951850198
 30
0.0
 40
0.2225327876122365
 50
177.67081035592349
 51
236.52421720348019
  0
ARC
  5
1EAF
  8
0
 10
52.652775517947781
 20
12.45996925551095
 30
0.0
 40
0.2133907135556164
 50
292.02763949103593
 51
3.4324934819283199
  0
ARC
  5
1EB0
  8
0
 10
52.309802263191081
 20
13.64118137110915
 30
0.0
 40
1.442444757587126
 50
250.95032966903989
 51
287.05301708879011
  0
LINE
  5
1EB1
  8
0
 10
52.803965742348268
 20
11.439535833900001
 30
0.0
 11
52.80389374891012
 21
12.30930779095352
 31
0.0
  0
ARC
  5
1EB2
  8
0
 10
53.319189462247181
 20
8.3098745538531045
 30
0.0
 40
0.0515588570947376
 50
0.2509381503854143
 51
35.705980307277748
  0
ARC
  5
1EB3
  8
0
 10
59.357761338290011
 20
12.355198265830561
 30
0.0
 40
7.216824987440364
 50
212.35847685023629
 51
213.80520253585371
  0
ARC
  5
1EB4
  8
0
 10
55.761599197437192
 20
10.15347422788658
 30
0.0
 40
3.0013954867069419
 50
199.3613680814033
 51
213.59725648256261
  0
ARC
  5
1EB5
  8
0
 10
56.825477474196838
 20
10.136029117431731
 30
0.0
 40
4.0163258383545246
 50
178.55522551722959
 51
194.0875789308254
  0
ARC
  5
1EB6
  8
0
 10
149.29489733764339
 20
11.35709015151668
 30
0.0
 40
96.490966817720704
 50
179.95104422341061
 51
180.66494321687821
  0
ARC
  5
1EB7
  8
0
 10
52.303315390856
 20
11.052615012664971
 30
0.0
 40
1.445590411189668
 50
80.284120079358615
 51
100.36306481837239
  0
ARC
  5
1EB8
  8
0
 10
52.305705403822877
 20
13.64050650073483
 30
0.0
 40
1.4269527894595491
 50
258.11702112089779
 51
278.19787593115541
  0
ARC
  5
1EB9
  8
0
 10
52.481731871381641
 20
11.99492965117137
 30
0.0
 40
0.4869725316932436
 50
57.384395019177859
 51
82.264679774288368
  0
ARC
  5
1EBA
  8
0
 10
52.715000005036032
 20
12.35476108362894
 30
0.0
 40
0.0582080935929244
 50
290.99919587419691
 51
59.879312189103331
  0
ARC
  5
1EBB
  8
0
 10
52.449342986706561
 20
12.807353357155639
 30
0.0
 40
0.582300701177279
 50
275.89788771520739
 51
299.47485880981702
  0
ARC
  5
1EBC
  8
0
 10
52.078271555919997
 20
12.6099140779493
 30
0.0
 40
0.3717580826701439
 50
232.64843573256911
 51
259.711935085611
  0
ARC
  5
1EBD
  8
0
 10
51.888044081817661
 20
12.357257936009971
 30
0.0
 40
0.0555415166545493
 50
115.8019327412507
 51
230.51214773234011
  0
ARC
  5
1EBE
  8
0
 10
52.11489262369227
 20
12.01129742683719
 30
0.0
 40
0.468829344160235
 50
98.786780105276065
 51
122.3728357559376
  0
ARC
  5
1EBF
  8
0
 10
52.304475147002918
 20
11.31987017309855
 30
0.0
 40
1.1554889949468601
 50
80.967426614839354
 51
101.4049850564697
  0
ARC
  5
1EC0
  8
0
 10
52.454888522906408
 20
12.11362944460272
 30
0.0
 40
0.3487806167968009
 50
51.553246316217447
 51
84.901795629908833
  0
ARC
  5
1EC1
  8
0
 10
52.632581290407259
 20
12.3578469148196
 30
0.0
 40
0.0487065158899823
 50
282.31785987161999
 51
36.4575702885246
  0
ARC
  5
1EC2
  8
0
 10
52.30607019504999
 20
13.13845562497241
 30
0.0
 40
0.894096260057754
 50
263.67434528166717
 51
292.1360521515669
  0
ARC
  5
1EC3
  8
0
 10
52.201349752954258
 20
12.72604920622412
 30
0.0
 40
0.4762868132760511
 50
236.5596280462471
 51
270.74700324577873
  0
ARC
  5
1EC4
  8
0
 10
51.964781607519321
 20
12.360480863140911
 30
0.0
 40
0.0410692556153412
 50
133.43432542540961
 51
230.90485663547071
  0
ARC
  5
1EC5
  8
0
 10
52.121960440793963
 20
12.162220978084161
 30
0.0
 40
0.2939395613751127
 50
98.998509419459026
 51
129.1086177074836
  0
ARC
  5
1EC6
  8
0
 10
52.082850337830273
 20
12.42064764828911
 30
0.0
 40
0.078176409150502
 50
171.5662714072854
 51
256.3446796673623
  0
ARC
  5
1EC7
  8
0
 10
52.284740169826229
 20
12.93832922098156
 30
0.0
 40
0.6332222736264827
 50
249.63647047318219
 51
273.12982325874731
  0
ARC
  5
1EC8
  8
0
 10
52.324054246553942
 20
12.93679033257251
 30
0.0
 40
0.6307566803917311
 50
269.56933484323082
 51
289.915439477289
  0
ARC
  5
1EC9
  8
0
 10
52.51993418107989
 20
12.422568047455551
 30
0.0
 40
0.0810652574322852
 50
283.53797826308858
 51
350.7266982699424
  0
ARC
  5
1ECA
  8
0
 10
51.945676843205753
 20
12.4200567360399
 30
0.0
 40
0.6543473604260126
 50
359.0760205306434
 51
0.9192433017854561
  0
ARC
  5
1ECB
  8
0
 10
52.593923543946687
 20
12.36385604883364
 30
0.0
 40
0.0333006864157038
 50
346.20063893936339
 51
44.835583403556797
  0
ARC
  5
1ECC
  8
0
 10
52.619855728318683
 20
12.38985627478147
 30
0.0
 40
0.0034242256053198
 50
179.4763043221796
 51
227.40470357190139
  0
ARC
  5
1ECD
  8
0
 10
52.63022856621577
 20
12.356023368432149
 30
0.0
 40
0.0039670288984571
 50
181.5930774489818
 51
269.37216245633857
  0
ARC
  5
1ECE
  8
0
 10
52.637293445367199
 20
12.37005152303475
 30
0.0
 40
0.0341127347751965
 50
331.6123778439333
 51
56.216875914278852
  0
ARC
  5
1ECF
  8
0
 10
52.663685154191043
 20
12.35496237171634
 30
0.0
 40
0.0037910913919666
 50
267.53830331724669
 51
342.67098418869517
  0
ARC
  5
1ED0
  8
0
 10
52.652189848521537
 20
12.3932180419114
 30
0.0
 40
0.0041728999013944
 50
275.07239366392997
 51
358.68554989561778
  0
ARC
  5
1ED1
  8
0
 10
52.619903859275553
 20
12.389962782601961
 30
0.0
 40
0.0035353974178646
 50
227.9987473922298
 51
275.36636591468391
  0
ARC
  5
1ED2
  8
0
 10
52.538508174832721
 20
12.452094418905601
 30
0.0
 40
0.1057222366267283
 50
295.47652695619553
 51
320.2720647029015
  0
ARC
  5
1ED3
  8
0
 10
52.592899119709507
 20
12.356622155181279
 30
0.0
 40
0.0089154973165837
 50
179.8053383933055
 51
256.40040145713061
  0
ARC
  5
1ED4
  8
0
 10
52.588443831084867
 20
12.31535881763933
 30
0.0
 40
0.0044601768766668
 50
179.8299669996035
 51
256.37577366676049
  0
ARC
  5
1ED5
  8
0
 10
52.616836393898012
 20
12.30888612192558
 30
0.0
 40
0.0029570462009502
 50
261.01133661960858
 51
4.5947894919513743
  0
ARC
  5
1ED6
  8
0
 10
52.535326292248072
 20
12.5052493895535
 30
0.0
 40
0.1830057624214018
 50
297.48411336852109
 51
303.08564929793238
  0
ARC
  5
1ED7
  8
0
 10
52.582255108430807
 20
12.404737394198939
 30
0.0
 40
0.0989272038347783
 50
292.29392264105718
 51
327.69003506794382
  0
ARC
  5
1ED8
  8
0
 10
52.326121376613941
 20
13.21457357434937
 30
0.0
 40
0.9260045411533019
 50
274.41841899443239
 51
281.5466243443779
  0
ARC
  5
1ED9
  8
0
 10
52.516563502741079
 20
12.288988369321739
 30
0.0
 40
0.0050947195266673
 50
177.09388958525079
 51
239.86813480438681
  0
ARC
  5
1EDA
  8
0
 10
52.45555672098785
 20
12.63233818764957
 30
0.0
 40
0.3643878388231518
 50
282.67592055400121
 51
296.50736370953058
  0
ARC
  5
1EDB
  8
0
 10
52.44119689020939
 20
12.5971869719423
 30
0.0
 40
0.3188203261869926
 50
282.86653734646012
 51
296.7976412985202
  0
ARC
  5
1EDC
  8
0
 10
52.40567402124838
 20
12.309647984662201
 30
0.0
 40
0.0189192206643707
 50
181.4828280031054
 51
206.8810799122169
  0
ARC
  5
1EDD
  8
0
 10
52.219477431659548
 20
12.27082528794433
 30
0.0
 40
0.055068814922013
 50
339.3954212580681
 51
355.64758999381939
  0
ARC
  5
1EDE
  8
0
 10
52.302692795572142
 20
13.43218762427006
 30
0.0
 40
1.1811665893144321
 50
268.46361189597292
 51
274.56857804989062
  0
ARC
  5
1EDF
  8
0
 10
52.393162779489828
 20
12.25713728671159
 30
0.0
 40
0.004316981059741
 50
326.80754895210691
 51
5.4355621901658386
  0
ARC
  5
1EE0
  8
0
 10
52.134270667254192
 20
12.2791105854725
 30
0.0
 40
0.006032042140546
 50
312.24235479795658
 51
3.02214071359615
  0
ARC
  5
1EE1
  8
0
 10
52.04900847620813
 20
12.30133833232442
 30
0.0
 40
0.0048737859970137
 50
292.4075350036822
 51
0.1419465685291479
  0
ARC
  5
1EE2
  8
0
 10
52.024775774151003
 20
12.29288567482833
 30
0.0
 40
0.0025967548327629
 50
170.443563946805
 51
280.09596824734649
  0
ARC
  5
1EE3
  8
0
 10
52.199999700867892
 20
12.77709260325012
 30
0.0
 40
0.5171873797192951
 50
250.24971040743881
 51
261.28027680281019
  0
ARC
  5
1EE4
  8
0
 10
52.253557108693379
 20
12.912944632587889
 30
0.0
 40
0.6462123164391062
 50
251.92446418042289
 51
259.86540535465991
  0
ARC
  5
1EE5
  8
0
 10
52.30024113465204
 20
13.37554892442134
 30
0.0
 40
1.1169488097297191
 50
261.33766520126238
 51
268.61507148986391
  0
ARC
  5
1EE6
  8
0
 10
52.328808412527877
 20
13.171751978034621
 30
0.0
 40
0.9119070769441862
 50
274.31753563490582
 51
282.35957963047468
  0
ARC
  5
1EE7
  8
0
 10
52.396951915802632
 20
12.269176476466839
 30
0.0
 40
0.0102003594088884
 50
177.51663201174881
 51
205.95544645391089
  0
ARC
  5
1EE8
  8
0
 10
52.276504394031242
 20
13.999323716549659
 30
0.0
 40
1.735887320885529
 50
269.91894005497358
 51
273.64942443103928
  0
ARC
  5
1EE9
  8
0
 10
52.103076668060737
 20
12.50207976171307
 30
0.0
 40
0.1668654037617696
 50
226.85212327824451
 51
252.853556852086
  0
ARC
  5
1EEA
  8
0
 10
52.044390968990058
 20
12.342435579449891
 30
0.0
 40
0.0094932856995937
 50
291.37117402130332
 51
1.178306965392764
  0
ARC
  5
1EEB
  8
0
 10
52.124091681136022
 20
12.613883148245341
 30
0.0
 40
0.3043488287161977
 50
243.640485227396
 51
250.44349178833971
  0
ARC
  5
1EEC
  8
0
 10
51.984792319115137
 20
12.339147861245319
 30
0.0
 40
0.0041688406125162
 50
275.02247877883792
 51
358.73546287286558
  0
ARC
  5
1EED
  8
0
 10
51.952497238168277
 20
12.33588312227287
 30
0.0
 40
0.0035227359263215
 50
222.1764556063259
 51
275.46928041423507
  0
ARC
  5
1EEE
  8
0
 10
51.979275722089973
 20
12.364216187609509
 30
0.0
 40
0.0424982930039891
 50
166.5243793503229
 51
226.24815119217311
  0
ARC
  5
1EEF
  8
0
 10
51.941912938329807
 20
12.37422991974854
 30
0.0
 40
0.0039670290156931
 50
181.59307908356681
 51
269.3721604580316
  0
ARC
  5
1EF0
  8
0
 10
51.974779724275571
 20
12.373772481924609
 30
0.0
 40
0.0044118609120146
 50
275.55363388018401
 51
350.31609675209592
  0
ARC
  5
1EF1
  8
0
 10
52.013650703366501
 20
12.364610470571099
 30
0.0
 40
0.0355339523557822
 50
166.29321855518361
 51
225.985200725304
  0
ARC
  5
1EF2
  8
0
 10
52.090618240017051
 20
12.510659499134629
 30
0.0
 40
0.2236170224329584
 50
232.78311066516051
 51
252.16953462873721
  0
ARC
  5
1EF3
  8
0
 10
52.297022311389448
 20
13.372487832316381
 30
0.0
 40
1.0848347738761199
 50
261.69330870635531
 51
268.80444744745171
  0
ARC
  5
1EF4
  8
0
 10
52.089863154137298
 20
12.40534730386819
 30
0.0
 40
0.0657955594987154
 50
190.82091424420599
 51
247.2265097459339
  0
ARC
  5
1EF5
  8
0
 10
52.106766026135539
 20
12.35841396551708
 30
0.0
 40
0.088559219158242
 50
98.342827077710055
 51
157.01542973720629
  0
ARC
  5
1EF6
  8
0
 10
52.308325236572962
 20
11.74868335317635
 30
0.0
 40
0.7295696421045183
 50
97.900262071028095
 51
107.09062401176389
  0
ARC
  5
1EF7
  8
0
 10
52.51066320001727
 20
12.41048609715806
 30
0.0
 40
0.0724633498793305
 50
292.94318937645721
 51
343.80144604228002
  0
ARC
  5
1EF8
  8
0
 10
52.53504051571133
 20
12.384574382428131
 30
0.0
 40
0.0455668088070981
 50
7.1820101177514442
 51
62.49759019301068
  0
ARC
  5
1EF9
  8
0
 10
52.310323214394053
 20
11.95181398312255
 30
0.0
 40
0.5331931058620568
 50
62.553505101094423
 51
74.638634003751946
  0
ARC
  5
1EFA
  8
0
 10
52.202211693164472
 20
12.630283708907211
 30
0.0
 40
0.2960166522737356
 50
233.28378082639759
 51
264.38369127700872
  0
ARC
  5
1EFB
  8
0
 10
52.299569815116683
 20
13.14316647835407
 30
0.0
 40
0.8172593053910029
 50
261.11620031344358
 51
284.09390478136072
  0
ARC
  5
1EFC
  8
0
 10
52.470172120174922
 20
12.490795899058909
 30
0.0
 40
0.1431353151659238
 50
281.44829584154252
 51
319.32752480077119
  0
ARC
  5
1EFD
  8
0
 10
51.378710304788612
 20
8.4316825166496852
 30
0.0
 40
0.0702534277087581
 50
62.347103001604623
 51
119.7983223065888
  0
ARC
  5
1EFE
  8
0
 10
53.226675107404439
 20
8.4313313305359419
 30
0.0
 40
0.0705614486090843
 50
60.339041824939983
 51
117.51614887295911
  0
ARC
  5
1EFF
  8
0
 10
52.30269636897976
 20
10.97174502342795
 30
0.0
 40
2.6332905637460788
 50
250.21421927603609
 51
289.78575721763951
  0
LINE
  5
1F13
  8
0
 10
59.049459558904182
 20
10.9765183690093
 30
0.0
 11
59.049459558904182
 21
11.198251735259459
 31
0.0
  0
LINE
  5
1F14
  8
0
 10
57.370603123548271
 20
8.3162521834999996
 30
0.0
 11
57.371455503348258
 21
8.2184682690999988
 31
0.0
  0
LINE
  5
1F15
  8
0
 10
56.590195895048261
 20
10.24632178630017
 30
0.0
 11
56.590195895048261
 21
10.2363218541
 31
0.0
  0
LINE
  5
1F16
  8
0
 10
56.015195895048272
 20
10.246321847381919
 30
0.0
 11
56.015195895048272
 21
10.2363218541
 31
0.0
  0
LINE
  5
1F17
  8
0
 10
57.341456689248268
 20
8.1882066524999981
 30
0.0
 11
55.263935100948267
 21
8.1882066524999981
 31
0.0
  0
LINE
  5
1F18
  8
0
 10
55.951504977548261
 20
10.2363218541
 30
0.0
 11
56.653886813948262
 21
10.2363218541
 31
0.0
  0
LINE
  5
1F19
  8
0
 10
55.951954501748268
 20
10.2463218541
 30
0.0
 11
56.655151492348281
 21
10.246321779400001
 31
0.0
  0
ARC
  5
1F1A
  8
0
 10
58.99429669805194
 20
10.980736643344409
 30
0.0
 40
0.0553239103441657
 50
285.0796317447593
 51
355.62713283172798
  0
ARC
  5
1F1B
  8
0
 10
55.951969169779026
 20
10.276336542767281
 30
0.0
 40
0.0300146922513816
 50
179.64022602069079
 51
269.97199983653411
  0
ARC
  5
1F1C
  8
0
 10
56.655152302614759
 20
10.27631974595303
 30
0.0
 40
0.0299979665639779
 50
269.99845240009699
 51
356.90577233929417
  0
ARC
  5
1F1D
  8
0
 10
55.951505220711937
 20
10.206321592138201
 30
0.0
 40
0.0300002619627862
 50
90.000464404357515
 51
179.45535898926781
  0
ARC
  5
1F1E
  8
0
 10
56.653886686539579
 20
10.20632189464787
 30
0.0
 40
0.0299999594523991
 50
0.5444146270500178
 51
89.999756667000014
  0
ARC
  5
1F23
  8
0
 10
57.339291234541442
 20
8.2203532568726754
 30
0.0
 40
0.0322194563389994
 50
273.85372776367018
 51
356.64601571511957
  0
ARC
  5
1F24
  8
0
 10
57.319682749018739
 20
8.3156584904117476
 30
0.0
 40
0.0509238354182962
 50
0.6679952251447002
 51
33.723724589428322
  0
ARC
  5
1F25
  8
0
 10
64.139977510502092
 20
13.812520840927389
 30
0.0
 40
8.708958007544453
 50
217.79042806718911
 51
218.89734650662109
  0
ARC
  5
1F26
  8
0
 10
58.886963586489898
 20
9.9523505507227465
 30
0.0
 40
2.1987661880727858
 50
187.5672797870252
 51
222.1826005732232
  0
ARC
  5
1F27
  8
0
 10
62.026815595159668
 20
10.164701251118251
 30
0.0
 40
5.3430946383568694
 50
179.55062671273581
 51
185.39006130421251
  0
LINE
  5
1F28
  8
0
 10
55.234789819748258
 20
8.3163828291000002
 30
0.0
 11
55.233937069346119
 21
8.2184682690999971
 31
0.0
  0
ARC
  5
1F29
  8
0
 10
55.285715028856863
 20
8.3156556348817947
 30
0.0
 40
0.0509304008838032
 50
146.2773433323901
 51
179.1818918624781
  0
ARC
  5
1F2A
  8
0
 10
48.465414279694443
 20
13.812520840927389
 30
0.0
 40
8.708958007544453
 50
321.10265349337891
 51
322.20957193281089
  0
ARC
  5
1F2B
  8
0
 10
53.718428203706623
 20
9.9523505507227465
 30
0.0
 40
2.1987661880727858
 50
317.81739942677677
 51
352.4327202129748
  0
ARC
  5
1F2C
  8
0
 10
50.578647587528188
 20
10.16469634625606
 30
0.0
 40
5.3430231008026441
 50
354.60991914556541
 51
0.4494299606814612
  0
ARC
  5
1F2D
  8
0
 10
59.116126534614203
 20
10.23648385191567
 30
0.0
 40
2.4313203714772289
 50
170.8504803159272
 51
179.09936042266941
  0
ARC
  5
1F2E
  8
0
 10
57.135799748770289
 20
10.45929093127949
 30
0.0
 40
0.4508663147332612
 50
86.065068296289724
 51
158.69688176315771
  0
ARC
  5
1F2F
  8
0
 10
54.177367267580962
 20
-58.68442194136685
 30
0.0
 40
69.657690622355645
 50
86.867707705878615
 51
87.540385772763315
  0
ARC
  5
1F30
  8
0
 10
58.230998906140307
 20
15.57502119794573
 30
0.0
 40
4.7123189663162091
 50
266.99024510069768
 51
279.49918596524049
  0
ARC
  5
1F31
  8
0
 10
58.990724052427623
 20
11.192932917710889
 30
0.0
 40
0.0589758386220406
 50
5.1743296345347858
 51
83.898159539236971
  0
ARC
  5
1F32
  8
0
 10
58.205584480991362
 20
17.51450024106342
 30
0.0
 40
6.306824680212463
 50
268.30980583761652
 51
276.64636003012498
  0
ARC
  5
1F33
  8
0
 10
56.543429759466072
 20
-196.14058704496321
 30
0.0
 40
207.3562596082339
 50
89.592102953137172
 51
89.948318169872479
  0
ARC
  5
1F34
  8
0
 10
56.698963804013879
 20
10.43240707970118
 30
0.0
 40
0.7838145475466525
 50
87.696404561783623
 51
159.26370405345139
  0
ARC
  5
1F35
  8
0
 10
57.450146295983679
 20
10.340420222701709
 30
0.0
 40
1.5295264049860311
 50
166.0199171138421
 51
182.39419965081339
  0
ARC
  5
1F36
  8
0
 10
57.226188041391133
 20
8.4205811354122169
 30
0.0
 40
0.0636345491348158
 50
60.359361966113887
 51
119.6528842592508
  0
ARC
  5
1F37
  8
0
 10
55.379204303236932
 20
8.420388890645027
 30
0.0
 40
0.0638019819154586
 50
60.43284668593035
 51
119.55568986653179
  0
ARC
  5
1F38
  8
0
 10
56.302696821982792
 20
11.50864903802804
 30
0.0
 40
3.1612267831708989
 50
253.61011740818279
 51
286.38985497193698
  0
ARC
  5
1F39
  8
0
 10
55.266099861289057
 20
8.2203517368686381
 30
0.0
 40
0.0322178931092641
 50
183.3514394228356
 51
266.14732261600938
  0
ARC
  5
1F3A
  8
0
 10
58.970530904545029
 20
11.02636263194718
 30
0.0
 40
0.2267612931716051
 50
83.298565881884386
 51
89.772740414118644
  0
ARC
  5
1F3B
  8
0
 10
58.975723156707573
 20
10.990892295495771
 30
0.0
 40
0.2622649812330644
 50
90.937874266540945
 51
98.812904889216512
  0
ATTDEF
  5
210A
  8
DEFPOINTS
 10
52.297055524242637
 20
8.1815919915778235
 30
0.0
 40
0.001
  1
METAL
  3

  2
MATERIAL
 70
     0
1001
AcDbAttr
1070
     0
1070
     1
  0
ATTDEF
  5
210B
  8
DEFPOINTS
 10
52.297055524242637
 20
8.1832586582444886
 30
0.0
 40
0.001
  1
BATHROOM SINK FAUCET
  3

  2
PRODUCT
 70
     0
1001
AcDbAttr
1070
     0
1070
     1
  0
ATTDEF
  5
210C
  8
DEFPOINTS
 10
52.297055524242637
 20
8.1849253249111538
 30
0.0
 40
0.001
  1
RUBICON
  3

  2
TRADENAME
 70
     0
1001
AcDbAttr
1070
     0
1070
     1
  0
ATTDEF
  5
210D
  8
DEFPOINTS
 10
52.297055524242637
 20
8.1865919915778171
 30
0.0
 40
0.001
  1
K-R76216-4D
  3

  2
MODELNUMBER
 70
     0
1001
AcDbAttr
1070
     0
1070
     1
  0
ENDSEC
  0
EOF
