  0
SECTION
  2
HEADER
  9
$ACADVER
  1
AC1009
  9
$INSBASE
 10
431.55197659063708
 20
72.772546482278386
 30
0.0
  9
$EXTMIN
 10
430.55093687433703
 20
69.412745589930296
 30
0.0
  9
$EXTMAX
 10
432.55301630693702
 20
72.781110975655125
 30
0.0
  9
$LIMMIN
 10
0.0
 20
0.0
  9
$LIMMAX
 10
11.692913385800001
 20
8.2677165353999982
  9
$ORTHOMODE
 70
     0
  9
$REGENMODE
 70
     1
  9
$FILLMODE
 70
     1
  9
$QTEXTMODE
 70
     0
  9
$MIRRTEXT
 70
     0
  9
$DRAGMODE
 70
     2
  9
$LTSCALE
 40
0.6431102362
  9
$OSMODE
 70
  3071
  9
$ATTMODE
 70
     1
  9
$TEXTSIZE
 40
0.2
  9
$TRACEWID
 40
0.05
  9
$TEXTSTYLE
  7
STANDARD
  9
$CLAYER
  8
0
  9
$CELTYPE
  6
BYLAYER
  9
$CECOLOR
 62
   256
  9
$DIMSCALE
 40
1.0
  9
$DIMASZ
 40
0.1875
  9
$DIMEXO
 40
0.0625
  9
$DIMDLI
 40
0.4443307087
  9
$DIMRND
 40
0.0
  9
$DIMDLE
 40
0.0
  9
$DIMEXE
 40
0.125
  9
$DIMTP
 40
0.01
  9
$DIMTM
 40
0.01
  9
$DIMTXT
 40
1.0
  9
$DIMCEN
 40
0.1052362205
  9
$DIMTSZ
 40
0.0
  9
$DIMTOL
 70
     1
  9
$DIMLIM
 70
     0
  9
$DIMTIH
 70
     0
  9
$DIMTOH
 70
     1
  9
$DIMSE1
 70
     0
  9
$DIMSE2
 70
     0
  9
$DIMTAD
 70
     0
  9
$DIMZIN
 70
     0
  9
$DIMBLK
  1

  9
$DIMASO
 70
     1
  9
$DIMSHO
 70
     1
  9
$DIMPOST
  1
\X
  9
$DIMAPOST
  1

  9
$DIMALT
 70
     1
  9
$DIMALTD
 70
     2
  9
$DIMALTF
 40
25.399999999999999
  9
$DIMLFAC
 40
1.0
  9
$DIMTOFL
 70
     0
  9
$DIMTVP
 40
0.0
  9
$DIMTIX
 70
     0
  9
$DIMSOXD
 70
     0
  9
$DIMSAH
 70
     0
  9
$DIMBLK1
  1

  9
$DIMBLK2
  1

  9
$DIMSTYLE
  2
STANDARD
  9
$DIMCLRD
 70
     0
  9
$DIMCLRE
 70
     0
  9
$DIMCLRT
 70
     0
  9
$DIMTFAC
 40
1.0
  9
$DIMGAP
 40
0.09
  9
$LUNITS
 70
     2
  9
$LUPREC
 70
     4
  9
$SKETCHINC
 40
0.1
  9
$FILLETRAD
 40
0.0
  9
$AUNITS
 70
     0
  9
$AUPREC
 70
     0
  9
$MENU
  1
.
  9
$ELEVATION
 40
0.0
  9
$PELEVATION
 40
0.0
  9
$THICKNESS
 40
0.0
  9
$LIMCHECK
 70
     0
  9
$BLIPMODE
 70
     0
  9
$CHAMFERA
 40
0.0
  9
$CHAMFERB
 40
0.0
  9
$SKPOLY
 70
     0
  9
$TDCREATE
 40
2458172.5207663891
  9
$TDUPDATE
 40
2458537.6423762268
  9
$TDINDWG
 40
0.223580463
  9
$TDUSRTIMER
 40
0.223580463
  9
$USRTIMER
 70
     1
  9
$ANGBASE
 50
0.0
  9
$ANGDIR
 70
     0
  9
$PDMODE
 70
     0
  9
$PDSIZE
 40
0.3125
  9
$PLINEWID
 40
0.0
  9
$COORDS
 70
     1
  9
$SPLFRAME
 70
     0
  9
$SPLINETYPE
 70
     6
  9
$SPLINESEGS
 70
     8
  9
$ATTDIA
 70
     1
  9
$ATTREQ
 70
     1
  9
$HANDLING
 70
     1
  9
$HANDSEED
  5
7914
  9
$SURFTAB1
 70
     6
  9
$SURFTAB2
 70
     6
  9
$SURFTYPE
 70
     6
  9
$SURFU
 70
     6
  9
$SURFV
 70
     6
  9
$UCSNAME
  2

  9
$UCSORG
 10
0.0
 20
0.0
 30
0.0
  9
$UCSXDIR
 10
1.0
 20
0.0
 30
0.0
  9
$UCSYDIR
 10
0.0
 20
1.0
 30
0.0
  9
$PUCSNAME
  2

  9
$PUCSORG
 10
0.0
 20
0.0
 30
0.0
  9
$PUCSXDIR
 10
1.0
 20
0.0
 30
0.0
  9
$PUCSYDIR
 10
0.0
 20
1.0
 30
0.0
  9
$USERI1
 70
     0
  9
$USERI2
 70
     0
  9
$USERI3
 70
     0
  9
$USERI4
 70
     0
  9
$USERI5
 70
     0
  9
$USERR1
 40
0.0
  9
$USERR2
 40
0.0
  9
$USERR3
 40
0.0
  9
$USERR4
 40
0.0
  9
$USERR5
 40
0.0
  9
$WORLDVIEW
 70
     1
  9
$SHADEDGE
 70
     3
  9
$SHADEDIF
 70
    70
  9
$TILEMODE
 70
     1
  9
$MAXACTVP
 70
    64
  9
$PLIMCHECK
 70
     0
  9
$PEXTMIN
 10
1.0000000000000000E+020
 20
1.0000000000000000E+020
 30
1.0000000000000000E+020
  9
$PEXTMAX
 10
-1.0000000000000000E+020
 20
-1.0000000000000000E+020
 30
-1.0000000000000000E+020
  9
$PLIMMIN
 10
0.0
 20
0.0
  9
$PLIMMAX
 10
12.0
 20
9.0
  9
$UNITMODE
 70
     0
  9
$VISRETAIN
 70
     1
  9
$PLINEGEN
 70
     0
  9
$PSLTSCALE
 70
     1
  0
ENDSEC
  0
SECTION
  2
TABLES
  0
TABLE
  2
VPORT
 70
     1
  0
VPORT
  2
*ACTIVE
 70
     0
 10
0.0
 20
0.0
 11
1.0
 21
1.0
 12
0.0
 22
0.0
 13
0.0
 23
0.0
 14
1.0
 24
1.0
 15
0.0
 25
0.0
 16
0.0
 26
0.0
 36
11.38221773507779
 17
431.55197659063708
 27
71.096928728966745
 37
0.0
 40
3.9184437490770501
 41
2.1856978085351781
 42
50.0
 43
0.0
 44
0.0
 50
0.0
 51
0.0
 71
     0
 72
   100
 73
     1
 74
     1
 75
     0
 76
     0
 77
     0
 78
     0
  0
ENDTAB
  0
TABLE
  2
LTYPE
 70
     2
  0
LTYPE
  2
CONTINUOUS
 70
     0
  3
Solid line
 72
    65
 73
     0
 40
0.0
  0
LTYPE
  2
PHANTOM2
 70
     0
  3
___ _ _ ___ _ _ ___ _ _ ___ _ _
 72
    65
 73
     6
 40
1.25
 49
0.625
 49
-0.125
 49
0.125
 49
-0.125
 49
0.125
 49
-0.125
  0
ENDTAB
  0
TABLE
  2
LAYER
 70
     2
  0
LAYER
  2
0
 70
     0
 62
   255
  6
CONTINUOUS
  0
LAYER
  2
DEFPOINTS
 70
     0
 62
     7
  6
CONTINUOUS
  0
ENDTAB
  0
TABLE
  2
STYLE
 70
     1
  0
STYLE
  2
STANDARD
 70
     0
 40
0.0
 41
0.8
 50
0.0
 71
     0
 42
0.2
  3
txt
  4

  0
ENDTAB
  0
TABLE
  2
VIEW
 70
     0
  0
ENDTAB
  0
TABLE
  2
UCS
 70
     0
  0
ENDTAB
  0
TABLE
  2
APPID
 70
    10
  0
APPID
  2
ACAD
 70
     0
  0
APPID
  2
ACAD_MLEADERVER
 70
     0
  0
APPID
  2
ACAD_EXEMPT_FROM_CAD_STANDARDS
 70
     0
  0
APPID
  2
ACAD_DSTYLE_DIMJAG
 70
     0
  0
APPID
  2
ACAD_DSTYLE_DIMTALN
 70
     0
  0
APPID
  2
ACAD_NAV_VCDISPLAY
 70
     0
  0
APPID
  2
ACAECLAYERSTANDARD
 70
     0
  0
APPID
  2
ACCMTRANSPARENCY
 70
     0
  0
APPID
  2
DCO15
 70
     0
  0
APPID
  2
ACDBATTR
 70
     0
  0
ENDTAB
  0
TABLE
  2
DIMSTYLE
 70
     2
  0
DIMSTYLE
  2
STANDARD
 70
     0
  3

  4

  5

  6

  7

 40
1.0
 41
0.1875
 42
0.0625
 43
0.38
 44
0.125
 45
0.0
 46
0.0
 47
0.01
 48
0.01
140
0.15625
141
0.09
142
0.0
143
25.399999999999999
144
1.0
145
0.0
146
1.0
147
0.09
 71
     1
 72
     0
 73
     1
 74
     1
 75
     0
 76
     0
 77
     0
 78
     4
170
     0
171
     2
172
     0
173
     0
174
     0
175
     0
176
     0
177
     0
178
     0
  0
ENDTAB
  0
ENDSEC
  0
SECTION
  2
BLOCKS
  0
BLOCK
  8
0
  2
$MODEL_SPACE
 70
     0
 10
0.0
 20
0.0
 30
0.0
  3
$MODEL_SPACE
  1

  0
ENDBLK
  5
21
  8
0
  0
BLOCK
 67
     1
  8
0
  2
$PAPER_SPACE
 70
     0
 10
0.0
 20
0.0
 30
0.0
  3
$PAPER_SPACE
  1

  0
ENDBLK
  5
1D
 67
     1
  8
0
  0
ENDSEC
  0
SECTION
  2
ENTITIES
  0
ATTDEF
  5
829
  8
DEFPOINTS
 10
431.55003442768418
 20
72.780110975655106
 30
0.0
 40
0.001
  1
K-R72788
  3

  2
MODELNUMBER
 70
     0
1001
ACDBATTR
1070
     0
1070
     1
  0
ATTDEF
  5
82A
  8
DEFPOINTS
 10
431.55003442768418
 20
72.778444308988441
 30
0.0
 40
0.001
  1
ELLISTON
  3

  2
TRADENAME
 70
     0
1001
ACDBATTR
1070
     0
1070
     1
  0
ATTDEF
  5
82B
  8
DEFPOINTS
 10
431.55003442768418
 20
72.776777642321775
 30
0.0
 40
0.001
  1
ROBE HOOK
  3

  2
PRODUCT
 70
     0
1001
ACDBATTR
1070
     0
1070
     1
  0
ATTDEF
  5
82C
  8
DEFPOINTS
 10
431.55003442768418
 20
72.77511097565511
 30
0.0
 40
0.001
  1
METAL
  3

  2
MATERIAL
 70
     0
1001
ACDBATTR
1070
     0
1070
     1
  0
LINE
  5
7859
  8
0
 10
432.5229740999871
 20
72.772546482278386
 30
0.0
 11
430.58097908128713
 21
72.772546482278386
 31
0.0
  0
ARC
  5
785A
  8
0
 10
430.58102716398651
 20
72.742448896493713
 30
0.0
 40
0.0300976241921534
 50
90.091533368120906
 51
178.73506891591899
  0
LINE
  5
785B
  8
0
 10
430.55093687433703
 20
72.743113314154243
 30
0.0
 11
430.55093687433703
 21
72.588842425578392
 31
0.0
  0
ARC
  5
785C
  8
0
 10
430.58096387076631
 20
72.58885630228869
 30
0.0
 40
0.0300269996358057
 50
180.02647873487791
 51
247.94069815454591
  0
ARC
  5
785D
  8
0
 10
430.08445365227561
 20
71.287584381720166
 30
0.0
 40
1.362757610529105
 50
34.438641762058211
 51
69.141143744888026
  0
ARC
  5
785E
  8
0
 10
430.2582590384655
 20
71.466385203655761
 30
0.0
 40
1.1193791822067749
 50
14.79939216641108
 51
31.920957121527621
  0
ARC
  5
785F
  8
0
 10
430.58199129021438
 20
71.601958296198106
 30
0.0
 40
0.7732713329473039
 50
354.73535351964028
 51
11.21210335838701
  0
ARC
  5
7860
  8
0
 10
429.34987963345242
 20
71.786731691060581
 30
0.0
 40
2.0183864798760132
 50
340.54703447343888
 51
352.72116818922319
  0
ARC
  5
7861
  8
0
 10
430.06651654567878
 20
71.532260654091459
 30
0.0
 40
1.2579120621993249
 50
326.2798921733106
 51
340.60537823948272
  0
ARC
  5
7862
  8
0
 10
431.2071894332899
 20
70.771093228395884
 30
0.0
 40
0.1134050596021999
 50
146.3409637644661
 51
176.94510627757671
  0
LINE
  5
7863
  8
0
 10
431.09394552969383
 20
70.777136889678388
 30
0.0
 11
431.10032387290801
 21
70.673999565728252
 31
0.0
  0
ARC
  5
7864
  8
0
 10
431.17367411227389
 20
70.680750608859455
 30
0.0
 40
0.0736602620032341
 50
185.2586000807263
 51
228.33738793272059
  0
ARC
  5
7865
  8
0
 10
431.35706733148868
 20
70.9283175613418
 30
0.0
 40
0.381516760507248
 50
232.47999352929131
 51
255.78862456209069
  0
ARC
  5
7866
  8
0
 10
409.1335046071693
 20
72.56768510692126
 30
0.0
 40
22.24266771740557
 50
355.91711953116942
 51
357.32860865051242
  0
ARC
  5
7867
  8
0
 10
427.76837093347228
 20
71.237517721234013
 30
0.0
 40
3.5603876565263359
 50
349.00512744908872
 51
355.91711953116942
  0
ARC
  5
7868
  8
0
 10
430.04710953758769
 20
70.759555678128805
 30
0.0
 40
1.232804746466944
 50
334.28405245891372
 51
350.61271169993819
  0
ARC
  5
7869
  8
0
 10
431.16423343705958
 20
70.814628849643384
 30
0.0
 40
0.0549451382039094
 50
159.4143858540028
 51
244.98827647643051
  0
ARC
  5
786A
  8
0
 10
431.37541571842451
 20
71.216132614331599
 30
0.0
 40
0.508544852740168
 50
242.5516322543624
 51
260.35077824620498
  0
ARC
  5
786B
  8
0
 10
431.55220714407881
 20
69.809171742802462
 30
0.0
 40
0.5767811391052938
 50
90.022902516443992
 51
119.014849488674
  0
ARC
  5
786C
  8
0
 10
431.50304106351308
 20
69.897982784508073
 30
0.0
 40
0.4752690875133552
 50
119.0246304952141
 51
136.5841871271887
  0
ARC
  5
786D
  8
0
 10
431.50799153892848
 20
69.893298763887685
 30
0.0
 40
0.4820843098875743
 50
136.58418712719089
 51
179.81397431778171
  0
ARC
  5
786E
  8
0
 10
431.44713785911
 20
69.873616292344693
 30
0.0
 40
0.4217636388217269
 50
177.11232101360901
 51
223.5840483302382
  0
ARC
  5
786F
  8
0
 10
431.57682380547237
 20
70.052705085277097
 30
0.0
 40
0.6404407838646201
 50
227.19337285274409
 51
267.77653458780088
  0
ARC
  5
7870
  8
0
 10
431.56059474066308
 20
69.717623773269409
 30
0.0
 40
0.605981705855875
 50
90.814876531521918
 51
125.6719403295884
  0
ARC
  5
7871
  8
0
 10
431.47749924122638
 20
69.839935198458718
 30
0.0
 40
0.4581790069255119
 50
126.1497509961615
 51
162.80697667897101
  0
ARC
  5
7872
  8
0
 10
431.34227471590577
 20
69.881751327629303
 30
0.0
 40
0.3166365747927655
 50
162.8026877260977
 51
177.6265717980902
  0
ARC
  5
7873
  8
0
 10
432.52292941149688
 20
72.742457128767185
 30
0.0
 40
0.0300893866966872
 50
0.7372982246326841
 51
89.914904785420006
  0
LINE
  5
7874
  8
0
 10
432.55301630693702
 20
72.742844316781913
 30
0.0
 11
432.55301630693702
 21
72.588842425578392
 31
0.0
  0
ARC
  5
7875
  8
0
 10
432.5229893105078
 20
72.58885630228869
 30
0.0
 40
0.0300269996358081
 50
292.05930184545798
 51
359.9735212651189
  0
ARC
  5
7876
  8
0
 10
433.01949952899849
 20
71.287584381720166
 30
0.0
 40
1.362757610529105
 50
110.858856255112
 51
145.56135823794179
  0
ARC
  5
7877
  8
0
 10
432.8456941428085
 20
71.466385203655761
 30
0.0
 40
1.1193791822067749
 50
148.07904287847239
 51
165.20060783358889
  0
ARC
  5
7878
  8
0
 10
432.52196189105979
 20
71.601958296198106
 30
0.0
 40
0.7732713329473039
 50
168.78789664161289
 51
185.26464648035889
  0
ARC
  5
7879
  8
0
 10
433.7540735478218
 20
71.786731691060581
 30
0.0
 40
2.0183864798760132
 50
187.27883181077681
 51
199.45296552656109
  0
ARC
  5
787A
  8
0
 10
433.03743663559533
 20
71.532260654091459
 30
0.0
 40
1.2579120621993249
 50
199.39462176051731
 51
213.7201078266894
  0
ARC
  5
787B
  8
0
 10
431.89676374798421
 20
70.771093228395884
 30
0.0
 40
0.1134050596021999
 50
3.0548937224232802
 51
33.659036235533847
  0
LINE
  5
787C
  8
0
 10
432.01000765158028
 20
70.777136889678388
 30
0.0
 11
432.0036293083661
 21
70.673999565728252
 31
0.0
  0
ARC
  5
787D
  8
0
 10
431.93027906900011
 20
70.680750608859455
 30
0.0
 40
0.0736602620032341
 50
311.66261206727938
 51
354.7413999192737
  0
ARC
  5
787E
  8
0
 10
431.74688584978537
 20
70.9283175613418
 30
0.0
 40
0.381516760507248
 50
284.21137543790928
 51
307.52000647070821
  0
ARC
  5
787F
  8
0
 10
453.97044857410469
 20
72.56768510692126
 30
0.0
 40
22.24266771740557
 50
182.67139134948749
 51
184.08288046883061
  0
ARC
  5
7880
  8
0
 10
435.33558224780182
 20
71.237517721234013
 30
0.0
 40
3.5603876565263359
 50
184.08288046883061
 51
190.99487255091131
  0
ARC
  5
7881
  8
0
 10
433.05684364368631
 20
70.759555678128805
 30
0.0
 40
1.232804746466944
 50
189.38728830006181
 51
205.71594754108631
  0
ARC
  5
7882
  8
0
 10
431.93971974421441
 20
70.814628849643384
 30
0.0
 40
0.0549451382039103
 50
295.01172352356951
 51
20.58561414599637
  0
ARC
  5
7883
  8
0
 10
431.7285374628496
 20
71.216132614331599
 30
0.0
 40
0.508544852740168
 50
279.6492217537982
 51
297.4483677456376
  0
ARC
  5
7884
  8
0
 10
431.55174603719519
 20
69.809171742802448
 30
0.0
 40
0.5767811391053093
 50
60.985150511326012
 51
89.977097483556008
  0
ARC
  5
7885
  8
0
 10
431.60091211776103
 20
69.897982784508073
 30
0.0
 40
0.4752690875133552
 50
43.41581287280907
 51
60.975369504785903
  0
ARC
  5
7886
  8
0
 10
431.59596164234563
 20
69.893298763887685
 30
0.0
 40
0.4820843098875743
 50
0.1860256822182773
 51
43.41581287280907
  0
ARC
  5
7887
  8
0
 10
431.65681532216411
 20
69.873616292344693
 30
0.0
 40
0.4217636388217269
 50
316.41595166976191
 51
2.8876789863910122
  0
ARC
  5
7888
  8
0
 10
431.55299186551491
 20
69.990313858923002
 30
0.0
 40
0.5775682689927033
 50
269.89928290969232
 51
315.13080964976399
  0
ARC
  5
7889
  8
0
 10
431.54335844061092
 20
69.717623773269395
 30
0.0
 40
0.6059817058558831
 50
54.328059670412038
 51
89.185123468478068
  0
ARC
  5
788A
  8
0
 10
431.62645394004772
 20
69.839935198458718
 30
0.0
 40
0.4581790069255119
 50
17.193023321029042
 51
53.850249003838471
  0
ARC
  5
788B
  8
0
 10
431.76167846536839
 20
69.881751327629303
 30
0.0
 40
0.3166365747927655
 50
2.373428201909805
 51
17.197312273902309
  0
LINE
  5
788C
  8
0
 10
430.55093687433703
 20
72.588842425578392
 30
0.0
 11
432.55301630693702
 21
72.588842425578392
 31
0.0
  0
ENDSEC
  0
EOF
