  0
SECTION
  2
HEADER
  9
$ACADVER
  1
AC1009
  9
$INSBASE
 10
466.2316389974892
 20
85.976031436953534
 30
0.0
  9
$EXTMIN
 10
462.85043161791879
 20
84.975097639521408
 30
0.0
  9
$EXTMAX
 10
466.24489317183418
 20
86.976967001751277
 30
0.0
  9
$LIMMIN
 10
0.0
 20
0.0
  9
$LIMMAX
 10
11.692913385800001
 20
8.2677165353999982
  9
$ORTHOMODE
 70
     0
  9
$REGENMODE
 70
     1
  9
$FILLMODE
 70
     1
  9
$QTEXTMODE
 70
     0
  9
$MIRRTEXT
 70
     0
  9
$DRAGMODE
 70
     2
  9
$LTSCALE
 40
0.6431102362
  9
$OSMODE
 70
  3071
  9
$ATTMODE
 70
     1
  9
$TEXTSIZE
 40
0.2
  9
$TRACEWID
 40
0.05
  9
$TEXTSTYLE
  7
STANDARD
  9
$CLAYER
  8
0
  9
$CELTYPE
  6
BYLAYER
  9
$CECOLOR
 62
   256
  9
$DIMSCALE
 40
1.0
  9
$DIMASZ
 40
0.1875
  9
$DIMEXO
 40
0.0625
  9
$DIMDLI
 40
0.4443307087
  9
$DIMRND
 40
0.0
  9
$DIMDLE
 40
0.0
  9
$DIMEXE
 40
0.125
  9
$DIMTP
 40
0.01
  9
$DIMTM
 40
0.01
  9
$DIMTXT
 40
1.0
  9
$DIMCEN
 40
0.1052362205
  9
$DIMTSZ
 40
0.0
  9
$DIMTOL
 70
     1
  9
$DIMLIM
 70
     0
  9
$DIMTIH
 70
     0
  9
$DIMTOH
 70
     1
  9
$DIMSE1
 70
     0
  9
$DIMSE2
 70
     0
  9
$DIMTAD
 70
     0
  9
$DIMZIN
 70
     0
  9
$DIMBLK
  1

  9
$DIMASO
 70
     1
  9
$DIMSHO
 70
     1
  9
$DIMPOST
  1
\X
  9
$DIMAPOST
  1

  9
$DIMALT
 70
     1
  9
$DIMALTD
 70
     2
  9
$DIMALTF
 40
25.399999999999999
  9
$DIMLFAC
 40
1.0
  9
$DIMTOFL
 70
     0
  9
$DIMTVP
 40
0.0
  9
$DIMTIX
 70
     0
  9
$DIMSOXD
 70
     0
  9
$DIMSAH
 70
     0
  9
$DIMBLK1
  1

  9
$DIMBLK2
  1

  9
$DIMSTYLE
  2
STANDARD
  9
$DIMCLRD
 70
     0
  9
$DIMCLRE
 70
     0
  9
$DIMCLRT
 70
     0
  9
$DIMTFAC
 40
1.0
  9
$DIMGAP
 40
0.09
  9
$LUNITS
 70
     2
  9
$LUPREC
 70
     4
  9
$SKETCHINC
 40
0.1
  9
$FILLETRAD
 40
0.0
  9
$AUNITS
 70
     0
  9
$AUPREC
 70
     0
  9
$MENU
  1
.
  9
$ELEVATION
 40
0.0
  9
$PELEVATION
 40
0.0
  9
$THICKNESS
 40
0.0
  9
$LIMCHECK
 70
     0
  9
$BLIPMODE
 70
     0
  9
$CHAMFERA
 40
0.0
  9
$CHAMFERB
 40
0.0
  9
$SKPOLY
 70
     0
  9
$TDCREATE
 40
2458172.5207663891
  9
$TDUPDATE
 40
2458530.6345049539
  9
$TDINDWG
 40
0.2626440856
  9
$TDUSRTIMER
 40
0.2626440856
  9
$USRTIMER
 70
     1
  9
$ANGBASE
 50
0.0
  9
$ANGDIR
 70
     0
  9
$PDMODE
 70
     0
  9
$PDSIZE
 40
0.3125
  9
$PLINEWID
 40
0.0
  9
$COORDS
 70
     1
  9
$SPLFRAME
 70
     0
  9
$SPLINETYPE
 70
     6
  9
$SPLINESEGS
 70
     8
  9
$ATTDIA
 70
     1
  9
$ATTREQ
 70
     1
  9
$HANDLING
 70
     1
  9
$HANDSEED
  5
7D3A
  9
$SURFTAB1
 70
     6
  9
$SURFTAB2
 70
     6
  9
$SURFTYPE
 70
     6
  9
$SURFU
 70
     6
  9
$SURFV
 70
     6
  9
$UCSNAME
  2

  9
$UCSORG
 10
0.0
 20
0.0
 30
0.0
  9
$UCSXDIR
 10
1.0
 20
0.0
 30
0.0
  9
$UCSYDIR
 10
0.0
 20
1.0
 30
0.0
  9
$PUCSNAME
  2

  9
$PUCSORG
 10
0.0
 20
0.0
 30
0.0
  9
$PUCSXDIR
 10
1.0
 20
0.0
 30
0.0
  9
$PUCSYDIR
 10
0.0
 20
1.0
 30
0.0
  9
$USERI1
 70
     0
  9
$USERI2
 70
     0
  9
$USERI3
 70
     0
  9
$USERI4
 70
     0
  9
$USERI5
 70
     0
  9
$USERR1
 40
0.0
  9
$USERR2
 40
0.0
  9
$USERR3
 40
0.0
  9
$USERR4
 40
0.0
  9
$USERR5
 40
0.0
  9
$WORLDVIEW
 70
     1
  9
$SHADEDGE
 70
     3
  9
$SHADEDIF
 70
    70
  9
$TILEMODE
 70
     1
  9
$MAXACTVP
 70
    64
  9
$PLIMCHECK
 70
     0
  9
$PEXTMIN
 10
1.0000000000000000E+020
 20
1.0000000000000000E+020
 30
1.0000000000000000E+020
  9
$PEXTMAX
 10
-1.0000000000000000E+020
 20
-1.0000000000000000E+020
 30
-1.0000000000000000E+020
  9
$PLIMMIN
 10
0.0
 20
0.0
  9
$PLIMMAX
 10
12.0
 20
9.0
  9
$UNITMODE
 70
     0
  9
$VISRETAIN
 70
     1
  9
$PLINEGEN
 70
     0
  9
$PSLTSCALE
 70
     1
  0
ENDSEC
  0
SECTION
  2
TABLES
  0
TABLE
  2
VPORT
 70
     1
  0
VPORT
  2
*ACTIVE
 70
     0
 10
0.0
 20
0.0
 11
1.0
 21
1.0
 12
0.0
 22
0.0
 13
0.0
 23
0.0
 14
1.0
 24
1.0
 15
0.0
 25
0.0
 16
0.0
 26
0.0
 36
10.88414629619146
 17
464.54766239487651
 27
85.976032320636335
 37
0.0
 40
3.9407930907933131
 41
2.0508658008657998
 42
50.0
 43
0.0
 44
0.0
 50
0.0
 51
0.0
 71
     0
 72
   100
 73
     1
 74
     1
 75
     0
 76
     0
 77
     0
 78
     0
  0
ENDTAB
  0
TABLE
  2
LTYPE
 70
     2
  0
LTYPE
  2
CONTINUOUS
 70
     0
  3
Solid line
 72
    65
 73
     0
 40
0.0
  0
LTYPE
  2
PHANTOM2
 70
     0
  3
___ _ _ ___ _ _ ___ _ _ ___ _ _
 72
    65
 73
     6
 40
1.25
 49
0.625
 49
-0.125
 49
0.125
 49
-0.125
 49
0.125
 49
-0.125
  0
ENDTAB
  0
TABLE
  2
LAYER
 70
     2
  0
LAYER
  2
0
 70
     0
 62
   255
  6
CONTINUOUS
  0
LAYER
  2
DEFPOINTS
 70
     0
 62
     7
  6
CONTINUOUS
  0
ENDTAB
  0
TABLE
  2
STYLE
 70
     1
  0
STYLE
  2
STANDARD
 70
     0
 40
0.0
 41
0.8
 50
0.0
 71
     0
 42
0.2
  3
txt
  4

  0
ENDTAB
  0
TABLE
  2
VIEW
 70
     0
  0
ENDTAB
  0
TABLE
  2
UCS
 70
     0
  0
ENDTAB
  0
TABLE
  2
APPID
 70
    10
  0
APPID
  2
ACAD
 70
     0
  0
APPID
  2
ACAD_MLEADERVER
 70
     0
  0
APPID
  2
ACAD_EXEMPT_FROM_CAD_STANDARDS
 70
     0
  0
APPID
  2
ACAD_DSTYLE_DIMJAG
 70
     0
  0
APPID
  2
ACAD_DSTYLE_DIMTALN
 70
     0
  0
APPID
  2
ACAD_NAV_VCDISPLAY
 70
     0
  0
APPID
  2
ACAECLAYERSTANDARD
 70
     0
  0
APPID
  2
ACCMTRANSPARENCY
 70
     0
  0
APPID
  2
DCO15
 70
     0
  0
APPID
  2
ACDBATTR
 70
     0
  0
ENDTAB
  0
TABLE
  2
DIMSTYLE
 70
     2
  0
DIMSTYLE
  2
STANDARD
 70
     0
  3

  4

  5

  6

  7

 40
1.0
 41
0.1875
 42
0.0625
 43
0.38
 44
0.125
 45
0.0
 46
0.0
 47
0.01
 48
0.01
140
0.15625
141
0.09
142
0.0
143
25.399999999999999
144
1.0
145
0.0
146
1.0
147
0.09
 71
     1
 72
     0
 73
     1
 74
     1
 75
     0
 76
     0
 77
     0
 78
     4
170
     0
171
     2
172
     0
173
     0
174
     0
175
     0
176
     0
177
     0
178
     0
  0
ENDTAB
  0
ENDSEC
  0
SECTION
  2
BLOCKS
  0
BLOCK
  8
0
  2
$MODEL_SPACE
 70
     0
 10
0.0
 20
0.0
 30
0.0
  3
$MODEL_SPACE
  1

  0
ENDBLK
  5
21
  8
0
  0
BLOCK
 67
     1
  8
0
  2
$PAPER_SPACE
 70
     0
 10
0.0
 20
0.0
 30
0.0
  3
$PAPER_SPACE
  1

  0
ENDBLK
  5
1D
 67
     1
  8
0
  0
ENDSEC
  0
SECTION
  2
ENTITIES
  0
ATTDEF
  5
829
  8
DEFPOINTS
 10
466.2342265051675
 20
85.979225881325874
 30
0.0
 40
0.001
  1
K-R72787
  3

  2
MODELNUMBER
 70
     0
1001
ACDBATTR
1070
     0
1070
     1
  0
ATTDEF
  5
82A
  8
DEFPOINTS
 10
466.2342265051675
 20
85.977559214659209
 30
0.0
 40
0.001
  1
ELLISTON
  3

  2
TRADENAME
 70
     0
1001
ACDBATTR
1070
     0
1070
     1
  0
ATTDEF
  5
82B
  8
DEFPOINTS
 10
466.2342265051675
 20
85.975892547992544
 30
0.0
 40
0.001
  1
TISSUE HOLDER
  3

  2
PRODUCT
 70
     0
1001
ACDBATTR
1070
     0
1070
     1
  0
ATTDEF
  5
82C
  8
DEFPOINTS
 10
466.2342265051675
 20
85.974225881325864
 30
0.0
 40
0.001
  1
METAL
  3

  2
MATERIAL
 70
     0
1001
ACDBATTR
1070
     0
1070
     1
  0
LINE
  5
7C9F
  8
0
 10
466.21195395808928
 20
86.976967001751277
 30
0.0
 11
466.05669622538932
 21
86.976967001751277
 31
0.0
  0
ARC
  5
7CA0
  8
0
 10
466.05708473991268
 20
86.937125637535118
 30
0.0
 40
0.0398432584779166
 50
90.5587041848203
 51
163.29884047637449
  0
ARC
  5
7CA1
  8
0
 10
464.531141105215
 20
87.363200227109161
 30
0.0
 40
1.5444759685797791
 50
312.62522949466751
 51
344.42756650751608
  0
ARC
  5
7CA2
  8
0
 10
464.21152469203179
 20
87.909159848249686
 30
0.0
 40
2.166818285171038
 50
272.33966734538222
 51
309.0651082476341
  0
ARC
  5
7CA3
  8
0
 10
463.82490744733008
 20
91.514852131980959
 30
0.0
 40
5.790226528550825
 50
269.32747798877898
 51
274.7062742841855
  0
ARC
  5
7CA4
  8
0
 10
463.72323706356281
 20
87.976020969472401
 30
0.0
 40
2.2512488663277339
 50
262.22348772166328
 51
270.85791967150891
  0
ARC
  5
7CA5
  8
0
 10
463.23223475883248
 20
85.511088414270986
 30
0.0
 40
0.3818031409136721
 50
35.341958238885333
 51
324.65804176111402
  0
ARC
  5
7CA6
  8
0
 10
466.21164638937591
 20
86.956974643256643
 30
0.0
 40
0.0199947242214329
 50
0.8335903260928506
 51
89.118613288168987
  0
LINE
  5
7CA7
  8
0
 10
466.2316389974892
 20
86.957265534153535
 30
0.0
 11
466.2316389974892
 21
84.994797339753546
 31
0.0
  0
ARC
  5
7CA8
  8
0
 10
466.21072346469049
 20
84.995993732270875
 30
0.0
 40
0.0209497223684458
 50
274.10056348579678
 51
356.72618305532143
  0
LINE
  5
7CA9
  8
0
 10
466.21222152180582
 20
84.975097639521408
 30
0.0
 11
466.17886052691932
 21
84.975097639521408
 31
0.0
  0
ARC
  5
7CAA
  8
0
 10
466.09214798397829
 20
83.586288536853885
 30
0.0
 40
1.391513488528028
 50
86.427283049549175
 51
92.259820849915116
  0
ARC
  5
7CAB
  8
0
 10
466.03580041488573
 20
85.016233478717425
 30
0.0
 40
0.0395413020290416
 50
243.85518332040101
 51
272.14311828870262
  0
ARC
  5
7CAC
  8
0
 10
465.26337863797562
 20
83.431636706558152
 30
0.0
 40
1.723292459643615
 50
64.016402880764332
 51
73.930641826307067
  0
ARC
  5
7CAD
  8
0
 10
464.15812932096799
 20
78.631003987454946
 30
0.0
 40
6.647639782839982
 50
76.230408501144467
 51
87.238361720922967
  0
ARC
  5
7CAE
  8
0
 10
463.71415247634519
 20
74.184258391750348
 30
0.0
 40
11.11297635638169
 50
86.056514600392603
 51
89.779372059854666
  0
ARC
  5
7CAF
  8
0
 10
463.49064747600528
 20
86.028081078484405
 30
0.0
 40
0.2916390570664573
 50
207.6164736965855
 51
255.70182019009491
  0
LINE
  5
7CB0
  8
0
 10
466.01892220238932
 20
86.948575789320742
 30
0.0
 11
466.01837687735542
 21
84.980737916937272
 31
0.0
  0
ARC
  5
7CB2
  8
0
 10
463.72323706356281
 20
83.046155859069614
 30
0.0
 40
2.2512488663277339
 50
89.142080328491076
 51
97.776512278336668
  0
ARC
  5
7CB3
  8
0
 10
463.49064747600522
 20
84.994095750057625
 30
0.0
 40
0.2916390570664545
 50
104.29817980990509
 51
152.3827314303677
  0
ENDSEC
  0
EOF
