  0
SECTION
  2
HEADER
  9
$ACADVER
  1
AC1009
  9
$INSBASE
 10
302.97983405569141
 20
18.12391113148897
 30
0.0
  9
$EXTMIN
 10
289.97884858764138
 20
14.745811131488971
 30
0.0
  9
$EXTMAX
 10
315.98081952374139
 20
18.130602051387399
 30
0.0
  9
$LIMMIN
 10
0.0
 20
0.0
  9
$LIMMAX
 10
11.692913385800001
 20
8.2677165353999982
  9
$ORTHOMODE
 70
     1
  9
$REGENMODE
 70
     1
  9
$FILLMODE
 70
     1
  9
$QTEXTMODE
 70
     0
  9
$MIRRTEXT
 70
     0
  9
$DRAGMODE
 70
     2
  9
$LTSCALE
 40
0.6431102362
  9
$OSMODE
 70
  3071
  9
$ATTMODE
 70
     1
  9
$TEXTSIZE
 40
0.2
  9
$TRACEWID
 40
0.05
  9
$TEXTSTYLE
  7
STANDARD
  9
$CLAYER
  8
0
  9
$CELTYPE
  6
BYLAYER
  9
$CECOLOR
 62
   256
  9
$DIMSCALE
 40
1.0
  9
$DIMASZ
 40
0.1875
  9
$DIMEXO
 40
0.0625
  9
$DIMDLI
 40
0.4443307087
  9
$DIMRND
 40
0.0
  9
$DIMDLE
 40
0.0
  9
$DIMEXE
 40
0.125
  9
$DIMTP
 40
0.01
  9
$DIMTM
 40
0.01
  9
$DIMTXT
 40
2.0
  9
$DIMCEN
 40
0.1052362205
  9
$DIMTSZ
 40
0.0
  9
$DIMTOL
 70
     1
  9
$DIMLIM
 70
     0
  9
$DIMTIH
 70
     1
  9
$DIMTOH
 70
     1
  9
$DIMSE1
 70
     0
  9
$DIMSE2
 70
     0
  9
$DIMTAD
 70
     0
  9
$DIMZIN
 70
     0
  9
$DIMBLK
  1

  9
$DIMASO
 70
     1
  9
$DIMSHO
 70
     1
  9
$DIMPOST
  1
\X
  9
$DIMAPOST
  1

  9
$DIMALT
 70
     1
  9
$DIMALTD
 70
     2
  9
$DIMALTF
 40
25.399999999999999
  9
$DIMLFAC
 40
1.0
  9
$DIMTOFL
 70
     0
  9
$DIMTVP
 40
0.0
  9
$DIMTIX
 70
     0
  9
$DIMSOXD
 70
     0
  9
$DIMSAH
 70
     0
  9
$DIMBLK1
  1

  9
$DIMBLK2
  1

  9
$DIMSTYLE
  2
STANDARD
  9
$DIMCLRD
 70
     0
  9
$DIMCLRE
 70
     0
  9
$DIMCLRT
 70
     0
  9
$DIMTFAC
 40
1.0
  9
$DIMGAP
 40
0.09
  9
$LUNITS
 70
     2
  9
$LUPREC
 70
     4
  9
$SKETCHINC
 40
0.1
  9
$FILLETRAD
 40
0.0
  9
$AUNITS
 70
     0
  9
$AUPREC
 70
     0
  9
$MENU
  1
.
  9
$ELEVATION
 40
0.0
  9
$PELEVATION
 40
0.0
  9
$THICKNESS
 40
0.0
  9
$LIMCHECK
 70
     0
  9
$BLIPMODE
 70
     0
  9
$CHAMFERA
 40
0.0
  9
$CHAMFERB
 40
0.0
  9
$SKPOLY
 70
     0
  9
$TDCREATE
 40
2458060.4683680669
  9
$TDUPDATE
 40
2458527.741012292
  9
$TDINDWG
 40
0.2425558218
  9
$TDUSRTIMER
 40
0.2425558218
  9
$USRTIMER
 70
     1
  9
$ANGBASE
 50
0.0
  9
$ANGDIR
 70
     0
  9
$PDMODE
 70
     0
  9
$PDSIZE
 40
0.3125
  9
$PLINEWID
 40
0.0
  9
$COORDS
 70
     1
  9
$SPLFRAME
 70
     0
  9
$SPLINETYPE
 70
     6
  9
$SPLINESEGS
 70
     8
  9
$ATTDIA
 70
     1
  9
$ATTREQ
 70
     1
  9
$HANDLING
 70
     1
  9
$HANDSEED
  5
4392
  9
$SURFTAB1
 70
     6
  9
$SURFTAB2
 70
     6
  9
$SURFTYPE
 70
     6
  9
$SURFU
 70
     6
  9
$SURFV
 70
     6
  9
$UCSNAME
  2

  9
$UCSORG
 10
0.0
 20
0.0
 30
0.0
  9
$UCSXDIR
 10
1.0
 20
0.0
 30
0.0
  9
$UCSYDIR
 10
0.0
 20
1.0
 30
0.0
  9
$PUCSNAME
  2

  9
$PUCSORG
 10
0.0
 20
0.0
 30
0.0
  9
$PUCSXDIR
 10
1.0
 20
0.0
 30
0.0
  9
$PUCSYDIR
 10
0.0
 20
1.0
 30
0.0
  9
$USERI1
 70
     0
  9
$USERI2
 70
     0
  9
$USERI3
 70
     0
  9
$USERI4
 70
     0
  9
$USERI5
 70
     0
  9
$USERR1
 40
0.0
  9
$USERR2
 40
0.0
  9
$USERR3
 40
0.0
  9
$USERR4
 40
0.0
  9
$USERR5
 40
0.0
  9
$WORLDVIEW
 70
     1
  9
$SHADEDGE
 70
     3
  9
$SHADEDIF
 70
    70
  9
$TILEMODE
 70
     1
  9
$MAXACTVP
 70
    64
  9
$PLIMCHECK
 70
     0
  9
$PEXTMIN
 10
1.0000000000000000E+020
 20
1.0000000000000000E+020
 30
1.0000000000000000E+020
  9
$PEXTMAX
 10
-1.0000000000000000E+020
 20
-1.0000000000000000E+020
 30
-1.0000000000000000E+020
  9
$PLIMMIN
 10
0.0
 20
0.0
  9
$PLIMMAX
 10
12.0
 20
9.0
  9
$UNITMODE
 70
     0
  9
$VISRETAIN
 70
     1
  9
$PLINEGEN
 70
     0
  9
$PSLTSCALE
 70
     1
  0
ENDSEC
  0
SECTION
  2
TABLES
  0
TABLE
  2
VPORT
 70
     1
  0
VPORT
  2
*ACTIVE
 70
     0
 10
0.0
 20
0.0
 11
1.0
 21
1.0
 12
0.0
 22
0.0
 13
0.0
 23
0.0
 14
1.0
 24
1.0
 15
0.0
 25
0.0
 16
0.0
 26
0.0
 36
74.199201243143889
 17
302.97983405569141
 27
16.438206591438188
 37
0.0
 40
26.23048080978112
 41
2.1150837988826812
 42
50.0
 43
0.0
 44
0.0
 50
0.0
 51
0.0
 71
     0
 72
   100
 73
     1
 74
     1
 75
     0
 76
     0
 77
     0
 78
     0
  0
ENDTAB
  0
TABLE
  2
LTYPE
 70
     3
  0
LTYPE
  2
CONTINUOUS
 70
     0
  3
Solid line
 72
    65
 73
     0
 40
0.0
  0
LTYPE
  2
PHANTOM2
 70
     0
  3
___ _ _ ___ _ _ ___ _ _ ___ _ _
 72
    65
 73
     6
 40
1.25
 49
0.625
 49
-0.125
 49
0.125
 49
-0.125
 49
0.125
 49
-0.125
  0
ENDTAB
  0
TABLE
  2
LAYER
 70
     2
  0
LAYER
  2
0
 70
     0
 62
   255
  6
CONTINUOUS
  0
LAYER
  2
DEFPOINTS
 70
     0
 62
     7
  6
CONTINUOUS
  0
ENDTAB
  0
TABLE
  2
STYLE
 70
     1
  0
STYLE
  2
STANDARD
 70
     0
 40
0.0
 41
0.8
 50
0.0
 71
     0
 42
0.2
  3
txt
  4

  0
ENDTAB
  0
TABLE
  2
VIEW
 70
     0
  0
ENDTAB
  0
TABLE
  2
UCS
 70
     0
  0
ENDTAB
  0
TABLE
  2
APPID
 70
     9
  0
APPID
  2
ACAD
 70
     0
  0
APPID
  2
ACAD_MLEADERVER
 70
     0
  0
APPID
  2
ACAD_EXEMPT_FROM_CAD_STANDARDS
 70
     0
  0
APPID
  2
ACAD_NAV_VCDISPLAY
 70
     0
  0
APPID
  2
ACAECLAYERSTANDARD
 70
     0
  0
APPID
  2
ACCMTRANSPARENCY
 70
     0
  0
APPID
  2
ACAD_DSTYLE_DIMJAG
 70
     0
  0
APPID
  2
ACAD_DSTYLE_DIMTALN
 70
     0
  0
APPID
  2
ACDBATTR
 70
     0
  0
ENDTAB
  0
TABLE
  2
DIMSTYLE
 70
     2
  0
DIMSTYLE
  2
STANDARD
 70
     0
  3

  4

  5

  6

  7

 40
1.0
 41
0.1875
 42
0.0625
 43
0.38
 44
0.125
 45
0.0
 46
0.0
 47
0.01
 48
0.01
140
0.15625
141
0.09
142
0.0
143
25.399999999999999
144
1.0
145
0.0
146
1.0
147
0.09
 71
     1
 72
     0
 73
     1
 74
     1
 75
     0
 76
     0
 77
     0
 78
     4
170
     0
171
     2
172
     0
173
     0
174
     0
175
     0
176
     0
177
     0
178
     0
  0
ENDTAB
  0
ENDSEC
  0
SECTION
  2
BLOCKS
  0
BLOCK
  8
0
  2
$MODEL_SPACE
 70
     0
 10
0.0
 20
0.0
 30
0.0
  3
$MODEL_SPACE
  1

  0
ENDBLK
  5
21
  8
0
  0
BLOCK
 67
     1
  8
0
  2
$PAPER_SPACE
 70
     0
 10
0.0
 20
0.0
 30
0.0
  3
$PAPER_SPACE
  1

  0
ENDBLK
  5
1D
 67
     1
  8
0
  0
ENDSEC
  0
SECTION
  2
ENTITIES
  0
ATTDEF
  5
3930
  8
DEFPOINTS
 10
302.9768279631503
 20
18.129602051387401
 30
0.0
 40
0.001
  1
K-R72785
  3

  2
MODELNUMBER
 70
     0
1001
ACDBATTR
1070
     0
1070
     1
  0
ATTDEF
  5
3931
  8
DEFPOINTS
 10
302.9768279631503
 20
18.127935384720729
 30
0.0
 40
0.001
  1
ELLISTON
  3

  2
TRADENAME
 70
     0
1001
ACDBATTR
1070
     0
1070
     1
  0
ATTDEF
  5
3932
  8
DEFPOINTS
 10
302.9768279631503
 20
18.126268718054071
 30
0.0
 40
0.001
  1
TOWEL BAR
  3

  2
PRODUCT
 70
     0
1001
ACDBATTR
1070
     0
1070
     1
  0
ATTDEF
  5
3933
  8
DEFPOINTS
 10
302.9768279631503
 20
18.124602051387399
 30
0.0
 40
0.001
  1
METAL
  3

  2
MATERIAL
 70
     0
1001
ACDBATTR
1070
     0
1070
     1
  0
LINE
  5
4288
  8
0
 10
289.97884858764138
 20
17.94035254748897
 30
0.0
 11
289.97884858764138
 21
18.104226092088972
 31
0.0
  0
LINE
  5
4289
  8
0
 10
292.1766095738414
 20
14.81131270628897
 30
0.0
 11
313.78305853754142
 21
14.81131270628897
 31
0.0
  0
LINE
  5
428A
  8
0
 10
292.1766095738414
 20
15.43650955658897
 30
0.0
 11
313.78305853754142
 21
15.43650955658897
 31
0.0
  0
LINE
  5
428B
  8
0
 10
291.96100989834139
 20
18.12391113148897
 30
0.0
 11
289.99853362694142
 21
18.12391113148897
 31
0.0
  0
ARC
  5
428C
  8
0
 10
290.0011890910406
 20
18.101570628103332
 30
0.0
 40
0.0224977683583625
 50
96.778556528211809
 51
173.221443763114
  0
LINE
  5
428D
  8
0
 10
292.1766095738414
 20
14.775158592988969
 30
0.0
 11
292.1766095738414
 21
15.47566518818897
 31
0.0
  0
LINE
  5
428E
  8
0
 10
292.14695411154139
 20
14.745811131488971
 30
0.0
 11
291.89242647642618
 21
14.745811131488971
 31
0.0
  0
ARC
  5
428F
  8
0
 10
292.1443724614881
 20
14.77807695441841
 30
0.0
 40
0.0323689395302282
 50
274.5745991942062
 51
354.82722754583591
  0
LINE
  5
4290
  8
0
 10
292.14695411154139
 20
15.505670534788971
 30
0.0
 11
291.89242647642618
 21
15.505670534788971
 31
0.0
  0
ARC
  5
4291
  8
0
 10
292.14298256788533
 20
15.472087799984861
 30
0.0
 40
0.0338167596900703
 50
6.0725358367614941
 51
83.255442973527195
  0
LINE
  5
4292
  8
0
 10
291.87266488804141
 20
15.4949965037138
 30
0.0
 11
291.87266488804141
 21
14.746817592142159
 31
0.0
  0
ARC
  5
4293
  8
0
 10
290.02623205431991
 20
17.944704903240481
 30
0.0
 40
0.0475829372260893
 50
185.24811362453551
 51
232.45045287116039
  0
ARC
  5
4294
  8
0
 10
288.72668277478351
 20
16.42994838205718
 30
0.0
 40
1.9483119187451889
 50
10.081949503412631
 51
49.297715380859877
  0
ARC
  5
4295
  8
0
 10
305.00600579698278
 20
20.02316046654634
 30
0.0
 40
14.72472567153061
 50
192.75972705271619
 51
197.91608675053899
  0
ARC
  5
4296
  8
0
 10
292.25497857421692
 20
15.9592829750727
 30
0.0
 40
1.343030814951947
 50
200.2933151399628
 51
233.51315222712111
  0
ARC
  5
4297
  8
0
 10
291.92423906108371
 20
15.62810201089688
 30
0.0
 40
0.8827922304058015
 50
237.99469113613429
 51
266.65077934713861
  0
LINE
  5
4298
  8
0
 10
289.99723276351142
 20
17.90697988438475
 30
0.0
 11
291.96231076177139
 21
17.90697988438475
 31
0.0
  0
ARC
  5
4299
  8
0
 10
291.90050080152378
 20
15.467091937480591
 30
0.0
 40
0.0394145010886002
 50
101.8211112354298
 51
134.92943170018239
  0
LINE
  5
429A
  8
0
 10
291.98069493764137
 20
17.94035254748897
 30
0.0
 11
291.98069493764137
 21
18.104226092088972
 31
0.0
  0
ARC
  5
429B
  8
0
 10
291.95835443424221
 20
18.101570628103239
 30
0.0
 40
0.0224977683584421
 50
6.7785562370935164
 51
83.221443471814894
  0
ARC
  5
429C
  8
0
 10
291.93331147096291
 20
17.944704903240481
 30
0.0
 40
0.0475829372260893
 50
307.54954712883949
 51
354.75188637546432
  0
ARC
  5
429D
  8
0
 10
291.68597961352231
 20
15.79456184639688
 30
0.0
 40
0.3529742005573696
 50
249.5775728354765
 51
301.93063060575128
  0
ARC
  5
429E
  8
0
 10
291.92858140066818
 20
16.010925420601449
 30
0.0
 40
0.6581500019515706
 50
181.95087136169059
 51
236.23746991069649
  0
ARC
  5
429F
  8
0
 10
294.96289488245219
 20
16.127655766652691
 30
0.0
 40
3.6947027269040928
 50
170.90507276603489
 51
182.15815995747329
  0
ARC
  5
42A0
  8
0
 10
293.6068393693505
 20
16.327800796059961
 30
0.0
 40
2.3241189244965939
 50
145.36143216481281
 51
170.4927825358161
  0
ARC
  5
42A1
  8
0
 10
292.57320183885997
 20
17.005798088289051
 30
0.0
 40
1.0887224337179611
 50
124.1324713422857
 51
143.7986359016279
  0
LINE
  5
42A2
  8
0
 10
315.98081952374139
 20
17.94035254748897
 30
0.0
 11
315.98081952374139
 21
18.104226092088972
 31
0.0
  0
LINE
  5
42A3
  8
0
 10
313.99865821304138
 20
18.12391113148897
 30
0.0
 11
315.9611344844414
 21
18.12391113148897
 31
0.0
  0
ARC
  5
42A4
  8
0
 10
315.95847902034222
 20
18.1015706281033
 30
0.0
 40
0.0224977683583781
 50
6.7785562369488801
 51
83.221443471795666
  0
LINE
  5
42A5
  8
0
 10
313.78305853754142
 20
14.775158592988969
 30
0.0
 11
313.78305853754142
 21
15.47566518818897
 31
0.0
  0
LINE
  5
42A6
  8
0
 10
313.81271399984138
 20
14.745811131488971
 30
0.0
 11
314.06724163495659
 21
14.745811131488971
 31
0.0
  0
ARC
  5
42A7
  8
0
 10
313.81529564989472
 20
14.77807695441842
 30
0.0
 40
0.0323689395302359
 50
185.17277245416901
 51
265.42540080577749
  0
LINE
  5
42A8
  8
0
 10
313.81271399984138
 20
15.505670534788971
 30
0.0
 11
314.06724163495659
 21
15.505670534788971
 31
0.0
  0
ARC
  5
42A9
  8
0
 10
313.81668554349761
 20
15.472087799984861
 30
0.0
 40
0.0338167596900703
 50
96.744557026472805
 51
173.9274641632382
  0
LINE
  5
42AA
  8
0
 10
314.08700322334141
 20
15.4949965037138
 30
0.0
 11
314.08700322334141
 21
14.746817592142159
 31
0.0
  0
ARC
  5
42AB
  8
0
 10
315.93343605706292
 20
17.944704903240481
 30
0.0
 40
0.0475829372260893
 50
307.54954712883949
 51
354.75188637546432
  0
ARC
  5
42AC
  8
0
 10
317.23298533659931
 20
16.42994838205718
 30
0.0
 40
1.9483119187451889
 50
130.7022846191401
 51
169.91805049658731
  0
ARC
  5
42AD
  8
0
 10
300.95366231439999
 20
20.02316046654634
 30
0.0
 40
14.72472567153061
 50
342.08391324946098
 51
347.2402729472837
  0
ARC
  5
42AE
  8
0
 10
313.7046895371659
 20
15.9592829750727
 30
0.0
 40
1.343030814951947
 50
306.486847772879
 51
339.70668486003723
  0
ARC
  5
42AF
  8
0
 10
314.03542905029917
 20
15.62810201089688
 30
0.0
 40
0.8827922304058015
 50
273.3492206528615
 51
302.00530886386582
  0
LINE
  5
42B0
  8
0
 10
315.96243534787141
 20
17.90697988438475
 30
0.0
 11
313.99735734961138
 21
17.90697988438475
 31
0.0
  0
ARC
  5
42B1
  8
0
 10
314.05916730985899
 20
15.467091937480591
 30
0.0
 40
0.0394145010886002
 50
45.070568299817602
 51
78.178888764570132
  0
LINE
  5
42B2
  8
0
 10
313.97897317374139
 20
17.94035254748897
 30
0.0
 11
313.97897317374139
 21
18.104226092088972
 31
0.0
  0
ARC
  5
42B3
  8
0
 10
314.00131367714067
 20
18.101570628103179
 30
0.0
 40
0.022497768358517
 50
96.778556528456605
 51
173.2214437628059
  0
ARC
  5
42B4
  8
0
 10
314.02635664041992
 20
17.944704903240481
 30
0.0
 40
0.0475829372260893
 50
185.24811362453551
 51
232.45045287116039
  0
ARC
  5
42B5
  8
0
 10
314.27368849786058
 20
15.79456184639688
 30
0.0
 40
0.3529742005573696
 50
238.0693693942487
 51
290.42242716452341
  0
ARC
  5
42B6
  8
0
 10
314.03108671071459
 20
16.010925420601449
 30
0.0
 40
0.6581500019515706
 50
303.7625300893036
 51
358.04912863830913
  0
ARC
  5
42B7
  8
0
 10
310.99677322893058
 20
16.127655766652691
 30
0.0
 40
3.6947027269040928
 50
357.84184004252683
 51
9.0949272339650538
  0
ARC
  5
42B8
  8
0
 10
312.35282874203227
 20
16.327800796059961
 30
0.0
 40
2.3241189244965939
 50
9.5072174641839133
 51
34.638567835186997
  0
ARC
  5
42B9
  8
0
 10
313.3864662725228
 20
17.005798088289051
 30
0.0
 40
1.0887224337179611
 50
36.201364098372053
 51
55.867528657714303
  0
LINE
  5
42BB
  8
0
 10
291.89242647642618
 20
14.745811131488971
 30
0.0
 11
291.87266488804141
 21
14.746817592142159
 31
0.0
  0
LINE
  5
42BC
  8
0
 10
314.06724163495659
 20
14.745811131488971
 30
0.0
 11
314.08700322334141
 21
14.746817592142159
 31
0.0
  0
ENDSEC
  0
EOF
