  0
SECTION
  2
HEADER
  9
$ACADVER
  1
AC1009
  9
$INSBASE
 10
299.06441246822618
 20
21.127742748772441
 30
0.0
  9
$EXTMIN
 10
286.06342700017632
 20
20.12681957377243
 30
0.0
  9
$EXTMAX
 10
312.06539793627633
 20
22.128665923772441
 30
0.0
  9
$LIMMIN
 10
0.0
 20
0.0
  9
$LIMMAX
 10
11.692913385800001
 20
8.2677165353999982
  9
$ORTHOMODE
 70
     1
  9
$REGENMODE
 70
     1
  9
$FILLMODE
 70
     1
  9
$QTEXTMODE
 70
     0
  9
$MIRRTEXT
 70
     0
  9
$DRAGMODE
 70
     2
  9
$LTSCALE
 40
0.6431102362
  9
$OSMODE
 70
  3071
  9
$ATTMODE
 70
     1
  9
$TEXTSIZE
 40
0.2
  9
$TRACEWID
 40
0.05
  9
$TEXTSTYLE
  7
STANDARD
  9
$CLAYER
  8
0
  9
$CELTYPE
  6
BYLAYER
  9
$CECOLOR
 62
   256
  9
$DIMSCALE
 40
1.0
  9
$DIMASZ
 40
0.1875
  9
$DIMEXO
 40
0.0625
  9
$DIMDLI
 40
0.4443307087
  9
$DIMRND
 40
0.0
  9
$DIMDLE
 40
0.0
  9
$DIMEXE
 40
0.125
  9
$DIMTP
 40
0.01
  9
$DIMTM
 40
0.01
  9
$DIMTXT
 40
2.0
  9
$DIMCEN
 40
0.1052362205
  9
$DIMTSZ
 40
0.0
  9
$DIMTOL
 70
     1
  9
$DIMLIM
 70
     0
  9
$DIMTIH
 70
     1
  9
$DIMTOH
 70
     1
  9
$DIMSE1
 70
     0
  9
$DIMSE2
 70
     0
  9
$DIMTAD
 70
     0
  9
$DIMZIN
 70
     0
  9
$DIMBLK
  1

  9
$DIMASO
 70
     1
  9
$DIMSHO
 70
     1
  9
$DIMPOST
  1
\X
  9
$DIMAPOST
  1

  9
$DIMALT
 70
     1
  9
$DIMALTD
 70
     2
  9
$DIMALTF
 40
25.399999999999999
  9
$DIMLFAC
 40
1.0
  9
$DIMTOFL
 70
     0
  9
$DIMTVP
 40
0.0
  9
$DIMTIX
 70
     0
  9
$DIMSOXD
 70
     0
  9
$DIMSAH
 70
     0
  9
$DIMBLK1
  1

  9
$DIMBLK2
  1

  9
$DIMSTYLE
  2
STANDARD
  9
$DIMCLRD
 70
     0
  9
$DIMCLRE
 70
     0
  9
$DIMCLRT
 70
     0
  9
$DIMTFAC
 40
1.0
  9
$DIMGAP
 40
0.09
  9
$LUNITS
 70
     2
  9
$LUPREC
 70
     4
  9
$SKETCHINC
 40
0.1
  9
$FILLETRAD
 40
0.0
  9
$AUNITS
 70
     0
  9
$AUPREC
 70
     0
  9
$MENU
  1
.
  9
$ELEVATION
 40
0.0
  9
$PELEVATION
 40
0.0
  9
$THICKNESS
 40
0.0
  9
$LIMCHECK
 70
     0
  9
$BLIPMODE
 70
     0
  9
$CHAMFERA
 40
0.0
  9
$CHAMFERB
 40
0.0
  9
$SKPOLY
 70
     0
  9
$TDCREATE
 40
2458060.4683680669
  9
$TDUPDATE
 40
2458529.6659402782
  9
$TDINDWG
 40
0.2415469676
  9
$TDUSRTIMER
 40
0.2415469676
  9
$USRTIMER
 70
     1
  9
$ANGBASE
 50
0.0
  9
$ANGDIR
 70
     0
  9
$PDMODE
 70
     0
  9
$PDSIZE
 40
0.3125
  9
$PLINEWID
 40
0.0
  9
$COORDS
 70
     1
  9
$SPLFRAME
 70
     0
  9
$SPLINETYPE
 70
     6
  9
$SPLINESEGS
 70
     8
  9
$ATTDIA
 70
     1
  9
$ATTREQ
 70
     1
  9
$HANDLING
 70
     1
  9
$HANDSEED
  5
442D
  9
$SURFTAB1
 70
     6
  9
$SURFTAB2
 70
     6
  9
$SURFTYPE
 70
     6
  9
$SURFU
 70
     6
  9
$SURFV
 70
     6
  9
$UCSNAME
  2

  9
$UCSORG
 10
0.0
 20
0.0
 30
0.0
  9
$UCSXDIR
 10
1.0
 20
0.0
 30
0.0
  9
$UCSYDIR
 10
0.0
 20
1.0
 30
0.0
  9
$PUCSNAME
  2

  9
$PUCSORG
 10
0.0
 20
0.0
 30
0.0
  9
$PUCSXDIR
 10
1.0
 20
0.0
 30
0.0
  9
$PUCSYDIR
 10
0.0
 20
1.0
 30
0.0
  9
$USERI1
 70
     0
  9
$USERI2
 70
     0
  9
$USERI3
 70
     0
  9
$USERI4
 70
     0
  9
$USERI5
 70
     0
  9
$USERR1
 40
0.0
  9
$USERR2
 40
0.0
  9
$USERR3
 40
0.0
  9
$USERR4
 40
0.0
  9
$USERR5
 40
0.0
  9
$WORLDVIEW
 70
     1
  9
$SHADEDGE
 70
     3
  9
$SHADEDIF
 70
    70
  9
$TILEMODE
 70
     1
  9
$MAXACTVP
 70
    64
  9
$PLIMCHECK
 70
     0
  9
$PEXTMIN
 10
1.0000000000000000E+020
 20
1.0000000000000000E+020
 30
1.0000000000000000E+020
  9
$PEXTMAX
 10
-1.0000000000000000E+020
 20
-1.0000000000000000E+020
 30
-1.0000000000000000E+020
  9
$PLIMMIN
 10
0.0
 20
0.0
  9
$PLIMMAX
 10
12.0
 20
9.0
  9
$UNITMODE
 70
     0
  9
$VISRETAIN
 70
     1
  9
$PLINEGEN
 70
     0
  9
$PSLTSCALE
 70
     1
  0
ENDSEC
  0
SECTION
  2
TABLES
  0
TABLE
  2
VPORT
 70
     1
  0
VPORT
  2
*ACTIVE
 70
     0
 10
0.0
 20
0.0
 11
1.0
 21
1.0
 12
0.0
 22
0.0
 13
0.0
 23
0.0
 14
1.0
 24
1.0
 15
0.0
 25
0.0
 16
0.0
 26
0.0
 36
73.796034762824178
 17
299.06441246822618
 27
21.127725864777378
 37
0.0
 40
26.078876501446331
 41
2.1150837988826812
 42
50.0
 43
0.0
 44
0.0
 50
0.0
 51
0.0
 71
     0
 72
   100
 73
     1
 74
     1
 75
     0
 76
     0
 77
     0
 78
     0
  0
ENDTAB
  0
TABLE
  2
LTYPE
 70
     2
  0
LTYPE
  2
CONTINUOUS
 70
     0
  3
Solid line
 72
    65
 73
     0
 40
0.0
  0
LTYPE
  2
PHANTOM2
 70
     0
  3
___ _ _ ___ _ _ ___ _ _ ___ _ _
 72
    65
 73
     6
 40
1.25
 49
0.625
 49
-0.125
 49
0.125
 49
-0.125
 49
0.125
 49
-0.125
  0
ENDTAB
  0
TABLE
  2
LAYER
 70
     2
  0
LAYER
  2
0
 70
     0
 62
   255
  6
CONTINUOUS
  0
LAYER
  2
DEFPOINTS
 70
     0
 62
     7
  6
CONTINUOUS
  0
ENDTAB
  0
TABLE
  2
STYLE
 70
     1
  0
STYLE
  2
STANDARD
 70
     0
 40
0.0
 41
0.8
 50
0.0
 71
     0
 42
0.2
  3
txt
  4

  0
ENDTAB
  0
TABLE
  2
VIEW
 70
     0
  0
ENDTAB
  0
TABLE
  2
UCS
 70
     0
  0
ENDTAB
  0
TABLE
  2
APPID
 70
     9
  0
APPID
  2
ACAD
 70
     0
  0
APPID
  2
ACAD_MLEADERVER
 70
     0
  0
APPID
  2
ACAD_EXEMPT_FROM_CAD_STANDARDS
 70
     0
  0
APPID
  2
ACAD_NAV_VCDISPLAY
 70
     0
  0
APPID
  2
ACAECLAYERSTANDARD
 70
     0
  0
APPID
  2
ACCMTRANSPARENCY
 70
     0
  0
APPID
  2
ACAD_DSTYLE_DIMJAG
 70
     0
  0
APPID
  2
ACAD_DSTYLE_DIMTALN
 70
     0
  0
APPID
  2
ACDBATTR
 70
     0
  0
ENDTAB
  0
TABLE
  2
DIMSTYLE
 70
     1
  0
DIMSTYLE
  2
STANDARD
 70
     0
  3

  4

  5

  6

  7

 40
1.0
 41
0.1875
 42
0.0625
 43
0.38
 44
0.125
 45
0.0
 46
0.0
 47
0.01
 48
0.01
140
0.15625
141
0.09
142
0.0
143
25.399999999999999
144
1.0
145
0.0
146
1.0
147
0.09
 71
     1
 72
     0
 73
     1
 74
     1
 75
     0
 76
     0
 77
     0
 78
     4
170
     0
171
     2
172
     0
173
     0
174
     0
175
     0
176
     0
177
     0
178
     0
  0
ENDTAB
  0
ENDSEC
  0
SECTION
  2
BLOCKS
  0
BLOCK
  8
0
  2
$MODEL_SPACE
 70
     0
 10
0.0
 20
0.0
 30
0.0
  3
$MODEL_SPACE
  1

  0
ENDBLK
  5
21
  8
0
  0
BLOCK
 67
     1
  8
0
  2
$PAPER_SPACE
 70
     0
 10
0.0
 20
0.0
 30
0.0
  3
$PAPER_SPACE
  1

  0
ENDBLK
  5
1D
 67
     1
  8
0
  0
ENDSEC
  0
SECTION
  2
ENTITIES
  0
ATTDEF
  5
3930
  8
DEFPOINTS
 10
299.06009965685013
 20
21.126322677257221
 30
0.0
 40
0.001
  1
K-R72785
  3

  2
MODELNUMBER
 70
     0
1001
ACDBATTR
1070
     0
1070
     1
  0
ATTDEF
  5
3931
  8
DEFPOINTS
 10
299.06009965685013
 20
21.124656010590549
 30
0.0
 40
0.001
  1
ELLISTON
  3

  2
TRADENAME
 70
     0
1001
ACDBATTR
1070
     0
1070
     1
  0
ATTDEF
  5
3932
  8
DEFPOINTS
 10
299.06009965685013
 20
21.12298934392388
 30
0.0
 40
0.001
  1
TOWEL BAR
  3

  2
PRODUCT
 70
     0
1001
ACDBATTR
1070
     0
1070
     1
  0
ATTDEF
  5
3933
  8
DEFPOINTS
 10
299.06009965685013
 20
21.121322677257218
 30
0.0
 40
0.001
  1
METAL
  3

  2
MATERIAL
 70
     0
1001
ACDBATTR
1070
     0
1070
     1
  0
LINE
  5
4384
  8
0
 10
288.26118798637629
 20
20.313894884172431
 30
0.0
 11
288.26118798637629
 21
21.014401479372431
 31
0.0
  0
LINE
  5
4385
  8
0
 10
309.8676369500763
 20
20.351548689172429
 30
0.0
 11
288.26118798637629
 21
20.351548689172429
 31
0.0
  0
LINE
  5
4386
  8
0
 10
309.8676369500763
 20
20.976745539572441
 30
0.0
 11
288.26118798637629
 21
20.976745539572441
 31
0.0
  0
ARC
  5
4387
  8
0
 10
287.06435017517629
 20
21.127742748772441
 30
0.0
 40
1.0009231750000001
 50
355.22127349723132
 51
311.0231836841848
  0
ARC
  5
4388
  8
0
 10
286.98200375314548
 20
20.153089603186931
 30
0.0
 40
0.0230353728661815
 50
273.50842519838659
 51
303.63243762880148
  0
ARC
  5
4389
  8
0
 10
287.06461360119459
 20
19.972952066972852
 30
0.0
 40
0.1754614789499553
 50
66.769110068423615
 51
113.45952235259
  0
ARC
  5
438A
  8
0
 10
287.14731626786971
 20
20.15409298085337
 30
0.0
 40
0.0240481590857301
 50
235.86614595675289
 51
265.64879661986049
  0
ARC
  5
438B
  8
0
 10
287.06435274484039
 20
21.142476916556831
 30
0.0
 40
0.9960472101787598
 50
268.61604577251762
 51
271.40951327039249
  0
LINE
  5
438C
  8
0
 10
288.23153252407627
 20
20.284168620872428
 30
0.0
 11
287.97700488896112
 21
20.284168620872428
 31
0.0
  0
ARC
  5
438D
  8
0
 10
288.22816079378879
 20
20.31718786710341
 30
0.0
 40
0.0331909503749563
 50
275.83049701819698
 51
354.30613075817831
  0
ARC
  5
438E
  8
0
 10
287.9794566504014
 20
20.331383436006838
 30
0.0
 40
0.0472784295671517
 50
241.9760168656988
 51
267.02742619180702
  0
ARC
  5
438F
  8
0
 10
287.1801601603882
 20
18.456566637405309
 30
0.0
 40
1.9909914087997631
 50
67.026857650938553
 51
90.912430697263929
  0
LINE
  5
4390
  8
0
 10
288.23153252407627
 20
21.044357993872431
 30
0.0
 11
287.97700488896112
 21
21.044357993872431
 31
0.0
  0
ARC
  5
4391
  8
0
 10
288.22766703708328
 20
21.010874378600779
 30
0.0
 40
0.0337060006727748
 50
6.0066050574181586
 51
83.414689965535615
  0
ARC
  5
4392
  8
0
 10
287.98143808707789
 20
20.992001659137099
 30
0.0
 40
0.0525436868944449
 50
94.839893879516467
 51
117.4174337565282
  0
LINE
  5
4393
  8
0
 10
287.95724330057618
 20
21.038643393009231
 30
0.0
 11
287.95724330057618
 21
20.289648354937292
 31
0.0
  0
ARC
  5
4394
  8
0
 10
287.18016291810733
 20
22.871710963327601
 30
0.0
 40
1.990977307296846
 50
269.08748346879139
 51
292.97322818300682
  0
LINE
  5
4395
  8
0
 10
309.8676369500763
 20
20.313894884172431
 30
0.0
 11
309.8676369500763
 21
21.014401479372431
 31
0.0
  0
ARC
  5
4396
  8
0
 10
311.06447476127619
 20
21.127742748772441
 30
0.0
 40
1.0009231750000001
 50
228.9768163158125
 51
184.77872650276851
  0
ARC
  5
4397
  8
0
 10
311.146821183307
 20
20.153089603186931
 30
0.0
 40
0.0230353728661815
 50
236.36756237119849
 51
266.49157480161341
  0
ARC
  5
4398
  8
0
 10
311.06421133525788
 20
19.972952066972852
 30
0.0
 40
0.1754614789499553
 50
66.540477647409986
 51
113.2308899315734
  0
ARC
  5
4399
  8
0
 10
310.98150866858288
 20
20.15409298085337
 30
0.0
 40
0.0240481590857301
 50
274.3512033801394
 51
304.13385404324418
  0
ARC
  5
439A
  8
0
 10
311.06447219161208
 20
21.142476916556831
 30
0.0
 40
0.9960472101787598
 50
268.59048672960751
 51
271.38395422748238
  0
LINE
  5
439B
  8
0
 10
309.89729241237632
 20
20.284168620872428
 30
0.0
 11
310.15182004749141
 21
20.284168620872428
 31
0.0
  0
ARC
  5
439C
  8
0
 10
309.90066414266369
 20
20.31718786710341
 30
0.0
 40
0.0331909503749599
 50
185.69386924182641
 51
264.16950298179643
  0
ARC
  5
439D
  8
0
 10
310.14936828605107
 20
20.33138343600681
 30
0.0
 40
0.0472784295671237
 50
272.97257380818002
 51
298.0239831343082
  0
ARC
  5
439E
  8
0
 10
310.94866477606428
 20
18.456566637405452
 30
0.0
 40
1.9909914087996261
 50
89.087569302732803
 51
112.9731423490615
  0
LINE
  5
439F
  8
0
 10
309.89729241237632
 20
21.044357993872431
 30
0.0
 11
310.15182004749141
 21
21.044357993872431
 31
0.0
  0
ARC
  5
43A0
  8
0
 10
309.9011578993692
 20
21.010874378600771
 30
0.0
 40
0.0337060006727779
 50
96.585310034464385
 51
173.99339494257759
  0
ARC
  5
43A1
  8
0
 10
310.14738684937458
 20
20.99200165913712
 30
0.0
 40
0.0525436868944311
 50
62.582566243468307
 51
85.160106120486816
  0
LINE
  5
43A2
  8
0
 10
310.17158163587618
 20
21.038643393009231
 30
0.0
 11
310.17158163587618
 21
20.289648354937292
 31
0.0
  0
ARC
  5
43A3
  8
0
 10
310.94866201834532
 20
22.871710963327601
 30
0.0
 40
1.990977307296846
 50
247.0267718169932
 51
270.91251653120861
  0
ARC
  5
43A5
  8
0
 10
286.92329108719611
 20
20.664145873973261
 30
0.0
 40
0.3125996655991763
 50
43.921142973899812
 51
316.0788570261002
  0
ARC
  5
43A6
  8
0
 10
311.20553384925648
 20
20.664145873973261
 30
0.0
 40
0.3125996655991763
 50
223.92114297390009
 51
136.07885702609991
  0
ENDSEC
  0
EOF
