  0
SECTION
  2
HEADER
  9
$ACADVER
  1
AC1009
  9
$INSBASE
 10
0.0
 20
0.0
 30
0.0
  9
$EXTMIN
 10
-6.125
 20
-5.5407859444488556
 30
0.0
  9
$EXTMAX
 10
6.125
 20
0.001
 30
0.0
  9
$LIMMIN
 10
0.0
 20
0.0
  9
$LIMMAX
 10
12.0
 20
9.0
  9
$ORTHOMODE
 70
     0
  9
$REGENMODE
 70
     1
  9
$FILLMODE
 70
     1
  9
$QTEXTMODE
 70
     0
  9
$MIRRTEXT
 70
     1
  9
$DRAGMODE
 70
     2
  9
$LTSCALE
 40
1.0
  9
$OSMODE
 70
    37
  9
$ATTMODE
 70
     1
  9
$TEXTSIZE
 40
0.001
  9
$TRACEWID
 40
0.05
  9
$TEXTSTYLE
  7
STANDARD
  9
$CLAYER
  8
0
  9
$CELTYPE
  6
BYLAYER
  9
$CECOLOR
 62
   256
  9
$DIMSCALE
 40
1.0
  9
$DIMASZ
 40
0.18
  9
$DIMEXO
 40
0.0625
  9
$DIMDLI
 40
0.38
  9
$DIMRND
 40
0.0
  9
$DIMDLE
 40
0.0
  9
$DIMEXE
 40
0.18
  9
$DIMTP
 40
0.0
  9
$DIMTM
 40
0.0
  9
$DIMTXT
 40
0.18
  9
$DIMCEN
 40
0.09
  9
$DIMTSZ
 40
0.0
  9
$DIMTOL
 70
     0
  9
$DIMLIM
 70
     0
  9
$DIMTIH
 70
     1
  9
$DIMTOH
 70
     1
  9
$DIMSE1
 70
     0
  9
$DIMSE2
 70
     0
  9
$DIMTAD
 70
     0
  9
$DIMZIN
 70
     0
  9
$DIMBLK
  1

  9
$DIMASO
 70
     1
  9
$DIMSHO
 70
     1
  9
$DIMPOST
  1

  9
$DIMAPOST
  1

  9
$DIMALT
 70
     0
  9
$DIMALTD
 70
     2
  9
$DIMALTF
 40
25.399999999999999
  9
$DIMLFAC
 40
1.0
  9
$DIMTOFL
 70
     0
  9
$DIMTVP
 40
0.0
  9
$DIMTIX
 70
     0
  9
$DIMSOXD
 70
     0
  9
$DIMSAH
 70
     0
  9
$DIMBLK1
  1

  9
$DIMBLK2
  1

  9
$DIMSTYLE
  2
STANDARD
  9
$DIMCLRD
 70
     0
  9
$DIMCLRE
 70
     0
  9
$DIMCLRT
 70
     0
  9
$DIMTFAC
 40
1.0
  9
$DIMGAP
 40
0.09
  9
$LUNITS
 70
     2
  9
$LUPREC
 70
     4
  9
$SKETCHINC
 40
0.1
  9
$FILLETRAD
 40
0.0
  9
$AUNITS
 70
     0
  9
$AUPREC
 70
     0
  9
$MENU
  1
.
  9
$ELEVATION
 40
0.0
  9
$PELEVATION
 40
0.0
  9
$THICKNESS
 40
0.0
  9
$LIMCHECK
 70
     0
  9
$BLIPMODE
 70
     0
  9
$CHAMFERA
 40
0.5
  9
$CHAMFERB
 40
0.5
  9
$SKPOLY
 70
     0
  9
$TDCREATE
 40
2451380.555432396
  9
$TDUPDATE
 40
2456700.4317565048
  9
$TDINDWG
 40
2.5403812037
  9
$TDUSRTIMER
 40
2.5403723495000001
  9
$USRTIMER
 70
     1
  9
$ANGBASE
 50
0.0
  9
$ANGDIR
 70
     0
  9
$PDMODE
 70
     0
  9
$PDSIZE
 40
0.0
  9
$PLINEWID
 40
0.0
  9
$COORDS
 70
     1
  9
$SPLFRAME
 70
     0
  9
$SPLINETYPE
 70
     6
  9
$SPLINESEGS
 70
     8
  9
$ATTDIA
 70
     0
  9
$ATTREQ
 70
     1
  9
$HANDLING
 70
     1
  9
$HANDSEED
  5
346
  9
$SURFTAB1
 70
     6
  9
$SURFTAB2
 70
     6
  9
$SURFTYPE
 70
     6
  9
$SURFU
 70
     6
  9
$SURFV
 70
     6
  9
$UCSNAME
  2

  9
$UCSORG
 10
0.0
 20
0.0
 30
0.0
  9
$UCSXDIR
 10
1.0
 20
0.0
 30
0.0
  9
$UCSYDIR
 10
0.0
 20
1.0
 30
0.0
  9
$PUCSNAME
  2

  9
$PUCSORG
 10
0.0
 20
0.0
 30
0.0
  9
$PUCSXDIR
 10
1.0
 20
0.0
 30
0.0
  9
$PUCSYDIR
 10
0.0
 20
1.0
 30
0.0
  9
$USERI1
 70
     0
  9
$USERI2
 70
     0
  9
$USERI3
 70
     0
  9
$USERI4
 70
     0
  9
$USERI5
 70
     0
  9
$USERR1
 40
0.0
  9
$USERR2
 40
0.0
  9
$USERR3
 40
0.0
  9
$USERR4
 40
0.0
  9
$USERR5
 40
0.0
  9
$WORLDVIEW
 70
     1
  9
$SHADEDGE
 70
     3
  9
$SHADEDIF
 70
    70
  9
$TILEMODE
 70
     1
  9
$MAXACTVP
 70
    64
  9
$PLIMCHECK
 70
     0
  9
$PEXTMIN
 10
1.0000000000000000E+020
 20
1.0000000000000000E+020
 30
1.0000000000000000E+020
  9
$PEXTMAX
 10
-1.0000000000000000E+020
 20
-1.0000000000000000E+020
 30
-1.0000000000000000E+020
  9
$PLIMMIN
 10
0.0
 20
0.0
  9
$PLIMMAX
 10
12.0
 20
9.0
  9
$UNITMODE
 70
     0
  9
$VISRETAIN
 70
     1
  9
$PLINEGEN
 70
     0
  9
$PSLTSCALE
 70
     1
  0
ENDSEC
  0
SECTION
  2
TABLES
  0
TABLE
  2
VPORT
 70
     1
  0
VPORT
  2
*ACTIVE
 70
     0
 10
0.0
 20
0.0
 11
1.0
 21
1.0
 12
6.4983432561940679
 22
9.8143225657798716
 13
0.0
 23
0.0
 14
0.5
 24
0.5
 15
0.5
 25
0.5
 16
0.0
 26
0.0
 36
1.0
 17
0.0
 27
0.0
 37
0.0
 40
58.434452573625727
 41
1.1829652996845419
 42
50.0
 43
0.0
 44
0.0
 50
0.0
 51
0.0
 71
     0
 72
  5500
 73
     1
 74
     1
 75
     0
 76
     0
 77
     0
 78
     0
  0
ENDTAB
  0
TABLE
  2
LTYPE
 70
     2
  0
LTYPE
  2
CONTINUOUS
 70
     0
  3
Solid line
 72
    65
 73
     0
 40
0.0
  0
LTYPE
  2
PHANTOM2
 70
     0
  3
Phantom (.5x) ___ _ _ ___ _ _ ___ _ _ ___ _ _
 72
    65
 73
     6
 40
1.25
 49
0.625
 49
-0.125
 49
0.125
 49
-0.125
 49
0.125
 49
-0.125
  0
ENDTAB
  0
TABLE
  2
LAYER
 70
     2
  0
LAYER
  2
0
 70
     0
 62
     7
  6
CONTINUOUS
  0
LAYER
  2
DEFPOINTS
 70
     0
 62
     7
  6
CONTINUOUS
  0
ENDTAB
  0
TABLE
  2
STYLE
 70
     1
  0
STYLE
  2
STANDARD
 70
     0
 40
0.0
 41
1.0
 50
0.0
 71
     0
 42
0.001
  3
txt
  4

  0
ENDTAB
  0
TABLE
  2
VIEW
 70
     0
  0
ENDTAB
  0
TABLE
  2
UCS
 70
     0
  0
ENDTAB
  0
TABLE
  2
APPID
 70
     4
  0
APPID
  2
ACAD
 70
     0
  0
APPID
  2
ACAD_NAV_VCDISPLAY
 70
     0
  0
APPID
  2
AcDbAttr
 70
     0
  0
APPID
  2
ACAD_MLEADERVER
 70
     0
  0
ENDTAB
  0
TABLE
  2
DIMSTYLE
 70
     1
  0
DIMSTYLE
  2
STANDARD
 70
     0
  3

  4

  5

  6

  7

 40
1.0
 41
0.18
 42
0.0625
 43
0.38
 44
0.18
 45
0.0
 46
0.0
 47
0.0
 48
0.0
140
0.18
141
0.09
142
0.0
143
25.399999999999999
144
1.0
145
0.0
146
1.0
147
0.09
 71
     0
 72
     0
 73
     1
 74
     1
 75
     0
 76
     0
 77
     0
 78
     0
170
     0
171
     2
172
     0
173
     0
174
     0
175
     0
176
     0
177
     0
178
     0
  0
ENDTAB
  0
ENDSEC
  0
SECTION
  2
BLOCKS
  0
BLOCK
  8
0
  2
$MODEL_SPACE
 70
     2
 10
0.0
 20
0.0
 30
0.0
  3
$MODEL_SPACE
  1

  0
ENDBLK
  5
16
  8
0
  0
BLOCK
 67
     1
  8
0
  2
$PAPER_SPACE
 70
     0
 10
0.0
 20
0.0
 30
0.0
  3
$PAPER_SPACE
  1

  0
ENDBLK
  5
1D
 67
     1
  8
0
  0
ENDSEC
  0
SECTION
  2
ENTITIES
  0
POLYLINE
  5
71
  8
0
 66
     1
 10
0.0
 20
0.0
 30
0.0
 70
     1
  0
VERTEX
  5
E6
  8
0
 10
-3.46875
 20
-2.8209999999999971
 30
0.0
 42
-0.4142135623730953
  0
VERTEX
  5
E7
  8
0
 10
-3.4827499999999811
 20
-2.8350000000000071
 30
0.0
  0
VERTEX
  5
E8
  8
0
 10
-6.0829999999999984
 20
-2.8350000000000071
 30
0.0
 42
-0.4142135623731048
  0
VERTEX
  5
E9
  8
0
 10
-6.125
 20
-2.7930000000000059
 30
0.0
  0
VERTEX
  5
EA
  8
0
 10
-6.125
 20
-2.4445414261239469
 30
0.0
  0
VERTEX
  5
EB
  8
0
 10
-3.46875
 20
-2.4445414261239469
 30
0.0
  0
SEQEND
  5
EC
  8
0
  0
POLYLINE
  5
72
  8
0
 66
     1
 10
0.0
 20
0.0
 30
0.0
  0
VERTEX
  5
73
  8
0
 10
-3.46875
 20
-0.208421170912942
 30
0.0
  0
VERTEX
  5
74
  8
0
 10
-3.46875
 20
-2.418263617081549
 30
0.0
  0
VERTEX
  5
75
  8
0
 10
-4.53125
 20
-2.418263617081549
 30
0.0
  0
VERTEX
  5
76
  8
0
 10
-4.53125
 20
-0.208421170912942
 30
0.0
  0
SEQEND
  5
77
  8
0
  0
LINE
  5
78
  8
0
 10
-4.53125
 20
-2.4445414261239469
 30
0.0
 11
-4.53125
 21
-2.8350000000000071
 31
0.0
  0
POLYLINE
  5
79
  8
0
 66
     1
 10
0.0
 20
0.0
 30
0.0
  0
VERTEX
  5
7A
  8
0
 10
-3.494656952866392
 20
-2.418263617081549
 30
0.0
  0
VERTEX
  5
7B
  8
0
 10
-3.494656952866392
 20
-2.4445414261239469
 30
0.0
  0
SEQEND
  5
7C
  8
0
  0
POLYLINE
  5
7D
  8
0
 66
     1
 10
0.0
 20
0.0
 30
0.0
 70
     1
  0
VERTEX
  5
ED
  8
0
 10
-5.0
 20
-0.208421170912942
 30
0.0
  0
VERTEX
  5
EE
  8
0
 10
-3.0
 20
-0.208421170912942
 30
0.0
  0
VERTEX
  5
EF
  8
0
 10
-3.0
 20
0.0
 30
0.0
  0
VERTEX
  5
F0
  8
0
 10
-5.0
 20
0.0
 30
0.0
  0
SEQEND
  5
F1
  8
0
  0
POLYLINE
  5
7E
  8
0
 66
     1
 10
0.0
 20
0.0
 30
0.0
  0
VERTEX
  5
7F
  8
0
 10
-4.5053430471336071
 20
-2.418263617081549
 30
0.0
  0
VERTEX
  5
80
  8
0
 10
-4.5053430471336071
 20
-2.4445414261239469
 30
0.0
  0
SEQEND
  5
81
  8
0
  0
POLYLINE
  5
82
  8
0
 66
     1
 10
0.0
 20
0.0
 30
0.0
 70
     1
  0
VERTEX
  5
F2
  8
0
 10
3.46875
 20
-2.8209999999999971
 30
0.0
 42
0.4142135623730953
  0
VERTEX
  5
F3
  8
0
 10
3.4827499999999811
 20
-2.8350000000000071
 30
0.0
  0
VERTEX
  5
F4
  8
0
 10
6.0829999999999984
 20
-2.8350000000000071
 30
0.0
 42
0.4142135623731048
  0
VERTEX
  5
F5
  8
0
 10
6.125
 20
-2.7930000000000059
 30
0.0
  0
VERTEX
  5
F6
  8
0
 10
6.125
 20
-2.4445414261239469
 30
0.0
  0
VERTEX
  5
F7
  8
0
 10
3.46875
 20
-2.4445414261239469
 30
0.0
  0
SEQEND
  5
F8
  8
0
  0
POLYLINE
  5
83
  8
0
 66
     1
 10
0.0
 20
0.0
 30
0.0
  0
VERTEX
  5
84
  8
0
 10
3.46875
 20
-0.208421170912942
 30
0.0
  0
VERTEX
  5
85
  8
0
 10
3.46875
 20
-2.418263617081549
 30
0.0
  0
VERTEX
  5
86
  8
0
 10
4.53125
 20
-2.418263617081549
 30
0.0
  0
VERTEX
  5
87
  8
0
 10
4.53125
 20
-0.208421170912942
 30
0.0
  0
SEQEND
  5
88
  8
0
  0
LINE
  5
89
  8
0
 10
4.53125
 20
-2.4445414261239469
 30
0.0
 11
4.53125
 21
-2.8350000000000071
 31
0.0
  0
POLYLINE
  5
8A
  8
0
 66
     1
 10
0.0
 20
0.0
 30
0.0
  0
VERTEX
  5
8B
  8
0
 10
3.494656952866392
 20
-2.418263617081549
 30
0.0
  0
VERTEX
  5
8C
  8
0
 10
3.494656952866392
 20
-2.4445414261239469
 30
0.0
  0
SEQEND
  5
8D
  8
0
  0
POLYLINE
  5
8E
  8
0
 66
     1
 10
0.0
 20
0.0
 30
0.0
 70
     1
  0
VERTEX
  5
F9
  8
0
 10
5.0
 20
-0.208421170912942
 30
0.0
  0
VERTEX
  5
FA
  8
0
 10
3.0
 20
-0.208421170912942
 30
0.0
  0
VERTEX
  5
FB
  8
0
 10
3.0
 20
0.0
 30
0.0
  0
VERTEX
  5
FC
  8
0
 10
5.0
 20
0.0
 30
0.0
  0
SEQEND
  5
FD
  8
0
  0
POLYLINE
  5
8F
  8
0
 66
     1
 10
0.0
 20
0.0
 30
0.0
  0
VERTEX
  5
90
  8
0
 10
4.5053430471336071
 20
-2.418263617081549
 30
0.0
  0
VERTEX
  5
91
  8
0
 10
4.5053430471336071
 20
-2.4445414261239469
 30
0.0
  0
SEQEND
  5
92
  8
0
  0
LINE
  5
93
  8
0
 10
0.5000000000000071
 20
-5.2988853298862182
 30
0.0
 11
0.5
 21
-0.4641604735925285
 31
0.0
  0
LINE
  5
94
  8
0
 10
-0.5000000000000071
 20
-5.2988853298862031
 30
0.0
 11
-0.5
 21
-0.4641604735925001
 31
0.0
  0
POLYLINE
  5
95
  8
0
 66
     1
 10
0.0
 20
0.0
 30
0.0
  0
VERTEX
  5
FE
  8
0
 10
-0.790210607644009
 20
-0.1768765761689321
 30
0.0
 42
-0.318963490853176
  0
VERTEX
  5
FF
  8
0
 10
-0.5581978294961801
 20
-0.4641604735925285
 30
0.0
  0
VERTEX
  5
100
  8
0
 10
0.0
 20
-0.4641604735925285
 30
0.0
  0
VERTEX
  5
101
  8
0
 10
0.5581978294961801
 20
-0.4641604735925285
 30
0.0
 42
-0.318963490853176
  0
VERTEX
  5
102
  8
0
 10
0.790210607644009
 20
-0.1768765761689321
 30
0.0
  0
SEQEND
  5
103
  8
0
  0
POLYLINE
  5
96
  8
0
 66
     1
 10
0.0
 20
0.0
 30
0.0
 70
     1
  0
VERTEX
  5
104
  8
0
 10
0.7902106076440134
 20
-0.1768765761689224
 30
0.0
  0
VERTEX
  5
105
  8
0
 10
0.9799999999999897
 20
-0.1768765761689121
 30
0.0
 42
0.4142135623730951
  0
VERTEX
  5
106
  8
0
 10
1.0
 20
-0.1568765761689121
 30
0.0
  0
VERTEX
  5
107
  8
0
 10
1.0
 20
0.0
 30
0.0
  0
VERTEX
  5
108
  8
0
 10
-1.0
 20
0.0
 30
0.0
  0
VERTEX
  5
109
  8
0
 10
-1.0
 20
-0.1568765761689121
 30
0.0
 42
0.4142135623730951
  0
VERTEX
  5
10A
  8
0
 10
-0.9799999999999897
 20
-0.1768765761689121
 30
0.0
  0
VERTEX
  5
10B
  8
0
 10
-0.7902106076440134
 20
-0.1768765761689224
 30
0.0
  0
VERTEX
  5
10C
  8
0
 10
0.0
 20
-0.1768765761689224
 30
0.0
  0
SEQEND
  5
10D
  8
0
  0
POLYLINE
  5
97
  8
0
 10
-0.5
 20
-5.2988853298862031
 30
0.0
 66
     1
 70
     8
  0
VERTEX
  8
0
  5
13E
 10
-0.500000
 20
-5.29889
 30
0.000000
  70
    32
  0
VERTEX
  8
0
  5
13F
 10
-0.499849
 20
-5.30482
 30
0.000000
  70
    32
  0
VERTEX
  8
0
  5
140
 10
-0.499398
 20
-5.31075
 30
0.000000
  70
    32
  0
VERTEX
  8
0
  5
141
 10
-0.498645
 20
-5.31668
 30
0.000000
  70
    32
  0
VERTEX
  8
0
  5
142
 10
-0.497592
 20
-5.32260
 30
0.000000
  70
    32
  0
VERTEX
  8
0
  5
143
 10
-0.496240
 20
-5.32850
 30
0.000000
  70
    32
  0
VERTEX
  8
0
  5
144
 10
-0.494588
 20
-5.33438
 30
0.000000
  70
    32
  0
VERTEX
  8
0
  5
145
 10
-0.492639
 20
-5.34024
 30
0.000000
  70
    32
  0
VERTEX
  8
0
  5
146
 10
-0.490393
 20
-5.34608
 30
0.000000
  70
    32
  0
VERTEX
  8
0
  5
147
 10
-0.487851
 20
-5.35189
 30
0.000000
  70
    32
  0
VERTEX
  8
0
  5
148
 10
-0.485016
 20
-5.35766
 30
0.000000
  70
    32
  0
VERTEX
  8
0
  5
149
 10
-0.481888
 20
-5.36340
 30
0.000000
  70
    32
  0
VERTEX
  8
0
  5
14A
 10
-0.478470
 20
-5.36911
 30
0.000000
  70
    32
  0
VERTEX
  8
0
  5
14B
 10
-0.474764
 20
-5.37477
 30
0.000000
  70
    32
  0
VERTEX
  8
0
  5
14C
 10
-0.470772
 20
-5.38038
 30
0.000000
  70
    32
  0
VERTEX
  8
0
  5
14D
 10
-0.466496
 20
-5.38594
 30
0.000000
  70
    32
  0
VERTEX
  8
0
  5
14E
 10
-0.461940
 20
-5.39146
 30
0.000000
  70
    32
  0
VERTEX
  8
0
  5
14F
 10
-0.457105
 20
-5.39691
 30
0.000000
  70
    32
  0
VERTEX
  8
0
  5
150
 10
-0.451995
 20
-5.40231
 30
0.000000
  70
    32
  0
VERTEX
  8
0
  5
151
 10
-0.446612
 20
-5.40765
 30
0.000000
  70
    32
  0
VERTEX
  8
0
  5
152
 10
-0.440961
 20
-5.41292
 30
0.000000
  70
    32
  0
VERTEX
  8
0
  5
153
 10
-0.435043
 20
-5.41812
 30
0.000000
  70
    32
  0
VERTEX
  8
0
  5
154
 10
-0.428864
 20
-5.42325
 30
0.000000
  70
    32
  0
VERTEX
  8
0
  5
155
 10
-0.422427
 20
-5.42830
 30
0.000000
  70
    32
  0
VERTEX
  8
0
  5
156
 10
-0.415735
 20
-5.43328
 30
0.000000
  70
    32
  0
VERTEX
  8
0
  5
157
 10
-0.408792
 20
-5.43817
 30
0.000000
  70
    32
  0
VERTEX
  8
0
  5
158
 10
-0.401604
 20
-5.44299
 30
0.000000
  70
    32
  0
VERTEX
  8
0
  5
159
 10
-0.394173
 20
-5.44771
 30
0.000000
  70
    32
  0
VERTEX
  8
0
  5
15A
 10
-0.386505
 20
-5.45235
 30
0.000000
  70
    32
  0
VERTEX
  8
0
  5
15B
 10
-0.378604
 20
-5.45689
 30
0.000000
  70
    32
  0
VERTEX
  8
0
  5
15C
 10
-0.370476
 20
-5.46134
 30
0.000000
  70
    32
  0
VERTEX
  8
0
  5
15D
 10
-0.362124
 20
-5.46569
 30
0.000000
  70
    32
  0
VERTEX
  8
0
  5
15E
 10
-0.353553
 20
-5.46993
 30
0.000000
  70
    32
  0
VERTEX
  8
0
  5
15F
 10
-0.344770
 20
-5.47408
 30
0.000000
  70
    32
  0
VERTEX
  8
0
  5
160
 10
-0.335779
 20
-5.47812
 30
0.000000
  70
    32
  0
VERTEX
  8
0
  5
161
 10
-0.326586
 20
-5.48205
 30
0.000000
  70
    32
  0
VERTEX
  8
0
  5
162
 10
-0.317197
 20
-5.48588
 30
0.000000
  70
    32
  0
VERTEX
  8
0
  5
163
 10
-0.307616
 20
-5.48959
 30
0.000000
  70
    32
  0
VERTEX
  8
0
  5
164
 10
-0.297850
 20
-5.49318
 30
0.000000
  70
    32
  0
VERTEX
  8
0
  5
165
 10
-0.287904
 20
-5.49666
 30
0.000000
  70
    32
  0
VERTEX
  8
0
  5
166
 10
-0.277785
 20
-5.50002
 30
0.000000
  70
    32
  0
VERTEX
  8
0
  5
167
 10
-0.267499
 20
-5.50326
 30
0.000000
  70
    32
  0
VERTEX
  8
0
  5
168
 10
-0.257051
 20
-5.50637
 30
0.000000
  70
    32
  0
VERTEX
  8
0
  5
169
 10
-0.246449
 20
-5.50936
 30
0.000000
  70
    32
  0
VERTEX
  8
0
  5
16A
 10
-0.235698
 20
-5.51222
 30
0.000000
  70
    32
  0
VERTEX
  8
0
  5
16B
 10
-0.224806
 20
-5.51496
 30
0.000000
  70
    32
  0
VERTEX
  8
0
  5
16C
 10
-0.213778
 20
-5.51756
 30
0.000000
  70
    32
  0
VERTEX
  8
0
  5
16D
 10
-0.202621
 20
-5.52003
 30
0.000000
  70
    32
  0
VERTEX
  8
0
  5
16E
 10
-0.191342
 20
-5.52237
 30
0.000000
  70
    32
  0
VERTEX
  8
0
  5
16F
 10
-0.179948
 20
-5.52458
 30
0.000000
  70
    32
  0
VERTEX
  8
0
  5
170
 10
-0.168445
 20
-5.52665
 30
0.000000
  70
    32
  0
VERTEX
  8
0
  5
171
 10
-0.156841
 20
-5.52858
 30
0.000000
  70
    32
  0
VERTEX
  8
0
  5
172
 10
-0.145142
 20
-5.53037
 30
0.000000
  70
    32
  0
VERTEX
  8
0
  5
173
 10
-0.133356
 20
-5.53202
 30
0.000000
  70
    32
  0
VERTEX
  8
0
  5
174
 10
-0.121490
 20
-5.53354
 30
0.000000
  70
    32
  0
VERTEX
  8
0
  5
175
 10
-0.109551
 20
-5.53491
 30
0.000000
  70
    32
  0
VERTEX
  8
0
  5
176
 10
-0.0975452
 20
-5.53614
 30
0.000000
  70
    32
  0
VERTEX
  8
0
  5
177
 10
-0.0854809
 20
-5.53722
 30
0.000000
  70
    32
  0
VERTEX
  8
0
  5
178
 10
-0.0733652
 20
-5.53817
 30
0.000000
  70
    32
  0
VERTEX
  8
0
  5
179
 10
-0.0612053
 20
-5.53897
 30
0.000000
  70
    32
  0
VERTEX
  8
0
  5
17A
 10
-0.0490086
 20
-5.53962
 30
0.000000
  70
    32
  0
VERTEX
  8
0
  5
17B
 10
-0.0367823
 20
-5.54013
 30
0.000000
  70
    32
  0
VERTEX
  8
0
  5
17C
 10
-0.0245338
 20
-5.54049
 30
0.000000
  70
    32
  0
VERTEX
  8
0
  5
17D
 10
-0.0122706
 20
-5.54071
 30
0.000000
  70
    32
  0
VERTEX
  8
0
  5
17E
 10
-3.06162e-017
 20
-5.54079
 30
0.000000
  70
    32
  0
VERTEX
  8
0
  5
17F
 10
0.0122706
 20
-5.54071
 30
0.000000
  70
    32
  0
VERTEX
  8
0
  5
180
 10
0.0245338
 20
-5.54049
 30
0.000000
  70
    32
  0
VERTEX
  8
0
  5
181
 10
0.0367823
 20
-5.54013
 30
0.000000
  70
    32
  0
VERTEX
  8
0
  5
182
 10
0.0490086
 20
-5.53962
 30
0.000000
  70
    32
  0
VERTEX
  8
0
  5
183
 10
0.0612053
 20
-5.53897
 30
0.000000
  70
    32
  0
VERTEX
  8
0
  5
184
 10
0.0733652
 20
-5.53817
 30
0.000000
  70
    32
  0
VERTEX
  8
0
  5
185
 10
0.0854809
 20
-5.53722
 30
0.000000
  70
    32
  0
VERTEX
  8
0
  5
186
 10
0.0975452
 20
-5.53614
 30
0.000000
  70
    32
  0
VERTEX
  8
0
  5
187
 10
0.109551
 20
-5.53491
 30
0.000000
  70
    32
  0
VERTEX
  8
0
  5
188
 10
0.121490
 20
-5.53354
 30
0.000000
  70
    32
  0
VERTEX
  8
0
  5
189
 10
0.133356
 20
-5.53202
 30
0.000000
  70
    32
  0
VERTEX
  8
0
  5
18A
 10
0.145142
 20
-5.53037
 30
0.000000
  70
    32
  0
VERTEX
  8
0
  5
18B
 10
0.156841
 20
-5.52858
 30
0.000000
  70
    32
  0
VERTEX
  8
0
  5
18C
 10
0.168445
 20
-5.52665
 30
0.000000
  70
    32
  0
VERTEX
  8
0
  5
18D
 10
0.179948
 20
-5.52458
 30
0.000000
  70
    32
  0
VERTEX
  8
0
  5
18E
 10
0.191342
 20
-5.52237
 30
0.000000
  70
    32
  0
VERTEX
  8
0
  5
18F
 10
0.202621
 20
-5.52003
 30
0.000000
  70
    32
  0
VERTEX
  8
0
  5
190
 10
0.213778
 20
-5.51756
 30
0.000000
  70
    32
  0
VERTEX
  8
0
  5
191
 10
0.224806
 20
-5.51496
 30
0.000000
  70
    32
  0
VERTEX
  8
0
  5
192
 10
0.235698
 20
-5.51222
 30
0.000000
  70
    32
  0
VERTEX
  8
0
  5
193
 10
0.246449
 20
-5.50936
 30
0.000000
  70
    32
  0
VERTEX
  8
0
  5
194
 10
0.257051
 20
-5.50637
 30
0.000000
  70
    32
  0
VERTEX
  8
0
  5
195
 10
0.267499
 20
-5.50326
 30
0.000000
  70
    32
  0
VERTEX
  8
0
  5
196
 10
0.277785
 20
-5.50002
 30
0.000000
  70
    32
  0
VERTEX
  8
0
  5
197
 10
0.287904
 20
-5.49666
 30
0.000000
  70
    32
  0
VERTEX
  8
0
  5
198
 10
0.297850
 20
-5.49318
 30
0.000000
  70
    32
  0
VERTEX
  8
0
  5
199
 10
0.307616
 20
-5.48959
 30
0.000000
  70
    32
  0
VERTEX
  8
0
  5
19A
 10
0.317197
 20
-5.48588
 30
0.000000
  70
    32
  0
VERTEX
  8
0
  5
19B
 10
0.326586
 20
-5.48205
 30
0.000000
  70
    32
  0
VERTEX
  8
0
  5
19C
 10
0.335779
 20
-5.47812
 30
0.000000
  70
    32
  0
VERTEX
  8
0
  5
19D
 10
0.344770
 20
-5.47408
 30
0.000000
  70
    32
  0
VERTEX
  8
0
  5
19E
 10
0.353553
 20
-5.46993
 30
0.000000
  70
    32
  0
VERTEX
  8
0
  5
19F
 10
0.362124
 20
-5.46569
 30
0.000000
  70
    32
  0
VERTEX
  8
0
  5
1A0
 10
0.370476
 20
-5.46134
 30
0.000000
  70
    32
  0
VERTEX
  8
0
  5
1A1
 10
0.378604
 20
-5.45689
 30
0.000000
  70
    32
  0
VERTEX
  8
0
  5
1A2
 10
0.386505
 20
-5.45235
 30
0.000000
  70
    32
  0
VERTEX
  8
0
  5
1A3
 10
0.394173
 20
-5.44771
 30
0.000000
  70
    32
  0
VERTEX
  8
0
  5
1A4
 10
0.401604
 20
-5.44299
 30
0.000000
  70
    32
  0
VERTEX
  8
0
  5
1A5
 10
0.408792
 20
-5.43817
 30
0.000000
  70
    32
  0
VERTEX
  8
0
  5
1A6
 10
0.415735
 20
-5.43328
 30
0.000000
  70
    32
  0
VERTEX
  8
0
  5
1A7
 10
0.422427
 20
-5.42830
 30
0.000000
  70
    32
  0
VERTEX
  8
0
  5
1A8
 10
0.428864
 20
-5.42325
 30
0.000000
  70
    32
  0
VERTEX
  8
0
  5
1A9
 10
0.435043
 20
-5.41812
 30
0.000000
  70
    32
  0
VERTEX
  8
0
  5
1AA
 10
0.440961
 20
-5.41292
 30
0.000000
  70
    32
  0
VERTEX
  8
0
  5
1AB
 10
0.446612
 20
-5.40765
 30
0.000000
  70
    32
  0
VERTEX
  8
0
  5
1AC
 10
0.451995
 20
-5.40231
 30
0.000000
  70
    32
  0
VERTEX
  8
0
  5
1AD
 10
0.457105
 20
-5.39691
 30
0.000000
  70
    32
  0
VERTEX
  8
0
  5
1AE
 10
0.461940
 20
-5.39146
 30
0.000000
  70
    32
  0
VERTEX
  8
0
  5
1AF
 10
0.466496
 20
-5.38594
 30
0.000000
  70
    32
  0
VERTEX
  8
0
  5
1B0
 10
0.470772
 20
-5.38038
 30
0.000000
  70
    32
  0
VERTEX
  8
0
  5
1B1
 10
0.474764
 20
-5.37477
 30
0.000000
  70
    32
  0
VERTEX
  8
0
  5
1B2
 10
0.478470
 20
-5.36911
 30
0.000000
  70
    32
  0
VERTEX
  8
0
  5
1B3
 10
0.481888
 20
-5.36340
 30
0.000000
  70
    32
  0
VERTEX
  8
0
  5
1B4
 10
0.485016
 20
-5.35766
 30
0.000000
  70
    32
  0
VERTEX
  8
0
  5
1B5
 10
0.487851
 20
-5.35189
 30
0.000000
  70
    32
  0
VERTEX
  8
0
  5
1B6
 10
0.490393
 20
-5.34608
 30
0.000000
  70
    32
  0
VERTEX
  8
0
  5
1B7
 10
0.492639
 20
-5.34024
 30
0.000000
  70
    32
  0
VERTEX
  8
0
  5
1B8
 10
0.494588
 20
-5.33438
 30
0.000000
  70
    32
  0
VERTEX
  8
0
  5
1B9
 10
0.496240
 20
-5.32850
 30
0.000000
  70
    32
  0
VERTEX
  8
0
  5
1BA
 10
0.497592
 20
-5.32260
 30
0.000000
  70
    32
  0
VERTEX
  8
0
  5
1BB
 10
0.498645
 20
-5.31668
 30
0.000000
  70
    32
  0
VERTEX
  8
0
  5
1BC
 10
0.499398
 20
-5.31075
 30
0.000000
  70
    32
  0
VERTEX
  8
0
  5
1BD
 10
0.499849
 20
-5.30482
 30
0.000000
  70
    32
  0
VERTEX
  8
0
  5
1BE
 10
0.500000
 20
-5.29889
 30
0.000000
  70
    32
  0
SEQEND
  8
0
  5
1BF
  0
POLYLINE
  5
98
  8
0
 10
-0.5
 20
-5.1866709784313372
 30
0.0
 66
     1
 70
     8
  0
VERTEX
  8
0
  5
1C0
 10
-0.500000
 20
-5.18667
 30
0.000000
  70
    32
  0
VERTEX
  8
0
  5
1C1
 10
-0.499849
 20
-5.19261
 30
0.000000
  70
    32
  0
VERTEX
  8
0
  5
1C2
 10
-0.499398
 20
-5.19854
 30
0.000000
  70
    32
  0
VERTEX
  8
0
  5
1C3
 10
-0.498645
 20
-5.20447
 30
0.000000
  70
    32
  0
VERTEX
  8
0
  5
1C4
 10
-0.497592
 20
-5.21038
 30
0.000000
  70
    32
  0
VERTEX
  8
0
  5
1C5
 10
-0.496240
 20
-5.21628
 30
0.000000
  70
    32
  0
VERTEX
  8
0
  5
1C6
 10
-0.494588
 20
-5.22217
 30
0.000000
  70
    32
  0
VERTEX
  8
0
  5
1C7
 10
-0.492639
 20
-5.22803
 30
0.000000
  70
    32
  0
VERTEX
  8
0
  5
1C8
 10
-0.490393
 20
-5.23386
 30
0.000000
  70
    32
  0
VERTEX
  8
0
  5
1C9
 10
-0.487851
 20
-5.23967
 30
0.000000
  70
    32
  0
VERTEX
  8
0
  5
1CA
 10
-0.485016
 20
-5.24545
 30
0.000000
  70
    32
  0
VERTEX
  8
0
  5
1CB
 10
-0.481888
 20
-5.25119
 30
0.000000
  70
    32
  0
VERTEX
  8
0
  5
1CC
 10
-0.478470
 20
-5.25689
 30
0.000000
  70
    32
  0
VERTEX
  8
0
  5
1CD
 10
-0.474764
 20
-5.26255
 30
0.000000
  70
    32
  0
VERTEX
  8
0
  5
1CE
 10
-0.470772
 20
-5.26816
 30
0.000000
  70
    32
  0
VERTEX
  8
0
  5
1CF
 10
-0.466496
 20
-5.27373
 30
0.000000
  70
    32
  0
VERTEX
  8
0
  5
1D0
 10
-0.461940
 20
-5.27924
 30
0.000000
  70
    32
  0
VERTEX
  8
0
  5
1D1
 10
-0.457105
 20
-5.28470
 30
0.000000
  70
    32
  0
VERTEX
  8
0
  5
1D2
 10
-0.451995
 20
-5.29010
 30
0.000000
  70
    32
  0
VERTEX
  8
0
  5
1D3
 10
-0.446612
 20
-5.29543
 30
0.000000
  70
    32
  0
VERTEX
  8
0
  5
1D4
 10
-0.440961
 20
-5.30070
 30
0.000000
  70
    32
  0
VERTEX
  8
0
  5
1D5
 10
-0.435043
 20
-5.30590
 30
0.000000
  70
    32
  0
VERTEX
  8
0
  5
1D6
 10
-0.428864
 20
-5.31103
 30
0.000000
  70
    32
  0
VERTEX
  8
0
  5
1D7
 10
-0.422427
 20
-5.31609
 30
0.000000
  70
    32
  0
VERTEX
  8
0
  5
1D8
 10
-0.415735
 20
-5.32106
 30
0.000000
  70
    32
  0
VERTEX
  8
0
  5
1D9
 10
-0.408792
 20
-5.32596
 30
0.000000
  70
    32
  0
VERTEX
  8
0
  5
1DA
 10
-0.401604
 20
-5.33077
 30
0.000000
  70
    32
  0
VERTEX
  8
0
  5
1DB
 10
-0.394173
 20
-5.33550
 30
0.000000
  70
    32
  0
VERTEX
  8
0
  5
1DC
 10
-0.386505
 20
-5.34013
 30
0.000000
  70
    32
  0
VERTEX
  8
0
  5
1DD
 10
-0.378604
 20
-5.34467
 30
0.000000
  70
    32
  0
VERTEX
  8
0
  5
1DE
 10
-0.370476
 20
-5.34912
 30
0.000000
  70
    32
  0
VERTEX
  8
0
  5
1DF
 10
-0.362124
 20
-5.35347
 30
0.000000
  70
    32
  0
VERTEX
  8
0
  5
1E0
 10
-0.353553
 20
-5.35772
 30
0.000000
  70
    32
  0
VERTEX
  8
0
  5
1E1
 10
-0.344770
 20
-5.36187
 30
0.000000
  70
    32
  0
VERTEX
  8
0
  5
1E2
 10
-0.335779
 20
-5.36591
 30
0.000000
  70
    32
  0
VERTEX
  8
0
  5
1E3
 10
-0.326586
 20
-5.36984
 30
0.000000
  70
    32
  0
VERTEX
  8
0
  5
1E4
 10
-0.317197
 20
-5.37366
 30
0.000000
  70
    32
  0
VERTEX
  8
0
  5
1E5
 10
-0.307616
 20
-5.37737
 30
0.000000
  70
    32
  0
VERTEX
  8
0
  5
1E6
 10
-0.297850
 20
-5.38097
 30
0.000000
  70
    32
  0
VERTEX
  8
0
  5
1E7
 10
-0.287904
 20
-5.38445
 30
0.000000
  70
    32
  0
VERTEX
  8
0
  5
1E8
 10
-0.277785
 20
-5.38780
 30
0.000000
  70
    32
  0
VERTEX
  8
0
  5
1E9
 10
-0.267499
 20
-5.39104
 30
0.000000
  70
    32
  0
VERTEX
  8
0
  5
1EA
 10
-0.257051
 20
-5.39416
 30
0.000000
  70
    32
  0
VERTEX
  8
0
  5
1EB
 10
-0.246449
 20
-5.39715
 30
0.000000
  70
    32
  0
VERTEX
  8
0
  5
1EC
 10
-0.235698
 20
-5.40001
 30
0.000000
  70
    32
  0
VERTEX
  8
0
  5
1ED
 10
-0.224806
 20
-5.40274
 30
0.000000
  70
    32
  0
VERTEX
  8
0
  5
1EE
 10
-0.213778
 20
-5.40535
 30
0.000000
  70
    32
  0
VERTEX
  8
0
  5
1EF
 10
-0.202621
 20
-5.40782
 30
0.000000
  70
    32
  0
VERTEX
  8
0
  5
1F0
 10
-0.191342
 20
-5.41016
 30
0.000000
  70
    32
  0
VERTEX
  8
0
  5
1F1
 10
-0.179948
 20
-5.41236
 30
0.000000
  70
    32
  0
VERTEX
  8
0
  5
1F2
 10
-0.168445
 20
-5.41443
 30
0.000000
  70
    32
  0
VERTEX
  8
0
  5
1F3
 10
-0.156841
 20
-5.41636
 30
0.000000
  70
    32
  0
VERTEX
  8
0
  5
1F4
 10
-0.145142
 20
-5.41816
 30
0.000000
  70
    32
  0
VERTEX
  8
0
  5
1F5
 10
-0.133356
 20
-5.41981
 30
0.000000
  70
    32
  0
VERTEX
  8
0
  5
1F6
 10
-0.121490
 20
-5.42132
 30
0.000000
  70
    32
  0
VERTEX
  8
0
  5
1F7
 10
-0.109551
 20
-5.42269
 30
0.000000
  70
    32
  0
VERTEX
  8
0
  5
1F8
 10
-0.0975452
 20
-5.42392
 30
0.000000
  70
    32
  0
VERTEX
  8
0
  5
1F9
 10
-0.0854809
 20
-5.42501
 30
0.000000
  70
    32
  0
VERTEX
  8
0
  5
1FA
 10
-0.0733652
 20
-5.42595
 30
0.000000
  70
    32
  0
VERTEX
  8
0
  5
1FB
 10
-0.0612053
 20
-5.42675
 30
0.000000
  70
    32
  0
VERTEX
  8
0
  5
1FC
 10
-0.0490086
 20
-5.42741
 30
0.000000
  70
    32
  0
VERTEX
  8
0
  5
1FD
 10
-0.0367823
 20
-5.42792
 30
0.000000
  70
    32
  0
VERTEX
  8
0
  5
1FE
 10
-0.0245338
 20
-5.42828
 30
0.000000
  70
    32
  0
VERTEX
  8
0
  5
1FF
 10
-0.0122706
 20
-5.42850
 30
0.000000
  70
    32
  0
VERTEX
  8
0
  5
200
 10
-3.06162e-017
 20
-5.42857
 30
0.000000
  70
    32
  0
VERTEX
  8
0
  5
201
 10
0.0122706
 20
-5.42850
 30
0.000000
  70
    32
  0
VERTEX
  8
0
  5
202
 10
0.0245338
 20
-5.42828
 30
0.000000
  70
    32
  0
VERTEX
  8
0
  5
203
 10
0.0367823
 20
-5.42792
 30
0.000000
  70
    32
  0
VERTEX
  8
0
  5
204
 10
0.0490086
 20
-5.42741
 30
0.000000
  70
    32
  0
VERTEX
  8
0
  5
205
 10
0.0612053
 20
-5.42675
 30
0.000000
  70
    32
  0
VERTEX
  8
0
  5
206
 10
0.0733652
 20
-5.42595
 30
0.000000
  70
    32
  0
VERTEX
  8
0
  5
207
 10
0.0854809
 20
-5.42501
 30
0.000000
  70
    32
  0
VERTEX
  8
0
  5
208
 10
0.0975452
 20
-5.42392
 30
0.000000
  70
    32
  0
VERTEX
  8
0
  5
209
 10
0.109551
 20
-5.42269
 30
0.000000
  70
    32
  0
VERTEX
  8
0
  5
20A
 10
0.121490
 20
-5.42132
 30
0.000000
  70
    32
  0
VERTEX
  8
0
  5
20B
 10
0.133356
 20
-5.41981
 30
0.000000
  70
    32
  0
VERTEX
  8
0
  5
20C
 10
0.145142
 20
-5.41816
 30
0.000000
  70
    32
  0
VERTEX
  8
0
  5
20D
 10
0.156841
 20
-5.41636
 30
0.000000
  70
    32
  0
VERTEX
  8
0
  5
20E
 10
0.168445
 20
-5.41443
 30
0.000000
  70
    32
  0
VERTEX
  8
0
  5
20F
 10
0.179948
 20
-5.41236
 30
0.000000
  70
    32
  0
VERTEX
  8
0
  5
210
 10
0.191342
 20
-5.41016
 30
0.000000
  70
    32
  0
VERTEX
  8
0
  5
211
 10
0.202621
 20
-5.40782
 30
0.000000
  70
    32
  0
VERTEX
  8
0
  5
212
 10
0.213778
 20
-5.40535
 30
0.000000
  70
    32
  0
VERTEX
  8
0
  5
213
 10
0.224806
 20
-5.40274
 30
0.000000
  70
    32
  0
VERTEX
  8
0
  5
214
 10
0.235698
 20
-5.40001
 30
0.000000
  70
    32
  0
VERTEX
  8
0
  5
215
 10
0.246449
 20
-5.39715
 30
0.000000
  70
    32
  0
VERTEX
  8
0
  5
216
 10
0.257051
 20
-5.39416
 30
0.000000
  70
    32
  0
VERTEX
  8
0
  5
217
 10
0.267499
 20
-5.39104
 30
0.000000
  70
    32
  0
VERTEX
  8
0
  5
218
 10
0.277785
 20
-5.38780
 30
0.000000
  70
    32
  0
VERTEX
  8
0
  5
219
 10
0.287904
 20
-5.38445
 30
0.000000
  70
    32
  0
VERTEX
  8
0
  5
21A
 10
0.297850
 20
-5.38097
 30
0.000000
  70
    32
  0
VERTEX
  8
0
  5
21B
 10
0.307616
 20
-5.37737
 30
0.000000
  70
    32
  0
VERTEX
  8
0
  5
21C
 10
0.317197
 20
-5.37366
 30
0.000000
  70
    32
  0
VERTEX
  8
0
  5
21D
 10
0.326586
 20
-5.36984
 30
0.000000
  70
    32
  0
VERTEX
  8
0
  5
21E
 10
0.335779
 20
-5.36591
 30
0.000000
  70
    32
  0
VERTEX
  8
0
  5
21F
 10
0.344770
 20
-5.36187
 30
0.000000
  70
    32
  0
VERTEX
  8
0
  5
220
 10
0.353553
 20
-5.35772
 30
0.000000
  70
    32
  0
VERTEX
  8
0
  5
221
 10
0.362124
 20
-5.35347
 30
0.000000
  70
    32
  0
VERTEX
  8
0
  5
222
 10
0.370476
 20
-5.34912
 30
0.000000
  70
    32
  0
VERTEX
  8
0
  5
223
 10
0.378604
 20
-5.34467
 30
0.000000
  70
    32
  0
VERTEX
  8
0
  5
224
 10
0.386505
 20
-5.34013
 30
0.000000
  70
    32
  0
VERTEX
  8
0
  5
225
 10
0.394173
 20
-5.33550
 30
0.000000
  70
    32
  0
VERTEX
  8
0
  5
226
 10
0.401604
 20
-5.33077
 30
0.000000
  70
    32
  0
VERTEX
  8
0
  5
227
 10
0.408792
 20
-5.32596
 30
0.000000
  70
    32
  0
VERTEX
  8
0
  5
228
 10
0.415735
 20
-5.32106
 30
0.000000
  70
    32
  0
VERTEX
  8
0
  5
229
 10
0.422427
 20
-5.31609
 30
0.000000
  70
    32
  0
VERTEX
  8
0
  5
22A
 10
0.428864
 20
-5.31103
 30
0.000000
  70
    32
  0
VERTEX
  8
0
  5
22B
 10
0.435043
 20
-5.30590
 30
0.000000
  70
    32
  0
VERTEX
  8
0
  5
22C
 10
0.440961
 20
-5.30070
 30
0.000000
  70
    32
  0
VERTEX
  8
0
  5
22D
 10
0.446612
 20
-5.29543
 30
0.000000
  70
    32
  0
VERTEX
  8
0
  5
22E
 10
0.451995
 20
-5.29010
 30
0.000000
  70
    32
  0
VERTEX
  8
0
  5
22F
 10
0.457105
 20
-5.28470
 30
0.000000
  70
    32
  0
VERTEX
  8
0
  5
230
 10
0.461940
 20
-5.27924
 30
0.000000
  70
    32
  0
VERTEX
  8
0
  5
231
 10
0.466496
 20
-5.27373
 30
0.000000
  70
    32
  0
VERTEX
  8
0
  5
232
 10
0.470772
 20
-5.26816
 30
0.000000
  70
    32
  0
VERTEX
  8
0
  5
233
 10
0.474764
 20
-5.26255
 30
0.000000
  70
    32
  0
VERTEX
  8
0
  5
234
 10
0.478470
 20
-5.25689
 30
0.000000
  70
    32
  0
VERTEX
  8
0
  5
235
 10
0.481888
 20
-5.25119
 30
0.000000
  70
    32
  0
VERTEX
  8
0
  5
236
 10
0.485016
 20
-5.24545
 30
0.000000
  70
    32
  0
VERTEX
  8
0
  5
237
 10
0.487851
 20
-5.23967
 30
0.000000
  70
    32
  0
VERTEX
  8
0
  5
238
 10
0.490393
 20
-5.23386
 30
0.000000
  70
    32
  0
VERTEX
  8
0
  5
239
 10
0.492639
 20
-5.22803
 30
0.000000
  70
    32
  0
VERTEX
  8
0
  5
23A
 10
0.494588
 20
-5.22217
 30
0.000000
  70
    32
  0
VERTEX
  8
0
  5
23B
 10
0.496240
 20
-5.21628
 30
0.000000
  70
    32
  0
VERTEX
  8
0
  5
23C
 10
0.497592
 20
-5.21038
 30
0.000000
  70
    32
  0
VERTEX
  8
0
  5
23D
 10
0.498645
 20
-5.20447
 30
0.000000
  70
    32
  0
VERTEX
  8
0
  5
23E
 10
0.499398
 20
-5.19854
 30
0.000000
  70
    32
  0
VERTEX
  8
0
  5
23F
 10
0.499849
 20
-5.19261
 30
0.000000
  70
    32
  0
VERTEX
  8
0
  5
240
 10
0.500000
 20
-5.18667
 30
0.000000
  70
    32
  0
SEQEND
  8
0
  5
241
  0
POLYLINE
  5
99
  8
0
 10
-0.5
 20
-3.940835993115555
 30
0.0
 66
     1
 70
     8
  0
VERTEX
  8
0
  5
242
 10
-0.500000
 20
-3.94084
 30
0.000000
  70
    32
  0
VERTEX
  8
0
  5
243
 10
-0.499849
 20
-3.94677
 30
0.000000
  70
    32
  0
VERTEX
  8
0
  5
244
 10
-0.499398
 20
-3.95271
 30
0.000000
  70
    32
  0
VERTEX
  8
0
  5
245
 10
-0.498645
 20
-3.95863
 30
0.000000
  70
    32
  0
VERTEX
  8
0
  5
246
 10
-0.497592
 20
-3.96455
 30
0.000000
  70
    32
  0
VERTEX
  8
0
  5
247
 10
-0.496240
 20
-3.97045
 30
0.000000
  70
    32
  0
VERTEX
  8
0
  5
248
 10
-0.494588
 20
-3.97633
 30
0.000000
  70
    32
  0
VERTEX
  8
0
  5
249
 10
-0.492639
 20
-3.98219
 30
0.000000
  70
    32
  0
VERTEX
  8
0
  5
24A
 10
-0.490393
 20
-3.98803
 30
0.000000
  70
    32
  0
VERTEX
  8
0
  5
24B
 10
-0.487851
 20
-3.99384
 30
0.000000
  70
    32
  0
VERTEX
  8
0
  5
24C
 10
-0.485016
 20
-3.99961
 30
0.000000
  70
    32
  0
VERTEX
  8
0
  5
24D
 10
-0.481888
 20
-4.00535
 30
0.000000
  70
    32
  0
VERTEX
  8
0
  5
24E
 10
-0.478470
 20
-4.01106
 30
0.000000
  70
    32
  0
VERTEX
  8
0
  5
24F
 10
-0.474764
 20
-4.01672
 30
0.000000
  70
    32
  0
VERTEX
  8
0
  5
250
 10
-0.470772
 20
-4.02233
 30
0.000000
  70
    32
  0
VERTEX
  8
0
  5
251
 10
-0.466496
 20
-4.02789
 30
0.000000
  70
    32
  0
VERTEX
  8
0
  5
252
 10
-0.461940
 20
-4.03341
 30
0.000000
  70
    32
  0
VERTEX
  8
0
  5
253
 10
-0.457105
 20
-4.03886
 30
0.000000
  70
    32
  0
VERTEX
  8
0
  5
254
 10
-0.451995
 20
-4.04426
 30
0.000000
  70
    32
  0
VERTEX
  8
0
  5
255
 10
-0.446612
 20
-4.04960
 30
0.000000
  70
    32
  0
VERTEX
  8
0
  5
256
 10
-0.440961
 20
-4.05487
 30
0.000000
  70
    32
  0
VERTEX
  8
0
  5
257
 10
-0.435043
 20
-4.06007
 30
0.000000
  70
    32
  0
VERTEX
  8
0
  5
258
 10
-0.428864
 20
-4.06520
 30
0.000000
  70
    32
  0
VERTEX
  8
0
  5
259
 10
-0.422427
 20
-4.07025
 30
0.000000
  70
    32
  0
VERTEX
  8
0
  5
25A
 10
-0.415735
 20
-4.07523
 30
0.000000
  70
    32
  0
VERTEX
  8
0
  5
25B
 10
-0.408792
 20
-4.08012
 30
0.000000
  70
    32
  0
VERTEX
  8
0
  5
25C
 10
-0.401604
 20
-4.08494
 30
0.000000
  70
    32
  0
VERTEX
  8
0
  5
25D
 10
-0.394173
 20
-4.08966
 30
0.000000
  70
    32
  0
VERTEX
  8
0
  5
25E
 10
-0.386505
 20
-4.09430
 30
0.000000
  70
    32
  0
VERTEX
  8
0
  5
25F
 10
-0.378604
 20
-4.09884
 30
0.000000
  70
    32
  0
VERTEX
  8
0
  5
260
 10
-0.370476
 20
-4.10329
 30
0.000000
  70
    32
  0
VERTEX
  8
0
  5
261
 10
-0.362124
 20
-4.10764
 30
0.000000
  70
    32
  0
VERTEX
  8
0
  5
262
 10
-0.353553
 20
-4.11189
 30
0.000000
  70
    32
  0
VERTEX
  8
0
  5
263
 10
-0.344770
 20
-4.11603
 30
0.000000
  70
    32
  0
VERTEX
  8
0
  5
264
 10
-0.335779
 20
-4.12007
 30
0.000000
  70
    32
  0
VERTEX
  8
0
  5
265
 10
-0.326586
 20
-4.12401
 30
0.000000
  70
    32
  0
VERTEX
  8
0
  5
266
 10
-0.317197
 20
-4.12783
 30
0.000000
  70
    32
  0
VERTEX
  8
0
  5
267
 10
-0.307616
 20
-4.13154
 30
0.000000
  70
    32
  0
VERTEX
  8
0
  5
268
 10
-0.297850
 20
-4.13513
 30
0.000000
  70
    32
  0
VERTEX
  8
0
  5
269
 10
-0.287904
 20
-4.13861
 30
0.000000
  70
    32
  0
VERTEX
  8
0
  5
26A
 10
-0.277785
 20
-4.14197
 30
0.000000
  70
    32
  0
VERTEX
  8
0
  5
26B
 10
-0.267499
 20
-4.14521
 30
0.000000
  70
    32
  0
VERTEX
  8
0
  5
26C
 10
-0.257051
 20
-4.14832
 30
0.000000
  70
    32
  0
VERTEX
  8
0
  5
26D
 10
-0.246449
 20
-4.15131
 30
0.000000
  70
    32
  0
VERTEX
  8
0
  5
26E
 10
-0.235698
 20
-4.15417
 30
0.000000
  70
    32
  0
VERTEX
  8
0
  5
26F
 10
-0.224806
 20
-4.15691
 30
0.000000
  70
    32
  0
VERTEX
  8
0
  5
270
 10
-0.213778
 20
-4.15951
 30
0.000000
  70
    32
  0
VERTEX
  8
0
  5
271
 10
-0.202621
 20
-4.16198
 30
0.000000
  70
    32
  0
VERTEX
  8
0
  5
272
 10
-0.191342
 20
-4.16432
 30
0.000000
  70
    32
  0
VERTEX
  8
0
  5
273
 10
-0.179948
 20
-4.16653
 30
0.000000
  70
    32
  0
VERTEX
  8
0
  5
274
 10
-0.168445
 20
-4.16860
 30
0.000000
  70
    32
  0
VERTEX
  8
0
  5
275
 10
-0.156841
 20
-4.17053
 30
0.000000
  70
    32
  0
VERTEX
  8
0
  5
276
 10
-0.145142
 20
-4.17232
 30
0.000000
  70
    32
  0
VERTEX
  8
0
  5
277
 10
-0.133356
 20
-4.17397
 30
0.000000
  70
    32
  0
VERTEX
  8
0
  5
278
 10
-0.121490
 20
-4.17549
 30
0.000000
  70
    32
  0
VERTEX
  8
0
  5
279
 10
-0.109551
 20
-4.17686
 30
0.000000
  70
    32
  0
VERTEX
  8
0
  5
27A
 10
-0.0975452
 20
-4.17809
 30
0.000000
  70
    32
  0
VERTEX
  8
0
  5
27B
 10
-0.0854809
 20
-4.17918
 30
0.000000
  70
    32
  0
VERTEX
  8
0
  5
27C
 10
-0.0733652
 20
-4.18012
 30
0.000000
  70
    32
  0
VERTEX
  8
0
  5
27D
 10
-0.0612053
 20
-4.18092
 30
0.000000
  70
    32
  0
VERTEX
  8
0
  5
27E
 10
-0.0490086
 20
-4.18157
 30
0.000000
  70
    32
  0
VERTEX
  8
0
  5
27F
 10
-0.0367823
 20
-4.18208
 30
0.000000
  70
    32
  0
VERTEX
  8
0
  5
280
 10
-0.0245338
 20
-4.18245
 30
0.000000
  70
    32
  0
VERTEX
  8
0
  5
281
 10
-0.0122706
 20
-4.18266
 30
0.000000
  70
    32
  0
VERTEX
  8
0
  5
282
 10
-3.06162e-017
 20
-4.18274
 30
0.000000
  70
    32
  0
VERTEX
  8
0
  5
283
 10
0.0122706
 20
-4.18266
 30
0.000000
  70
    32
  0
VERTEX
  8
0
  5
284
 10
0.0245338
 20
-4.18245
 30
0.000000
  70
    32
  0
VERTEX
  8
0
  5
285
 10
0.0367823
 20
-4.18208
 30
0.000000
  70
    32
  0
VERTEX
  8
0
  5
286
 10
0.0490086
 20
-4.18157
 30
0.000000
  70
    32
  0
VERTEX
  8
0
  5
287
 10
0.0612053
 20
-4.18092
 30
0.000000
  70
    32
  0
VERTEX
  8
0
  5
288
 10
0.0733652
 20
-4.18012
 30
0.000000
  70
    32
  0
VERTEX
  8
0
  5
289
 10
0.0854809
 20
-4.17918
 30
0.000000
  70
    32
  0
VERTEX
  8
0
  5
28A
 10
0.0975452
 20
-4.17809
 30
0.000000
  70
    32
  0
VERTEX
  8
0
  5
28B
 10
0.109551
 20
-4.17686
 30
0.000000
  70
    32
  0
VERTEX
  8
0
  5
28C
 10
0.121490
 20
-4.17549
 30
0.000000
  70
    32
  0
VERTEX
  8
0
  5
28D
 10
0.133356
 20
-4.17397
 30
0.000000
  70
    32
  0
VERTEX
  8
0
  5
28E
 10
0.145142
 20
-4.17232
 30
0.000000
  70
    32
  0
VERTEX
  8
0
  5
28F
 10
0.156841
 20
-4.17053
 30
0.000000
  70
    32
  0
VERTEX
  8
0
  5
290
 10
0.168445
 20
-4.16860
 30
0.000000
  70
    32
  0
VERTEX
  8
0
  5
291
 10
0.179948
 20
-4.16653
 30
0.000000
  70
    32
  0
VERTEX
  8
0
  5
292
 10
0.191342
 20
-4.16432
 30
0.000000
  70
    32
  0
VERTEX
  8
0
  5
293
 10
0.202621
 20
-4.16198
 30
0.000000
  70
    32
  0
VERTEX
  8
0
  5
294
 10
0.213778
 20
-4.15951
 30
0.000000
  70
    32
  0
VERTEX
  8
0
  5
295
 10
0.224806
 20
-4.15691
 30
0.000000
  70
    32
  0
VERTEX
  8
0
  5
296
 10
0.235698
 20
-4.15417
 30
0.000000
  70
    32
  0
VERTEX
  8
0
  5
297
 10
0.246449
 20
-4.15131
 30
0.000000
  70
    32
  0
VERTEX
  8
0
  5
298
 10
0.257051
 20
-4.14832
 30
0.000000
  70
    32
  0
VERTEX
  8
0
  5
299
 10
0.267499
 20
-4.14521
 30
0.000000
  70
    32
  0
VERTEX
  8
0
  5
29A
 10
0.277785
 20
-4.14197
 30
0.000000
  70
    32
  0
VERTEX
  8
0
  5
29B
 10
0.287904
 20
-4.13861
 30
0.000000
  70
    32
  0
VERTEX
  8
0
  5
29C
 10
0.297850
 20
-4.13513
 30
0.000000
  70
    32
  0
VERTEX
  8
0
  5
29D
 10
0.307616
 20
-4.13154
 30
0.000000
  70
    32
  0
VERTEX
  8
0
  5
29E
 10
0.317197
 20
-4.12783
 30
0.000000
  70
    32
  0
VERTEX
  8
0
  5
29F
 10
0.326586
 20
-4.12401
 30
0.000000
  70
    32
  0
VERTEX
  8
0
  5
2A0
 10
0.335779
 20
-4.12007
 30
0.000000
  70
    32
  0
VERTEX
  8
0
  5
2A1
 10
0.344770
 20
-4.11603
 30
0.000000
  70
    32
  0
VERTEX
  8
0
  5
2A2
 10
0.353553
 20
-4.11189
 30
0.000000
  70
    32
  0
VERTEX
  8
0
  5
2A3
 10
0.362124
 20
-4.10764
 30
0.000000
  70
    32
  0
VERTEX
  8
0
  5
2A4
 10
0.370476
 20
-4.10329
 30
0.000000
  70
    32
  0
VERTEX
  8
0
  5
2A5
 10
0.378604
 20
-4.09884
 30
0.000000
  70
    32
  0
VERTEX
  8
0
  5
2A6
 10
0.386505
 20
-4.09430
 30
0.000000
  70
    32
  0
VERTEX
  8
0
  5
2A7
 10
0.394173
 20
-4.08966
 30
0.000000
  70
    32
  0
VERTEX
  8
0
  5
2A8
 10
0.401604
 20
-4.08494
 30
0.000000
  70
    32
  0
VERTEX
  8
0
  5
2A9
 10
0.408792
 20
-4.08012
 30
0.000000
  70
    32
  0
VERTEX
  8
0
  5
2AA
 10
0.415735
 20
-4.07523
 30
0.000000
  70
    32
  0
VERTEX
  8
0
  5
2AB
 10
0.422427
 20
-4.07025
 30
0.000000
  70
    32
  0
VERTEX
  8
0
  5
2AC
 10
0.428864
 20
-4.06520
 30
0.000000
  70
    32
  0
VERTEX
  8
0
  5
2AD
 10
0.435043
 20
-4.06007
 30
0.000000
  70
    32
  0
VERTEX
  8
0
  5
2AE
 10
0.440961
 20
-4.05487
 30
0.000000
  70
    32
  0
VERTEX
  8
0
  5
2AF
 10
0.446612
 20
-4.04960
 30
0.000000
  70
    32
  0
VERTEX
  8
0
  5
2B0
 10
0.451995
 20
-4.04426
 30
0.000000
  70
    32
  0
VERTEX
  8
0
  5
2B1
 10
0.457105
 20
-4.03886
 30
0.000000
  70
    32
  0
VERTEX
  8
0
  5
2B2
 10
0.461940
 20
-4.03341
 30
0.000000
  70
    32
  0
VERTEX
  8
0
  5
2B3
 10
0.466496
 20
-4.02789
 30
0.000000
  70
    32
  0
VERTEX
  8
0
  5
2B4
 10
0.470772
 20
-4.02233
 30
0.000000
  70
    32
  0
VERTEX
  8
0
  5
2B5
 10
0.474764
 20
-4.01672
 30
0.000000
  70
    32
  0
VERTEX
  8
0
  5
2B6
 10
0.478470
 20
-4.01106
 30
0.000000
  70
    32
  0
VERTEX
  8
0
  5
2B7
 10
0.481888
 20
-4.00535
 30
0.000000
  70
    32
  0
VERTEX
  8
0
  5
2B8
 10
0.485016
 20
-3.99961
 30
0.000000
  70
    32
  0
VERTEX
  8
0
  5
2B9
 10
0.487851
 20
-3.99384
 30
0.000000
  70
    32
  0
VERTEX
  8
0
  5
2BA
 10
0.490393
 20
-3.98803
 30
0.000000
  70
    32
  0
VERTEX
  8
0
  5
2BB
 10
0.492639
 20
-3.98219
 30
0.000000
  70
    32
  0
VERTEX
  8
0
  5
2BC
 10
0.494588
 20
-3.97633
 30
0.000000
  70
    32
  0
VERTEX
  8
0
  5
2BD
 10
0.496240
 20
-3.97045
 30
0.000000
  70
    32
  0
VERTEX
  8
0
  5
2BE
 10
0.497592
 20
-3.96455
 30
0.000000
  70
    32
  0
VERTEX
  8
0
  5
2BF
 10
0.498645
 20
-3.95863
 30
0.000000
  70
    32
  0
VERTEX
  8
0
  5
2C0
 10
0.499398
 20
-3.95271
 30
0.000000
  70
    32
  0
VERTEX
  8
0
  5
2C1
 10
0.499849
 20
-3.94677
 30
0.000000
  70
    32
  0
VERTEX
  8
0
  5
2C2
 10
0.500000
 20
-3.94084
 30
0.000000
  70
    32
  0
SEQEND
  8
0
  5
2C3
  0
POLYLINE
  5
9A
  8
0
 10
-0.5
 20
-3.9193678345670122
 30
0.0
 66
     1
 70
     8
  0
VERTEX
  8
0
  5
2C4
 10
-0.500000
 20
-3.91937
 30
0.000000
  70
    32
  0
VERTEX
  8
0
  5
2C5
 10
-0.499849
 20
-3.92530
 30
0.000000
  70
    32
  0
VERTEX
  8
0
  5
2C6
 10
-0.499398
 20
-3.93124
 30
0.000000
  70
    32
  0
VERTEX
  8
0
  5
2C7
 10
-0.498645
 20
-3.93716
 30
0.000000
  70
    32
  0
VERTEX
  8
0
  5
2C8
 10
-0.497592
 20
-3.94308
 30
0.000000
  70
    32
  0
VERTEX
  8
0
  5
2C9
 10
-0.496240
 20
-3.94898
 30
0.000000
  70
    32
  0
VERTEX
  8
0
  5
2CA
 10
-0.494588
 20
-3.95486
 30
0.000000
  70
    32
  0
VERTEX
  8
0
  5
2CB
 10
-0.492639
 20
-3.96072
 30
0.000000
  70
    32
  0
VERTEX
  8
0
  5
2CC
 10
-0.490393
 20
-3.96656
 30
0.000000
  70
    32
  0
VERTEX
  8
0
  5
2CD
 10
-0.487851
 20
-3.97237
 30
0.000000
  70
    32
  0
VERTEX
  8
0
  5
2CE
 10
-0.485016
 20
-3.97814
 30
0.000000
  70
    32
  0
VERTEX
  8
0
  5
2CF
 10
-0.481888
 20
-3.98389
 30
0.000000
  70
    32
  0
VERTEX
  8
0
  5
2D0
 10
-0.478470
 20
-3.98959
 30
0.000000
  70
    32
  0
VERTEX
  8
0
  5
2D1
 10
-0.474764
 20
-3.99525
 30
0.000000
  70
    32
  0
VERTEX
  8
0
  5
2D2
 10
-0.470772
 20
-4.00086
 30
0.000000
  70
    32
  0
VERTEX
  8
0
  5
2D3
 10
-0.466496
 20
-4.00643
 30
0.000000
  70
    32
  0
VERTEX
  8
0
  5
2D4
 10
-0.461940
 20
-4.01194
 30
0.000000
  70
    32
  0
VERTEX
  8
0
  5
2D5
 10
-0.457105
 20
-4.01740
 30
0.000000
  70
    32
  0
VERTEX
  8
0
  5
2D6
 10
-0.451995
 20
-4.02279
 30
0.000000
  70
    32
  0
VERTEX
  8
0
  5
2D7
 10
-0.446612
 20
-4.02813
 30
0.000000
  70
    32
  0
VERTEX
  8
0
  5
2D8
 10
-0.440961
 20
-4.03340
 30
0.000000
  70
    32
  0
VERTEX
  8
0
  5
2D9
 10
-0.435043
 20
-4.03860
 30
0.000000
  70
    32
  0
VERTEX
  8
0
  5
2DA
 10
-0.428864
 20
-4.04373
 30
0.000000
  70
    32
  0
VERTEX
  8
0
  5
2DB
 10
-0.422427
 20
-4.04878
 30
0.000000
  70
    32
  0
VERTEX
  8
0
  5
2DC
 10
-0.415735
 20
-4.05376
 30
0.000000
  70
    32
  0
VERTEX
  8
0
  5
2DD
 10
-0.408792
 20
-4.05866
 30
0.000000
  70
    32
  0
VERTEX
  8
0
  5
2DE
 10
-0.401604
 20
-4.06347
 30
0.000000
  70
    32
  0
VERTEX
  8
0
  5
2DF
 10
-0.394173
 20
-4.06819
 30
0.000000
  70
    32
  0
VERTEX
  8
0
  5
2E0
 10
-0.386505
 20
-4.07283
 30
0.000000
  70
    32
  0
VERTEX
  8
0
  5
2E1
 10
-0.378604
 20
-4.07737
 30
0.000000
  70
    32
  0
VERTEX
  8
0
  5
2E2
 10
-0.370476
 20
-4.08182
 30
0.000000
  70
    32
  0
VERTEX
  8
0
  5
2E3
 10
-0.362124
 20
-4.08617
 30
0.000000
  70
    32
  0
VERTEX
  8
0
  5
2E4
 10
-0.353553
 20
-4.09042
 30
0.000000
  70
    32
  0
VERTEX
  8
0
  5
2E5
 10
-0.344770
 20
-4.09456
 30
0.000000
  70
    32
  0
VERTEX
  8
0
  5
2E6
 10
-0.335779
 20
-4.09860
 30
0.000000
  70
    32
  0
VERTEX
  8
0
  5
2E7
 10
-0.326586
 20
-4.10254
 30
0.000000
  70
    32
  0
VERTEX
  8
0
  5
2E8
 10
-0.317197
 20
-4.10636
 30
0.000000
  70
    32
  0
VERTEX
  8
0
  5
2E9
 10
-0.307616
 20
-4.11007
 30
0.000000
  70
    32
  0
VERTEX
  8
0
  5
2EA
 10
-0.297850
 20
-4.11366
 30
0.000000
  70
    32
  0
VERTEX
  8
0
  5
2EB
 10
-0.287904
 20
-4.11714
 30
0.000000
  70
    32
  0
VERTEX
  8
0
  5
2EC
 10
-0.277785
 20
-4.12050
 30
0.000000
  70
    32
  0
VERTEX
  8
0
  5
2ED
 10
-0.267499
 20
-4.12374
 30
0.000000
  70
    32
  0
VERTEX
  8
0
  5
2EE
 10
-0.257051
 20
-4.12685
 30
0.000000
  70
    32
  0
VERTEX
  8
0
  5
2EF
 10
-0.246449
 20
-4.12984
 30
0.000000
  70
    32
  0
VERTEX
  8
0
  5
2F0
 10
-0.235698
 20
-4.13271
 30
0.000000
  70
    32
  0
VERTEX
  8
0
  5
2F1
 10
-0.224806
 20
-4.13544
 30
0.000000
  70
    32
  0
VERTEX
  8
0
  5
2F2
 10
-0.213778
 20
-4.13804
 30
0.000000
  70
    32
  0
VERTEX
  8
0
  5
2F3
 10
-0.202621
 20
-4.14052
 30
0.000000
  70
    32
  0
VERTEX
  8
0
  5
2F4
 10
-0.191342
 20
-4.14285
 30
0.000000
  70
    32
  0
VERTEX
  8
0
  5
2F5
 10
-0.179948
 20
-4.14506
 30
0.000000
  70
    32
  0
VERTEX
  8
0
  5
2F6
 10
-0.168445
 20
-4.14713
 30
0.000000
  70
    32
  0
VERTEX
  8
0
  5
2F7
 10
-0.156841
 20
-4.14906
 30
0.000000
  70
    32
  0
VERTEX
  8
0
  5
2F8
 10
-0.145142
 20
-4.15085
 30
0.000000
  70
    32
  0
VERTEX
  8
0
  5
2F9
 10
-0.133356
 20
-4.15251
 30
0.000000
  70
    32
  0
VERTEX
  8
0
  5
2FA
 10
-0.121490
 20
-4.15402
 30
0.000000
  70
    32
  0
VERTEX
  8
0
  5
2FB
 10
-0.109551
 20
-4.15539
 30
0.000000
  70
    32
  0
VERTEX
  8
0
  5
2FC
 10
-0.0975452
 20
-4.15662
 30
0.000000
  70
    32
  0
VERTEX
  8
0
  5
2FD
 10
-0.0854809
 20
-4.15771
 30
0.000000
  70
    32
  0
VERTEX
  8
0
  5
2FE
 10
-0.0733652
 20
-4.15865
 30
0.000000
  70
    32
  0
VERTEX
  8
0
  5
2FF
 10
-0.0612053
 20
-4.15945
 30
0.000000
  70
    32
  0
VERTEX
  8
0
  5
300
 10
-0.0490086
 20
-4.16010
 30
0.000000
  70
    32
  0
VERTEX
  8
0
  5
301
 10
-0.0367823
 20
-4.16061
 30
0.000000
  70
    32
  0
VERTEX
  8
0
  5
302
 10
-0.0245338
 20
-4.16098
 30
0.000000
  70
    32
  0
VERTEX
  8
0
  5
303
 10
-0.0122706
 20
-4.16120
 30
0.000000
  70
    32
  0
VERTEX
  8
0
  5
304
 10
-3.06162e-017
 20
-4.16127
 30
0.000000
  70
    32
  0
VERTEX
  8
0
  5
305
 10
0.0122706
 20
-4.16120
 30
0.000000
  70
    32
  0
VERTEX
  8
0
  5
306
 10
0.0245338
 20
-4.16098
 30
0.000000
  70
    32
  0
VERTEX
  8
0
  5
307
 10
0.0367823
 20
-4.16061
 30
0.000000
  70
    32
  0
VERTEX
  8
0
  5
308
 10
0.0490086
 20
-4.16010
 30
0.000000
  70
    32
  0
VERTEX
  8
0
  5
309
 10
0.0612053
 20
-4.15945
 30
0.000000
  70
    32
  0
VERTEX
  8
0
  5
30A
 10
0.0733652
 20
-4.15865
 30
0.000000
  70
    32
  0
VERTEX
  8
0
  5
30B
 10
0.0854809
 20
-4.15771
 30
0.000000
  70
    32
  0
VERTEX
  8
0
  5
30C
 10
0.0975452
 20
-4.15662
 30
0.000000
  70
    32
  0
VERTEX
  8
0
  5
30D
 10
0.109551
 20
-4.15539
 30
0.000000
  70
    32
  0
VERTEX
  8
0
  5
30E
 10
0.121490
 20
-4.15402
 30
0.000000
  70
    32
  0
VERTEX
  8
0
  5
30F
 10
0.133356
 20
-4.15251
 30
0.000000
  70
    32
  0
VERTEX
  8
0
  5
310
 10
0.145142
 20
-4.15085
 30
0.000000
  70
    32
  0
VERTEX
  8
0
  5
311
 10
0.156841
 20
-4.14906
 30
0.000000
  70
    32
  0
VERTEX
  8
0
  5
312
 10
0.168445
 20
-4.14713
 30
0.000000
  70
    32
  0
VERTEX
  8
0
  5
313
 10
0.179948
 20
-4.14506
 30
0.000000
  70
    32
  0
VERTEX
  8
0
  5
314
 10
0.191342
 20
-4.14285
 30
0.000000
  70
    32
  0
VERTEX
  8
0
  5
315
 10
0.202621
 20
-4.14052
 30
0.000000
  70
    32
  0
VERTEX
  8
0
  5
316
 10
0.213778
 20
-4.13804
 30
0.000000
  70
    32
  0
VERTEX
  8
0
  5
317
 10
0.224806
 20
-4.13544
 30
0.000000
  70
    32
  0
VERTEX
  8
0
  5
318
 10
0.235698
 20
-4.13271
 30
0.000000
  70
    32
  0
VERTEX
  8
0
  5
319
 10
0.246449
 20
-4.12984
 30
0.000000
  70
    32
  0
VERTEX
  8
0
  5
31A
 10
0.257051
 20
-4.12685
 30
0.000000
  70
    32
  0
VERTEX
  8
0
  5
31B
 10
0.267499
 20
-4.12374
 30
0.000000
  70
    32
  0
VERTEX
  8
0
  5
31C
 10
0.277785
 20
-4.12050
 30
0.000000
  70
    32
  0
VERTEX
  8
0
  5
31D
 10
0.287904
 20
-4.11714
 30
0.000000
  70
    32
  0
VERTEX
  8
0
  5
31E
 10
0.297850
 20
-4.11366
 30
0.000000
  70
    32
  0
VERTEX
  8
0
  5
31F
 10
0.307616
 20
-4.11007
 30
0.000000
  70
    32
  0
VERTEX
  8
0
  5
320
 10
0.317197
 20
-4.10636
 30
0.000000
  70
    32
  0
VERTEX
  8
0
  5
321
 10
0.326586
 20
-4.10254
 30
0.000000
  70
    32
  0
VERTEX
  8
0
  5
322
 10
0.335779
 20
-4.09860
 30
0.000000
  70
    32
  0
VERTEX
  8
0
  5
323
 10
0.344770
 20
-4.09456
 30
0.000000
  70
    32
  0
VERTEX
  8
0
  5
324
 10
0.353553
 20
-4.09042
 30
0.000000
  70
    32
  0
VERTEX
  8
0
  5
325
 10
0.362124
 20
-4.08617
 30
0.000000
  70
    32
  0
VERTEX
  8
0
  5
326
 10
0.370476
 20
-4.08182
 30
0.000000
  70
    32
  0
VERTEX
  8
0
  5
327
 10
0.378604
 20
-4.07737
 30
0.000000
  70
    32
  0
VERTEX
  8
0
  5
328
 10
0.386505
 20
-4.07283
 30
0.000000
  70
    32
  0
VERTEX
  8
0
  5
329
 10
0.394173
 20
-4.06819
 30
0.000000
  70
    32
  0
VERTEX
  8
0
  5
32A
 10
0.401604
 20
-4.06347
 30
0.000000
  70
    32
  0
VERTEX
  8
0
  5
32B
 10
0.408792
 20
-4.05866
 30
0.000000
  70
    32
  0
VERTEX
  8
0
  5
32C
 10
0.415735
 20
-4.05376
 30
0.000000
  70
    32
  0
VERTEX
  8
0
  5
32D
 10
0.422427
 20
-4.04878
 30
0.000000
  70
    32
  0
VERTEX
  8
0
  5
32E
 10
0.428864
 20
-4.04373
 30
0.000000
  70
    32
  0
VERTEX
  8
0
  5
32F
 10
0.435043
 20
-4.03860
 30
0.000000
  70
    32
  0
VERTEX
  8
0
  5
330
 10
0.440961
 20
-4.03340
 30
0.000000
  70
    32
  0
VERTEX
  8
0
  5
331
 10
0.446612
 20
-4.02813
 30
0.000000
  70
    32
  0
VERTEX
  8
0
  5
332
 10
0.451995
 20
-4.02279
 30
0.000000
  70
    32
  0
VERTEX
  8
0
  5
333
 10
0.457105
 20
-4.01740
 30
0.000000
  70
    32
  0
VERTEX
  8
0
  5
334
 10
0.461940
 20
-4.01194
 30
0.000000
  70
    32
  0
VERTEX
  8
0
  5
335
 10
0.466496
 20
-4.00643
 30
0.000000
  70
    32
  0
VERTEX
  8
0
  5
336
 10
0.470772
 20
-4.00086
 30
0.000000
  70
    32
  0
VERTEX
  8
0
  5
337
 10
0.474764
 20
-3.99525
 30
0.000000
  70
    32
  0
VERTEX
  8
0
  5
338
 10
0.478470
 20
-3.98959
 30
0.000000
  70
    32
  0
VERTEX
  8
0
  5
339
 10
0.481888
 20
-3.98389
 30
0.000000
  70
    32
  0
VERTEX
  8
0
  5
33A
 10
0.485016
 20
-3.97814
 30
0.000000
  70
    32
  0
VERTEX
  8
0
  5
33B
 10
0.487851
 20
-3.97237
 30
0.000000
  70
    32
  0
VERTEX
  8
0
  5
33C
 10
0.490393
 20
-3.96656
 30
0.000000
  70
    32
  0
VERTEX
  8
0
  5
33D
 10
0.492639
 20
-3.96072
 30
0.000000
  70
    32
  0
VERTEX
  8
0
  5
33E
 10
0.494588
 20
-3.95486
 30
0.000000
  70
    32
  0
VERTEX
  8
0
  5
33F
 10
0.496240
 20
-3.94898
 30
0.000000
  70
    32
  0
VERTEX
  8
0
  5
340
 10
0.497592
 20
-3.94308
 30
0.000000
  70
    32
  0
VERTEX
  8
0
  5
341
 10
0.498645
 20
-3.93716
 30
0.000000
  70
    32
  0
VERTEX
  8
0
  5
342
 10
0.499398
 20
-3.93124
 30
0.000000
  70
    32
  0
VERTEX
  8
0
  5
343
 10
0.499849
 20
-3.92530
 30
0.000000
  70
    32
  0
VERTEX
  8
0
  5
344
 10
0.500000
 20
-3.91937
 30
0.000000
  70
    32
  0
SEQEND
  8
0
  5
345
  0
ATTDEF
  5
9B
  8
DEFPOINTS
 10
0.0
 20
-0.005
 30
0.0
 40
0.001
  1
BRASS
  3

  2
MATERIAL
 70
     8
1001
AcDbAttr
1070
     0
1070
     1
  0
ATTDEF
  5
9D
  8
DEFPOINTS
 10
0.0
 20
-0.0033333333333333
 30
0.0
 40
0.001
  1
LAMINAR WALL MOUNT SINK FAUCET
  3

  2
PRODUCT
 70
     8
1001
AcDbAttr
1070
     0
1070
     1
  0
ATTDEF
  5
9E
  8
DEFPOINTS
 10
0.0
 20
-0.0016666666666667
 30
0.0
 40
0.001
  1
STILLNESS
  3

  2
TRADENAME
 70
     8
1001
AcDbAttr
1070
     0
1070
     1
  0
ATTDEF
  5
9F
  8
DEFPOINTS
 10
0.0
 20
0.0
 30
0.0
 40
0.001
  1
K-T945-4
  3

  2
MODELNUMBER
 70
     8
1001
AcDbAttr
1070
     0
1070
     1
  0
ENDSEC
  0
EOF
