  0
SECTION
  2
HEADER
  9
$ACADVER
  1
AC1009
  9
$INSBASE
 10
2910.4363798018198395
 20
134.0100035895590054
 30
0.0
  9
$EXTMIN
 10
2906.9843490427620054
 20
130.7065283465429104
 30
-0.0015258207003583
  9
$EXTMAX
 10
2913.8678827783778615
 20
137.2911369121898986
 30
0.0000000349246037
  9
$LIMMIN
 10
0.0
 20
0.0
  9
$LIMMAX
 10
11.6929133858000007
 20
8.2677165353999982
  9
$ORTHOMODE
 70
     1
  9
$REGENMODE
 70
     1
  9
$FILLMODE
 70
     1
  9
$QTEXTMODE
 70
     0
  9
$MIRRTEXT
 70
     0
  9
$DRAGMODE
 70
     2
  9
$LTSCALE
 40
0.6431102362
  9
$OSMODE
 70
  4095
  9
$ATTMODE
 70
     1
  9
$TEXTSIZE
 40
0.2
  9
$TRACEWID
 40
0.05
  9
$TEXTSTYLE
  7
STANDARD
  9
$CLAYER
  8
0
  9
$CELTYPE
  6
BYLAYER
  9
$CECOLOR
 62
   256
  9
$DIMSCALE
 40
1.0
  9
$DIMASZ
 40
0.1875
  9
$DIMEXO
 40
0.0625
  9
$DIMDLI
 40
0.4443307087
  9
$DIMRND
 40
0.0
  9
$DIMDLE
 40
0.0
  9
$DIMEXE
 40
0.125
  9
$DIMTP
 40
0.01
  9
$DIMTM
 40
0.01
  9
$DIMTXT
 40
2.0
  9
$DIMCEN
 40
0.1052362205
  9
$DIMTSZ
 40
0.0
  9
$DIMTOL
 70
     1
  9
$DIMLIM
 70
     0
  9
$DIMTIH
 70
     1
  9
$DIMTOH
 70
     1
  9
$DIMSE1
 70
     0
  9
$DIMSE2
 70
     0
  9
$DIMTAD
 70
     0
  9
$DIMZIN
 70
     0
  9
$DIMBLK
  1

  9
$DIMASO
 70
     1
  9
$DIMSHO
 70
     1
  9
$DIMPOST
  1
\X
  9
$DIMAPOST
  1

  9
$DIMALT
 70
     1
  9
$DIMALTD
 70
     2
  9
$DIMALTF
 40
25.3999999999999986
  9
$DIMLFAC
 40
1.0
  9
$DIMTOFL
 70
     0
  9
$DIMTVP
 40
0.0
  9
$DIMTIX
 70
     0
  9
$DIMSOXD
 70
     0
  9
$DIMSAH
 70
     0
  9
$DIMBLK1
  1

  9
$DIMBLK2
  1

  9
$DIMSTYLE
  2
STANDARD
  9
$DIMCLRD
 70
     0
  9
$DIMCLRE
 70
     0
  9
$DIMCLRT
 70
     0
  9
$DIMTFAC
 40
1.0
  9
$DIMGAP
 40
0.09
  9
$LUNITS
 70
     2
  9
$LUPREC
 70
     4
  9
$SKETCHINC
 40
0.1
  9
$FILLETRAD
 40
0.0
  9
$AUNITS
 70
     0
  9
$AUPREC
 70
     0
  9
$MENU
  1
.
  9
$ELEVATION
 40
0.0
  9
$PELEVATION
 40
0.0
  9
$THICKNESS
 40
0.0
  9
$LIMCHECK
 70
     0
  9
$BLIPMODE
 70
     0
  9
$CHAMFERA
 40
0.0
  9
$CHAMFERB
 40
0.0
  9
$SKPOLY
 70
     0
  9
$TDCREATE
 40
2458060.468368056230247
  9
$TDUPDATE
 40
2459653.4103124998509884
  9
$TDINDWG
 40
0.4481552083
  9
$TDUSRTIMER
 40
0.4481552083
  9
$USRTIMER
 70
     1
  9
$ANGBASE
 50
0.0
  9
$ANGDIR
 70
     0
  9
$PDMODE
 70
     0
  9
$PDSIZE
 40
0.3125
  9
$PLINEWID
 40
0.0
  9
$COORDS
 70
     1
  9
$SPLFRAME
 70
     0
  9
$SPLINETYPE
 70
     6
  9
$SPLINESEGS
 70
     8
  9
$ATTDIA
 70
     1
  9
$ATTREQ
 70
     1
  9
$HANDLING
 70
     1
  9
$HANDSEED
  5
39F22
  9
$SURFTAB1
 70
     6
  9
$SURFTAB2
 70
     6
  9
$SURFTYPE
 70
     6
  9
$SURFU
 70
     6
  9
$SURFV
 70
     6
  9
$UCSNAME
  2

  9
$UCSORG
 10
0.0
 20
0.0
 30
0.0
  9
$UCSXDIR
 10
1.0
 20
0.0
 30
0.0
  9
$UCSYDIR
 10
0.0
 20
1.0
 30
0.0
  9
$PUCSNAME
  2

  9
$PUCSORG
 10
0.0
 20
0.0
 30
0.0
  9
$PUCSXDIR
 10
1.0
 20
0.0
 30
0.0
  9
$PUCSYDIR
 10
0.0
 20
1.0
 30
0.0
  9
$USERI1
 70
     0
  9
$USERI2
 70
     0
  9
$USERI3
 70
     0
  9
$USERI4
 70
     0
  9
$USERI5
 70
     0
  9
$USERR1
 40
0.0
  9
$USERR2
 40
0.0
  9
$USERR3
 40
0.0
  9
$USERR4
 40
0.0
  9
$USERR5
 40
0.0
  9
$WORLDVIEW
 70
     1
  9
$SHADEDGE
 70
     3
  9
$SHADEDIF
 70
    70
  9
$TILEMODE
 70
     1
  9
$MAXACTVP
 70
    64
  9
$PLIMCHECK
 70
     0
  9
$PEXTMIN
 10
1.0000000000000000E+20
 20
1.0000000000000000E+20
 30
1.0000000000000000E+20
  9
$PEXTMAX
 10
-1.0000000000000000E+20
 20
-1.0000000000000000E+20
 30
-1.0000000000000000E+20
  9
$PLIMMIN
 10
0.0
 20
0.0
  9
$PLIMMAX
 10
12.0
 20
9.0
  9
$UNITMODE
 70
     0
  9
$VISRETAIN
 70
     1
  9
$PLINEGEN
 70
     0
  9
$PSLTSCALE
 70
     1
  0
ENDSEC
  0
SECTION
  2
TABLES
  0
TABLE
  2
VPORT
 70
     1
  0
VPORT
  2
*ACTIVE
 70
     0
 10
0.0
 20
0.0
 11
1.0
 21
1.0
 12
-893.1179514722425665
 22
8.0035704326164847
 13
0.0
 23
0.0
 14
1.0
 24
1.0
 15
0.0
 25
0.0
 16
0.0
 26
0.0
 36
17.1152628219792007
 17
3803.5440673828129547
 27
125.9952621967499056
 37
0.0
 40
6.6317537343747119
 41
2.2831541218637992
 42
50.0
 43
0.0
 44
0.0
 50
0.0
 51
0.0
 71
     0
 72
   100
 73
     1
 74
     1
 75
     0
 76
     0
 77
     0
 78
     0
  0
ENDTAB
  0
TABLE
  2
LTYPE
 70
     2
  0
LTYPE
  2
CONTINUOUS
 70
     0
  3
Solid line
 72
    65
 73
     0
 40
0.0
  0
LTYPE
  2
PHANTOM2
 70
     0
  3
___ _ _ ___ _ _ ___ _ _ ___ _ _
 72
    65
 73
     6
 40
1.25
 49
0.625
 49
-0.125
 49
0.125
 49
-0.125
 49
0.125
 49
-0.125
  0
ENDTAB
  0
TABLE
  2
LAYER
 70
     2
  0
LAYER
  2
0
 70
     0
 62
   255
  6
CONTINUOUS
  0
LAYER
  2
DEFPOINTS
 70
     0
 62
     7
  6
CONTINUOUS
  0
ENDTAB
  0
TABLE
  2
STYLE
 70
     1
  0
STYLE
  2
STANDARD
 70
     0
 40
0.0
 41
0.8
 50
0.0
 71
     0
 42
0.2
  3
txt
  4

  0
ENDTAB
  0
TABLE
  2
VIEW
 70
     0
  0
ENDTAB
  0
TABLE
  2
UCS
 70
     0
  0
ENDTAB
  0
TABLE
  2
APPID
 70
     9
  0
APPID
  2
ACAD
 70
     0
  0
APPID
  2
ACAD_MLEADERVER
 70
     0
  0
APPID
  2
ACAD_EXEMPT_FROM_CAD_STANDARDS
 70
     0
  0
APPID
  2
ACAD_NAV_VCDISPLAY
 70
     0
  0
APPID
  2
ACAECLAYERSTANDARD
 70
     0
  0
APPID
  2
ACCMTRANSPARENCY
 70
     0
  0
APPID
  2
ACAD_DSTYLE_DIMJAG
 70
     0
  0
APPID
  2
ACAD_DSTYLE_DIMTALN
 70
     0
  0
APPID
  2
ACDBATTR
 70
     0
  0
ENDTAB
  0
TABLE
  2
DIMSTYLE
 70
     1
  0
DIMSTYLE
  2
STANDARD
 70
     0
  3

  4

  5

  6

  7

 40
1.0
 41
0.1875
 42
0.0625
 43
0.38
 44
0.125
 45
0.0
 46
0.0
 47
0.01
 48
0.01
140
0.15625
141
0.09
142
0.0
143
25.3999999999999986
144
1.0
145
0.0
146
1.0
147
0.09
 71
     1
 72
     0
 73
     1
 74
     1
 75
     0
 76
     0
 77
     0
 78
     4
170
     0
171
     2
172
     0
173
     0
174
     0
175
     0
176
     0
177
     0
178
     0
  0
ENDTAB
  0
ENDSEC
  0
SECTION
  2
BLOCKS
  0
BLOCK
  8
0
  2
$MODEL_SPACE
 70
     0
 10
0.0
 20
0.0
 30
0.0
  3
$MODEL_SPACE
  1

  0
ENDBLK
  5
21
  8
0
  0
BLOCK
 67
     1
  8
0
  2
$PAPER_SPACE
 70
     0
 10
0.0
 20
0.0
 30
0.0
  3
$PAPER_SPACE
  1

  0
ENDBLK
  5
1D
 67
     1
  8
0
  0
BLOCK
  8
0
  2
_FILLED
 70
     0
 10
0.0
 20
0.0
 30
0.0
  3
_FILLED
  1

  0
SOLID
  5
3993D
  8
0
  6
BYBLOCK
 62
     0
 10
0.0
 20
0.0
 30
0.0
 11
-1.0
 21
0.1666666667
 31
0.0
 12
-1.0
 22
-0.1666666667
 32
0.0
 13
-1.0
 23
-0.1666666667
 33
0.0
  0
ENDBLK
  5
3993E
  8
0
  6
BYBLOCK
 62
     0
  0
ENDSEC
  0
SECTION
  2
ENTITIES
  0
ATTDEF
  5
397A9
  8
DEFPOINTS
 10
2910.4376457318458051
 20
134.0141915156578136
 30
0.0
 40
0.001
  1
K-72768-4
  3

  2
MODELNUMBER
 70
     0
1001
ACDBATTR
1070
     0
1070
     1
  0
ATTDEF
  5
397AA
  8
DEFPOINTS
 10
2910.4376457318458051
 20
134.0125248489912053
 30
0.0
 40
0.001
  1
ARTIFACTS
  3

  2
TRADENAME
 70
     0
1001
ACDBATTR
1070
     0
1070
     1
  0
ATTDEF
  5
397AB
  8
DEFPOINTS
 10
2910.4376457318458051
 20
134.0108581823245117
 30
0.0
 40
0.001
  1
VALVE TRIM
  3

  2
PRODUCT
 70
     0
1001
ACDBATTR
1070
     0
1070
     1
  0
ARC
  5
39D83
  8
0
 10
2910.4363798018198395
 20
134.009982609659005
 30
0.0
 40
3.2750209798999999
 50
272.2984511771874736
 51
267.7040472344914974
  0
ARC
  5
39D84
  8
0
 10
2910.163561612149806
 20
133.5266244482484979
 30
0.0
 40
0.0800542066476381
 50
353.0517666594299726
 51
60.5311108741546633
  0
ARC
  5
39D85
  8
0
 10
2909.952953203287052
 20
133.552351265893094
 30
0.0
 40
0.2922281212612892
 50
291.7794071671339111
 51
353.0399940819071958
  0
ARC
  5
39D86
  8
0
 10
2910.2762509785579823
 20
133.283999803159503
 30
0.0
 40
0.2148923592149722
 50
180.804487114212094
 51
228.111365799383691
  0
ARC
  5
39D87
  8
0
 10
2910.1117854474669002
 20
133.100584445988801
 30
0.0
 40
0.0314612679694812
 50
324.0571591457625118
 51
48.1628746133751235
  0
ARC
  5
39D88
  8
0
 10
2910.1764066491509766
 20
133.0509774841777073
 30
0.0
 40
0.0500242002390382
 50
141.5013217695409082
 51
246.598658856829303
  0
ARC
  5
39D89
  8
0
 10
2910.1505180070907954
 20
132.9810982724370092
 30
0.0
 40
0.0247142750353837
 50
346.739581899512018
 51
75.9004937851471198
  0
LINE
  5
39D8A
  8
0
 10
2910.174573339420931
 20
132.9754293768590117
 30
0.0
 11
2910.0679848394202054
 21
131.4676865955590017
 31
0.0
  0
ARC
  5
39D8B
  8
0
 10
2910.038388524561924
 20
131.4695573049262123
 30
0.0
 40
0.0296553773664073
 50
290.3053477986953226
 51
356.3832878063694238
  0
ARC
  5
39D8C
  8
0
 10
2910.0663798018208581
 20
131.3949826096589959
 30
0.0
 40
0.05
 50
110.7323818661740944
 51
209.9999999999971863
  0
ARC
  5
39D8D
  8
0
 10
2910.0022468469078376
 20
131.3537177117908925
 30
0.0
 40
0.026429263914531
 50
294.1841006170195101
 51
37.9818952350096168
  0
ARC
  5
39D8E
  8
0
 10
2910.0663956444750511
 20
131.2449913544282083
 30
0.0
 40
0.100015843036654
 50
122.2172334582186011
 51
237.7907628597187113
  0
ARC
  5
39D8F
  8
0
 10
2910.0022688891681355
 20
131.1362713434569116
 30
0.0
 40
0.0264124950635359
 50
321.9376455344469719
 51
65.8238957009495635
  0
ARC
  5
39D90
  8
0
 10
2910.0662264683651301
 20
131.0950108724935035
 30
0.0
 40
0.049867713822455
 50
149.9431783620329099
 51
253.166400143084104
  0
ARC
  5
39D91
  8
0
 10
2910.0481493815350404
 20
131.0238704115974997
 30
0.0
 40
0.0236902374013131
 50
9.7081298181077056
 51
81.1719329706673847
  0
ARC
  5
39D92
  8
0
 10
2910.3024438346678835
 20
131.0965544450465927
 30
0.0
 40
0.2409420847604452
 50
196.5639772571547041
 51
239.6610485956975936
  0
ARC
  5
39D93
  8
0
 10
2910.1703163171878259
 20
130.8646154821003051
 30
0.0
 40
0.0261599585272562
 50
354.8543778872314078
 51
66.5168960347509
  0
LINE
  5
39D94
  8
0
 10
2910.1963708502207737
 20
130.8622692641590106
 30
0.0
 11
2910.1963798018209673
 21
130.839664230058986
 31
0.0
  0
ARC
  5
39D95
  8
0
 10
2910.2222335671408473
 20
130.8361418835849008
 30
0.0
 40
0.0260926063461974
 50
172.2417244625833064
 51
268.4560065907278954
  0
ARC
  5
39D96
  8
0
 10
2910.2049323924929922
 20
130.7063895967177984
 30
0.0
 40
0.1049894810939265
 50
15.64455859593272
 51
80.9037644193174259
  0
ARC
  5
39D97
  8
0
 10
2910.3318907576490346
 20
130.7404629144782859
 30
0.0
 40
0.0264923754311336
 50
192.559668612630503
 51
268.2703496755560764
  0
LINE
  5
39D98
  8
0
 10
2910.3310911248208868
 20
130.7139826096590127
 30
0.0
 11
2910.5416684789202009
 21
130.7139826096590127
 31
0.0
  0
ARC
  5
39D99
  8
0
 10
2910.4363797339210578
 20
131.7099931786590048
 30
0.0
 40
0.4999999322117035
 50
130.4460041138480051
 51
214.8310193910292867
  0
ARC
  5
39D9A
  8
0
 10
2910.4363798018198395
 20
131.7099826096589936
 30
0.0
 40
0.3750028452000001
 50
155.0829337709564868
 51
196.8295754551230914
  0
ARC
  5
39D9B
  8
0
 10
2910.4363798698209393
 20
131.7099743817589967
 30
0.0
 40
0.4050200734638194
 50
145.8530239251093121
 51
206.0594853009658038
  0
LINE
  5
39D9C
  8
0
 10
2910.0486796282020805
 20
131.4417448150589962
 30
0.0
 11
2910.8240799755390071
 21
131.4417448150589962
 31
0.0
  0
LINE
  5
39D9D
  8
0
 10
2910.0130581777661973
 20
131.3295979942589895
 30
0.0
 11
2910.8597014259748903
 21
131.3295979942589895
 31
0.0
  0
LINE
  5
39D9E
  8
0
 10
2910.0130859308201252
 20
131.1603672249590034
 30
0.0
 11
2910.8596736729200529
 21
131.1603672249590034
 31
0.0
  0
LINE
  5
39D9F
  8
0
 10
2910.0524309471961715
 20
131.0471705305589865
 30
0.0
 11
2910.8203286565449162
 21
131.0471705305589865
 31
0.0
  0
LINE
  5
39DA0
  8
0
 10
2910.2213539378808491
 20
130.8100641084056122
 30
0.0
 11
2910.6514056658597838
 21
130.8100641084056122
 31
0.0
  0
LINE
  5
39DA1
  8
0
 10
2910.0613798018198395
 20
133.2809826096589916
 30
0.0
 11
2910.8113798019198839
 21
133.2809826096589916
 31
0.0
  0
LINE
  5
39DA2
  8
0
 10
2909.8863798018201123
 20
134.2253901203573889
 30
0.0
 11
2909.8863798018201123
 21
133.7940301715287035
 31
0.0
  0
CIRCLE
  5
39DA3
  8
0
 10
2910.4363798018198395
 20
134.009982609659005
 30
0.0
 40
0.3450000001471265
  0
ARC
  5
39DA4
  8
0
 10
2910.4363798018198395
 20
134.009982609659005
 30
0.0
 40
2.8939999999464918
 50
278.1286952387035853
 51
261.8713047634018949
  0
ARC
  5
39DA5
  8
0
 10
2910.4363798018198395
 20
134.009982609659005
 30
0.0
 40
0.6976359530280014
 50
291.9591322411944248
 51
248.0408677654062046
  0
ARC
  5
39DA6
  8
0
 10
2910.4363798018198395
 20
134.009982609659005
 30
0.0
 40
0.7925657373591868
 50
295.6898956324727124
 51
244.3101043717794028
  0
ARC
  5
39DA7
  8
0
 10
2909.9163796956918304
 20
134.2253737059473906
 30
0.0
 40
0.0299998938720874
 50
134.9999159468395078
 51
180.0000838210395102
  0
ARC
  5
39DA8
  8
0
 10
2910.4363798018198395
 20
134.009982609659005
 30
0.0
 40
1.1605019282487761
 50
283.3766874684861818
 51
256.6233125365210981
  0
ARC
  5
39DA9
  8
0
 10
2910.4363798018198395
 20
134.009982609659005
 30
0.0
 40
1.0405346065013941
 50
286.1456186271436195
 51
253.8543813824032043
  0
CIRCLE
  5
39DAA
  8
0
 10
2910.4363798018198395
 20
134.009982609659005
 30
0.0
 40
0.3251086800593375
  0
LINE
  5
39DAB
  8
0
 10
2909.8951665984209285
 20
134.246586865458994
 30
0.0
 11
2910.1997755459819928
 21
134.5511958130921073
 31
0.0
  0
ARC
  5
39DAC
  8
0
 10
2910.2209887494209397
 20
134.5299826096589868
 30
0.0
 40
0.0299999999999998
 50
90.0
 51
135.0000000066877988
  0
LINE
  5
39DAD
  8
0
 10
2910.2209887494209397
 20
134.5599826096589879
 30
0.0
 11
2910.6517708543201479
 21
134.5599826096589879
 31
0.0
  0
LINE
  5
39DAE
  8
0
 10
2910.230199134187842
 20
133.4599826096589936
 30
0.0
 11
2910.2209887449198504
 21
133.4599826096589936
 31
0.0
  0
ARC
  5
39DAF
  8
0
 10
2910.2209887449198504
 20
133.4898889123348056
 30
0.0
 40
0.0299063026757835
 50
225.1250669279617966
 51
270.0
  0
LINE
  5
39DB0
  8
0
 10
2910.1998880060300507
 20
133.4686958531403036
 30
0.0
 11
2909.8951673237129398
 21
133.7733776284667044
 31
0.0
  0
ARC
  5
39DB1
  8
0
 10
2909.9164103830989916
 20
133.794612198920106
 30
0.0
 40
0.0300362209305525
 50
181.110319452705312
 51
224.9865915041276878
  0
ARC
  5
39DB2
  8
0
 10
2910.7111934369740993
 20
133.5262771844944041
 30
0.0
 40
0.0819950826152115
 50
126.2973326677962973
 51
186.5386749920641876
  0
ARC
  5
39DB3
  8
0
 10
2910.9198064004540356
 20
133.552351265893094
 30
0.0
 40
0.2922281212612892
 50
186.9600059180928895
 51
248.2205928328660889
  0
ARC
  5
39DB4
  8
0
 10
2910.5965086251831053
 20
133.283999803159503
 30
0.0
 40
0.2148923592149722
 50
311.888634200616309
 51
359.1955128857878776
  0
ARC
  5
39DB5
  8
0
 10
2910.7609741562741874
 20
133.100584445988801
 30
0.0
 40
0.0314612679694812
 50
131.8371253866249049
 51
215.9428408542374882
  0
ARC
  5
39DB6
  8
0
 10
2910.696352954590111
 20
133.0509774841777073
 30
0.0
 40
0.0500242002390382
 50
293.4013411431707254
 51
38.4986782304590704
  0
ARC
  5
39DB7
  8
0
 10
2910.722241596648928
 20
132.9810982724370092
 30
0.0
 40
0.0247142750353837
 50
104.0995062148528945
 51
193.2604181004878967
  0
LINE
  5
39DB8
  8
0
 10
2910.6981862643201566
 20
132.9754293768590117
 30
0.0
 11
2910.8047747643208822
 21
131.4676865955590017
 31
0.0
  0
ARC
  5
39DB9
  8
0
 10
2910.8343710791791636
 20
131.4695573049262123
 30
0.0
 40
0.0296553773664073
 50
183.6167121936306046
 51
249.6946522013045922
  0
ARC
  5
39DBA
  8
0
 10
2910.8063798019197748
 20
131.3949826096589959
 30
0.0
 40
0.05
 50
330.0000000000026716
 51
69.2676181338259198
  0
ARC
  5
39DBB
  8
0
 10
2910.8705127568327953
 20
131.3537177117908925
 30
0.0
 40
0.026429263914531
 50
142.0181047649903121
 51
245.8158993829804899
  0
ARC
  5
39DBC
  8
0
 10
2910.8063639592660365
 20
131.2449913544282083
 30
0.0
 40
0.100015843036654
 50
302.2092371402812887
 51
57.7827665417813989
  0
ARC
  5
39DBD
  8
0
 10
2910.8704907145729521
 20
131.1362713434569116
 30
0.0
 40
0.0264124950635359
 50
114.1761042990503938
 51
218.0623544655529997
  0
ARC
  5
39DBE
  8
0
 10
2910.8065331353759575
 20
131.0950108724935035
 30
0.0
 40
0.049867713822455
 50
286.833599856915896
 51
30.0568216379671007
  0
ARC
  5
39DBF
  8
0
 10
2910.8246102222060472
 20
131.0238704115974997
 30
0.0
 40
0.0236902374013131
 50
98.8280670293326438
 51
170.2918701818923068
  0
ARC
  5
39DC0
  8
0
 10
2910.5703157690732041
 20
131.0965544450465927
 30
0.0
 40
0.2409420847604452
 50
300.3389514043025201
 51
343.4360227428452959
  0
ARC
  5
39DC1
  8
0
 10
2910.702443286552807
 20
130.8646154821003051
 30
0.0
 40
0.0261599585272562
 50
113.4831039652491
 51
185.1456221127685922
  0
LINE
  5
39DC2
  8
0
 10
2910.6763887535198592
 20
130.8622692641590106
 30
0.0
 11
2910.6763798019201204
 21
130.839664230058986
 31
0.0
  0
ARC
  5
39DC3
  8
0
 10
2910.6505260365997856
 20
130.8361418835849008
 30
0.0
 40
0.0260926063461974
 50
271.5439934092719909
 51
7.758275537416722
  0
ARC
  5
39DC4
  8
0
 10
2910.6678272112480954
 20
130.7063895967177984
 30
0.0
 40
0.1049894810939265
 50
99.0962355806825741
 51
164.3554414040671929
  0
ARC
  5
39DC5
  8
0
 10
2910.540868846092053
 20
130.7404629144782859
 30
0.0
 40
0.0264923754311336
 50
271.7296503244439236
 51
347.4403313873693833
  0
ARC
  5
39DC6
  8
0
 10
2910.4363798698209393
 20
131.7099931786590048
 30
0.0
 40
0.4999999322117035
 50
325.1689806089693775
 51
49.5539958861519381
  0
ARC
  5
39DC7
  8
0
 10
2910.4363798019198839
 20
131.7099826096589936
 30
0.0
 40
0.3750028452000001
 50
343.1704245448768233
 51
24.9170662290434812
  0
ARC
  5
39DC8
  8
0
 10
2910.4363797339210578
 20
131.7099743817589967
 30
0.0
 40
0.4050200734638194
 50
333.9405146990341109
 51
34.1469760748906808
  0
LINE
  5
39DC9
  8
0
 10
2910.9863798019209753
 20
134.2253901203573889
 30
0.0
 11
2910.9863798019209753
 21
133.7940301715287035
 31
0.0
  0
ARC
  5
39DCA
  8
0
 10
2910.9563799080488025
 20
134.2253737059473906
 30
0.0
 40
0.0299998938720874
 50
359.9999161789605182
 51
45.0000840531605419
  0
LINE
  5
39DCB
  8
0
 10
2910.9775930053201591
 20
134.246586865458994
 30
0.0
 11
2910.6729840577581854
 21
134.5511958130921073
 31
0.0
  0
ARC
  5
39DCC
  8
0
 10
2910.6517708543201479
 20
134.5299826096589868
 30
0.0
 40
0.0299999999999998
 50
44.9999999933121799
 51
90.0
  0
LINE
  5
39DCD
  8
0
 10
2910.6425604695527909
 20
133.4599826096589936
 30
0.0
 11
2910.651770858819873
 21
133.4599826096589936
 31
0.0
  0
ARC
  5
39DCE
  8
0
 10
2910.651770858819873
 20
133.4898889123348056
 30
0.0
 40
0.0299063026757835
 50
270.0
 51
314.8749330720381181
  0
LINE
  5
39DCF
  8
0
 10
2910.6728715977110369
 20
133.4686958531403036
 30
0.0
 11
2910.9775922800281478
 21
133.7733776284667044
 31
0.0
  0
ARC
  5
39DD0
  8
0
 10
2910.956349220642096
 20
133.794612198920106
 30
0.0
 40
0.0300362209305525
 50
315.0134084958722838
 51
358.8896805472945744
  0
LINE
  5
39DD1
  8
0
 10
2910.142105555382841
 20
133.0921878729822083
 30
0.0
 11
2910.7306540483591561
 21
133.0921878729822083
 31
0.0
  0
LINE
  5
39DD2
  8
0
 10
2910.1565385689209506
 20
133.0050680080589984
 30
0.0
 11
2910.7162210348210465
 21
133.0050680080589984
 31
0.0
  0
LINE
  5
39DD3
  8
0
 10
2910.1807405013200878
 20
130.888608810659008
 30
0.0
 11
2910.6920191024200903
 21
130.888608810659008
 31
0.0
  0
ARC
  5
39DD5
  8
0
 10
2910.4363798018198395
 20
134.0100035895590054
 30
0.0
 40
0.4749999995366779
 50
298.4484224430437962
 51
240.5645263880842037
  0
CIRCLE
  5
39DD6
  8
0
 10
2910.4363798018198395
 20
134.0100035895590054
 30
0.0
 40
0.345000000785034
  0
ENDSEC
  0
EOF
