  0
SECTION
  2
HEADER
  9
$ACADVER
  1
AC1009
  9
$INSBASE
 10
79.820910257677184
 20
17.873089857733351
 30
0.0
  9
$EXTMIN
 10
37.8215750361
 20
17.873089857733351
 30
0.0
  9
$EXTMAX
 10
79.83835851482722
 20
23.104121278899999
 30
0.0
  9
$LIMMIN
 10
0.0
 20
0.0
  9
$LIMMAX
 10
11.692913385800001
 20
8.2677165353999982
  9
$ORTHOMODE
 70
     0
  9
$REGENMODE
 70
     1
  9
$FILLMODE
 70
     1
  9
$QTEXTMODE
 70
     0
  9
$MIRRTEXT
 70
     0
  9
$DRAGMODE
 70
     2
  9
$LTSCALE
 40
0.6431102362
  9
$OSMODE
 70
  3071
  9
$ATTMODE
 70
     1
  9
$TEXTSIZE
 40
0.001
  9
$TRACEWID
 40
0.05
  9
$TEXTSTYLE
  7
STANDARD
  9
$CLAYER
  8
0
  9
$CELTYPE
  6
BYLAYER
  9
$CECOLOR
 62
   256
  9
$DIMSCALE
 40
1.0
  9
$DIMASZ
 40
0.1875
  9
$DIMEXO
 40
0.0625
  9
$DIMDLI
 40
0.4443307087
  9
$DIMRND
 40
0.0
  9
$DIMDLE
 40
0.0
  9
$DIMEXE
 40
0.125
  9
$DIMTP
 40
0.0
  9
$DIMTM
 40
0.0
  9
$DIMTXT
 40
0.15625
  9
$DIMCEN
 40
0.1052362205
  9
$DIMTSZ
 40
0.0
  9
$DIMTOL
 70
     0
  9
$DIMLIM
 70
     0
  9
$DIMTIH
 70
     1
  9
$DIMTOH
 70
     1
  9
$DIMSE1
 70
     0
  9
$DIMSE2
 70
     0
  9
$DIMTAD
 70
     0
  9
$DIMZIN
 70
     0
  9
$DIMBLK
  1

  9
$DIMASO
 70
     1
  9
$DIMSHO
 70
     1
  9
$DIMPOST
  1

  9
$DIMAPOST
  1

  9
$DIMALT
 70
     0
  9
$DIMALTD
 70
     2
  9
$DIMALTF
 40
25.399999999999999
  9
$DIMLFAC
 40
1.0
  9
$DIMTOFL
 70
     0
  9
$DIMTVP
 40
0.0
  9
$DIMTIX
 70
     0
  9
$DIMSOXD
 70
     0
  9
$DIMSAH
 70
     0
  9
$DIMBLK1
  1

  9
$DIMBLK2
  1

  9
$DIMSTYLE
  2
STANDARD
  9
$DIMCLRD
 70
     0
  9
$DIMCLRE
 70
     0
  9
$DIMCLRT
 70
     0
  9
$DIMTFAC
 40
1.0
  9
$DIMGAP
 40
0.09
  9
$LUNITS
 70
     2
  9
$LUPREC
 70
     4
  9
$SKETCHINC
 40
0.1
  9
$FILLETRAD
 40
0.0
  9
$AUNITS
 70
     0
  9
$AUPREC
 70
     0
  9
$MENU
  1
.
  9
$ELEVATION
 40
0.0
  9
$PELEVATION
 40
0.0
  9
$THICKNESS
 40
0.0
  9
$LIMCHECK
 70
     0
  9
$BLIPMODE
 70
     0
  9
$CHAMFERA
 40
0.0
  9
$CHAMFERB
 40
0.0
  9
$SKPOLY
 70
     0
  9
$TDCREATE
 40
2457402.4994183681
  9
$TDUPDATE
 40
2457402.6729043061
  9
$TDINDWG
 40
0.104190162
  9
$TDUSRTIMER
 40
0.104190162
  9
$USRTIMER
 70
     1
  9
$ANGBASE
 50
0.0
  9
$ANGDIR
 70
     0
  9
$PDMODE
 70
     0
  9
$PDSIZE
 40
0.3125
  9
$PLINEWID
 40
0.0
  9
$COORDS
 70
     1
  9
$SPLFRAME
 70
     0
  9
$SPLINETYPE
 70
     6
  9
$SPLINESEGS
 70
     8
  9
$ATTDIA
 70
     0
  9
$ATTREQ
 70
     1
  9
$HANDLING
 70
     1
  9
$HANDSEED
  5
10D8
  9
$SURFTAB1
 70
     6
  9
$SURFTAB2
 70
     6
  9
$SURFTYPE
 70
     6
  9
$SURFU
 70
     6
  9
$SURFV
 70
     6
  9
$UCSNAME
  2

  9
$UCSORG
 10
0.0
 20
0.0
 30
0.0
  9
$UCSXDIR
 10
1.0
 20
0.0
 30
0.0
  9
$UCSYDIR
 10
0.0
 20
1.0
 30
0.0
  9
$PUCSNAME
  2

  9
$PUCSORG
 10
0.0
 20
0.0
 30
0.0
  9
$PUCSXDIR
 10
1.0
 20
0.0
 30
0.0
  9
$PUCSYDIR
 10
0.0
 20
1.0
 30
0.0
  9
$USERI1
 70
     0
  9
$USERI2
 70
     0
  9
$USERI3
 70
     0
  9
$USERI4
 70
     0
  9
$USERI5
 70
     0
  9
$USERR1
 40
0.0
  9
$USERR2
 40
0.0
  9
$USERR3
 40
0.0
  9
$USERR4
 40
0.0
  9
$USERR5
 40
0.0
  9
$WORLDVIEW
 70
     1
  9
$SHADEDGE
 70
     3
  9
$SHADEDIF
 70
    70
  9
$TILEMODE
 70
     1
  9
$MAXACTVP
 70
    48
  9
$PLIMCHECK
 70
     0
  9
$PEXTMIN
 10
1.0000000000000000E+020
 20
1.0000000000000000E+020
 30
1.0000000000000000E+020
  9
$PEXTMAX
 10
-1.0000000000000000E+020
 20
-1.0000000000000000E+020
 30
-1.0000000000000000E+020
  9
$PLIMMIN
 10
0.0
 20
0.0
  9
$PLIMMAX
 10
12.0
 20
9.0
  9
$UNITMODE
 70
     0
  9
$VISRETAIN
 70
     1
  9
$PLINEGEN
 70
     0
  9
$PSLTSCALE
 70
     1
  0
ENDSEC
  0
SECTION
  2
TABLES
  0
TABLE
  2
VPORT
 70
     1
  0
VPORT
  2
*ACTIVE
 70
     0
 10
0.0
 20
0.0
 11
1.0
 21
1.0
 12
58.529328605915481
 22
20.12848070392182
 13
0.0
 23
0.0
 14
1.0
 24
1.0
 15
0.0
 25
0.0
 16
0.0
 26
0.0
 36
1.0
 17
0.0
 27
0.0
 37
0.0
 40
23.72619395962408
 41
1.9501018329938891
 42
50.0
 43
0.0
 44
0.0
 50
0.0
 51
0.0
 71
     0
 72
   100
 73
     1
 74
     1
 75
     0
 76
     0
 77
     0
 78
     0
  0
ENDTAB
  0
TABLE
  2
LTYPE
 70
     1
  0
LTYPE
  2
CONTINUOUS
 70
     0
  3
Solid line
 72
    65
 73
     0
 40
0.0
  0
ENDTAB
  0
TABLE
  2
LAYER
 70
     2
  0
LAYER
  2
0
 70
     0
 62
     7
  6
CONTINUOUS
  0
LAYER
  2
DEFPOINTS
 70
     0
 62
     7
  6
CONTINUOUS
  0
ENDTAB
  0
TABLE
  2
STYLE
 70
     1
  0
STYLE
  2
STANDARD
 70
     0
 40
0.0
 41
0.8
 50
0.0
 71
     0
 42
0.001
  3
txt
  4

  0
ENDTAB
  0
TABLE
  2
VIEW
 70
     4
  0
ENDTAB
  0
TABLE
  2
UCS
 70
     0
  0
ENDTAB
  0
TABLE
  2
APPID
 70
     4
  0
APPID
  2
ACAD
 70
     0
  0
APPID
  2
ACAD_MLEADERVER
 70
     0
  0
APPID
  2
ACAD_NAV_VCDISPLAY
 70
     0
  0
APPID
  2
ACDBATTR
 70
     0
  0
ENDTAB
  0
TABLE
  2
DIMSTYLE
 70
     1
  0
DIMSTYLE
  2
STANDARD
 70
     0
  3

  4

  5

  6

  7

 40
1.0
 41
0.1875
 42
0.0625
 43
0.38
 44
0.125
 45
0.0
 46
0.0
 47
1.5
 48
1.5
140
0.15625
141
0.09
142
0.0
143
25.399999999999999
144
1.0
145
0.0
146
1.0
147
0.09
 71
     0
 72
     0
 73
     1
 74
     1
 75
     0
 76
     0
 77
     0
 78
     4
170
     0
171
     2
172
     0
173
     0
174
     0
175
     0
176
     0
177
     0
178
     0
  0
ENDTAB
  0
ENDSEC
  0
SECTION
  2
BLOCKS
  0
BLOCK
  8
0
  2
$MODEL_SPACE
 70
     2
 10
0.0
 20
0.0
 30
0.0
  3
$MODEL_SPACE
  1

  0
ENDBLK
  5
21
  8
0
  0
BLOCK
 67
     1
  8
0
  2
$PAPER_SPACE
 70
     0
 10
0.0
 20
0.0
 30
0.0
  3
$PAPER_SPACE
  1

  0
ENDBLK
  5
1D
 67
     1
  8
0
  0
ENDSEC
  0
SECTION
  2
ENTITIES
  0
LINE
  5
3E1
  8
0
 10
37.8215750361
 20
18.560788712000001
 30
0.0
 11
37.978798211200001
 21
23.104121278899999
 31
0.0
  0
LINE
  5
3E2
  8
0
 10
38.004567544547328
 20
21.50871186677028
 30
0.0
 11
37.901623799600003
 21
18.560788712000001
 31
0.0
  0
LINE
  5
408
  8
0
 10
71.768675470700003
 20
19.6713532986
 30
0.0
 11
71.873850182799998
 21
19.677878228400001
 31
0.0
  0
LINE
  5
40D
  8
0
 10
72.835614772299991
 20
17.8730898578
 30
0.0
 11
77.051105742999994
 21
17.8730898578
 31
0.0
  0
LINE
  5
419
  8
0
 10
37.901623799600003
 20
18.560788712000001
 30
0.0
 11
37.8215750361
 21
18.560788712000001
 31
0.0
  0
LINE
  5
423
  8
0
 10
78.3204814809
 20
21.720761142400001
 30
0.0
 11
79.059284081599998
 21
21.778795456299999
 31
0.0
  0
LINE
  5
433
  8
0
 10
41.579383381
 20
21.0504090606
 30
0.0
 11
41.707604754000002
 21
21.046374517899999
 31
0.0
  0
LINE
  5
434
  8
0
 10
41.707604754000002
 20
21.046374517899999
 30
0.0
 11
71.581570914300002
 21
20.107552333299999
 31
0.0
  0
LINE
  5
437
  8
0
 10
40.859290079099992
 20
21.7061680423
 30
0.0
 11
38.551049149546941
 21
21.787677138030059
 31
0.0
  0
LINE
  5
463
  8
0
 10
78.014147102199999
 20
19.720670548400001
 30
0.0
 11
77.914478281499996
 21
19.728802348999999
 31
0.0
  0
LINE
  5
476
  8
0
 10
79.820910257600005
 20
23.104121278000001
 30
0.0
 11
37.978798211200001
 21
23.104121278899999
 31
0.0
  0
LINE
  5
494
  8
0
 10
72.6144909426
 20
17.980329663799999
 30
0.0
 11
72.3585990033
 21
18.236221603000001
 31
0.0
  0
LINE
  5
4B3
  8
0
 10
71.768675470700003
 20
19.6713532986
 30
0.0
 11
71.848979354600004
 21
19.127373459800001
 31
0.0
  0
LINE
  5
4B5
  8
0
 10
71.847510685200007
 20
19.856302420999999
 30
0.0
 11
71.873850182799998
 21
19.677878228400001
 31
0.0
  0
LINE
  5
4C1
  8
0
 10
77.528121511999998
 20
18.236221603000001
 30
0.0
 11
77.272229572699999
 21
17.980329663799999
 31
0.0
  0
LINE
  5
4F2
  8
0
 10
79.805159306600004
 20
22.905616693900001
 30
0.0
 11
79.7394457977
 21
22.980992640699998
 31
0.0
  0
LINE
  5
4FB
  8
0
 10
79.820910257600005
 20
23.104121278699999
 30
0.0
 11
79.820910257600005
 21
23.022021473900001
 31
0.0
  0
LINE
  5
502
  8
0
 10
78.049947026400005
 20
21.450686234100001
 30
0.0
 11
77.914478281499996
 21
19.728802348999999
 31
0.0
  0
ARC
  5
532
  8
0
 10
41.593675276999988
 20
21.505184545500001
 30
0.0
 40
0.455
 50
189.99999821899999
 51
268.19999996270002
  0
ARC
  5
533
  8
0
 10
38.433544952597508
 20
21.324893161256281
 30
0.0
 40
0.4667021888895425
 50
89.939603900220376
 51
156.80465423755419
  0
ARC
  5
534
  8
0
 10
40.847037839393657
 20
21.407269267697291
 30
0.0
 40
0.2991478904064932
 50
3.6233593113853839
 51
87.718915217107266
  0
ARC
  5
537
  8
0
 10
77.00706452979999
 20
18.245494706700001
 30
0.0
 40
0.375
 50
276.74456728360002
 51
315.0
  0
ARC
  5
538
  8
0
 10
72.879655985500008
 20
18.245494706700001
 30
0.0
 40
0.375
 50
225.0
 51
263.25543271639998
  0
ARC
  5
539
  8
0
 10
77.750860148000001
 20
18.013482967000002
 30
0.0
 40
0.315
 50
123.0603150524
 51
135.0
  0
ARC
  5
53A
  8
0
 10
72.135860367199996
 20
18.013482967000002
 30
0.0
 40
0.315
 50
45.0
 51
60.51517924689999
  0
ARC
  5
53B
  8
0
 10
71.555673482499984
 20
19.813220556299999
 30
0.0
 40
0.295
 50
8.3975188617000001
 51
88.199999999300005
  0
ARC
  5
53C
  8
0
 10
79.013372413358852
 20
22.359551752050901
 30
0.0
 40
0.5825682417837296
 50
274.5201150121365
 51
298.88607123755202
  0
ARC
  5
53D
  8
0
 10
79.854167242021717
 20
22.854598383823241
 30
0.0
 40
0.1706942235656756
 50
101.2350080169516
 51
132.2283798363132
  0
ARC
  5
79A
  8
0
 10
80.050593219072113
 20
22.687545828890201
 30
0.0
 40
0.3283169987188294
 50
138.3785627122767
 51
172.8368997739374
  0
ARC
  5
79B
  8
0
 10
72.816146064146665
 20
19.100253013576559
 30
0.0
 40
0.9675468787912409
 50
178.39378257391519
 51
237.12130221625219
  0
ARC
  5
79C
  8
0
 10
77.134420709938823
 20
18.960532364066271
 30
0.0
 40
0.8150000625383723
 50
303.06031486084908
 51
344.98521804516218
  0
ARC
  5
79D
  8
0
 10
64.987531559986465
 20
20.471901964274359
 30
0.0
 40
13.04825893078597
 50
352.41419960251108
 51
356.69946741557061
  0
ARC
  5
79E
  8
0
 10
78.294295562419464
 20
21.466307371642259
 30
0.0
 40
0.2448473544166454
 50
99.336711156805421
 51
183.65792618248531
  0
LINE
  5
79F
  8
0
 10
78.320481490575716
 20
21.72076114316004
 30
0.0
 11
78.254572483399997
 21
21.707910980800001
 31
0.0
  0
LINE
  5
7A0
  8
0
 10
79.7394457977
 20
22.980992640699998
 30
0.0
 11
76.848989471599992
 21
22.980992826200001
 31
0.0
  0
LINE
  5
7A1
  8
0
 10
76.848989471599992
 20
22.980992826200001
 30
0.0
 11
76.848989464858619
 21
21.843375136401299
 31
0.0
  0
LINE
  5
7AD
  8
0
 10
76.848989464858619
 20
21.843375136401299
 30
0.0
 11
79.094672916200395
 21
21.855123653300758
 31
0.0
  0
ARC
  5
7AE
  8
0
 10
78.901789587434294
 20
11.52484002196703
 30
0.0
 40
10.33208419837457
 50
87.940835130897526
 51
88.930318173637474
  0
ARC
  5
7AF
  8
0
 10
79.334302057947582
 20
23.243090732212568
 30
0.0
 40
1.3941851540633019
 50
267.48140715023823
 51
275.06608163569678
  0
LINE
  5
7B0
  8
0
 10
79.72483865733011
 20
22.72848504457836
 30
0.0
 11
79.70236496558725
 21
22.551982363929419
 31
0.0
  0
ARC
  5
7B1
  8
0
 10
78.916252032561573
 20
22.419662794628131
 30
0.0
 40
0.7971712563121648
 50
313.70572062251489
 51
9.5545399435950511
  0
LINE
  5
7B2
  8
0
 10
79.467061172200005
 20
21.843389158600001
 30
0.0
 11
79.457390110542136
 21
21.854345265312599
 31
0.0
  0
LINE
  5
7B3
  8
0
 10
79.059276397668071
 20
21.77879485271291
 30
0.0
 11
79.054940029099996
 21
21.780729303699999
 31
0.0
  0
ARC
  5
7B4
  8
0
 10
79.055066782944309
 20
21.83038478679623
 30
0.0
 40
0.0496556448760539
 50
246.61971324095171
 51
269.85374335140642
  0
ARC
  5
7B6
  8
0
 10
78.789552817931323
 20
29.359631617383169
 30
0.0
 40
7.578812575377416
 50
269.92003931339849
 51
271.85864258619819
  0
LINE
  5
7B7
  8
0
 10
78.778976324627834
 20
21.780729113579842
 30
0.0
 11
77.497840791300007
 21
21.778795456299999
 31
0.0
  0
LINE
  5
7B8
  8
0
 10
77.497840791300007
 20
21.778795456299999
 30
0.0
 11
38.551049149546941
 21
21.787677138030059
 31
0.0
  0
LINE
  5
7B9
  8
0
 10
38.551049149546941
 20
21.787677138030059
 30
0.0
 11
38.434036908322469
 21
21.791595090857879
 31
0.0
  0
ATTDEF
  5
A51
  8
DEFPOINTS
 10
79.827691848160583
 20
17.884985615551621
 30
0.0
 40
0.001
  1
K-9996
  3

  2
MODELNUMBER
 70
     0
1001
ACDBATTR
1070
     0
1070
     1
  0
ATTDEF
  5
A9A
  8
DEFPOINTS
 10
79.827691848160583
 20
17.883318948884948
 30
0.0
 40
0.001
  1
GROOVE
  3

  2
TRADENAME
 70
     0
1001
ACDBATTR
1070
     0
1070
     1
  0
ATTDEF
  5
A9B
  8
DEFPOINTS
 10
79.827691848160583
 20
17.88165228221829
 30
0.0
 40
0.001
  1
SHOWER BASE
  3

  2
PRODUCT
 70
     0
1001
ACDBATTR
1070
     0
1070
     1
  0
ATTDEF
  5
A9C
  8
DEFPOINTS
 10
79.827691848160583
 20
17.879985615551622
 30
0.0
 40
0.001
  1
ACRYLIC
  3

  2
MATERIAL
 70
     0
1001
ACDBATTR
1070
     0
1070
     1
  0
ENDSEC
  0
EOF
