  0
SECTION
  2
HEADER
  9
$ACADVER
  1
AC1009
  9
$INSBASE
 10
11.257720794400001
 20
27.070268305199999
 30
0.0
  9
$EXTMIN
 10
10.19824528743721
 20
22.227748630099999
 30
0.0
  9
$EXTMAX
 10
12.317196301261831
 20
28.546645037099999
 30
0.0
  9
$LIMMIN
 10
0.0
 20
0.0
  9
$LIMMAX
 10
46.811023621999993
 20
33.110236220499999
  9
$ORTHOMODE
 70
     0
  9
$REGENMODE
 70
     1
  9
$FILLMODE
 70
     1
  9
$QTEXTMODE
 70
     0
  9
$MIRRTEXT
 70
     0
  9
$DRAGMODE
 70
     2
  9
$LTSCALE
 40
2.5746062992000001
  9
$OSMODE
 70
    47
  9
$ATTMODE
 70
     1
  9
$TEXTSIZE
 40
0.2
  9
$TRACEWID
 40
0.05
  9
$TEXTSTYLE
  7
STANDARD
  9
$CLAYER
  8
0
  9
$CELTYPE
  6
BYLAYER
  9
$CECOLOR
 62
   256
  9
$DIMSCALE
 40
1.0
  9
$DIMASZ
 40
0.1875
  9
$DIMEXO
 40
0.0625
  9
$DIMDLI
 40
1.778818897599999
  9
$DIMRND
 40
0.0
  9
$DIMDLE
 40
0.0
  9
$DIMEXE
 40
0.125
  9
$DIMTP
 40
0.0
  9
$DIMTM
 40
0.0
  9
$DIMTXT
 40
0.15625
  9
$DIMCEN
 40
0.4212992126
  9
$DIMTSZ
 40
0.0
  9
$DIMTOL
 70
     0
  9
$DIMLIM
 70
     0
  9
$DIMTIH
 70
     1
  9
$DIMTOH
 70
     1
  9
$DIMSE1
 70
     0
  9
$DIMSE2
 70
     0
  9
$DIMTAD
 70
     0
  9
$DIMZIN
 70
     0
  9
$DIMBLK
  1
CLOSED
  9
$DIMASO
 70
     1
  9
$DIMSHO
 70
     1
  9
$DIMPOST
  1

  9
$DIMAPOST
  1

  9
$DIMALT
 70
     0
  9
$DIMALTD
 70
     2
  9
$DIMALTF
 40
25.399999999999999
  9
$DIMLFAC
 40
1.0
  9
$DIMTOFL
 70
     0
  9
$DIMTVP
 40
0.0
  9
$DIMTIX
 70
     0
  9
$DIMSOXD
 70
     0
  9
$DIMSAH
 70
     0
  9
$DIMBLK1
  1

  9
$DIMBLK2
  1

  9
$DIMSTYLE
  2
STANDARD
  9
$DIMCLRD
 70
     0
  9
$DIMCLRE
 70
     0
  9
$DIMCLRT
 70
     0
  9
$DIMTFAC
 40
1.0
  9
$DIMGAP
 40
0.09
  9
$LUNITS
 70
     2
  9
$LUPREC
 70
     4
  9
$SKETCHINC
 40
0.1
  9
$FILLETRAD
 40
0.0
  9
$AUNITS
 70
     0
  9
$AUPREC
 70
     0
  9
$MENU
  1
.
  9
$ELEVATION
 40
0.0
  9
$PELEVATION
 40
0.0
  9
$THICKNESS
 40
0.0
  9
$LIMCHECK
 70
     0
  9
$BLIPMODE
 70
     0
  9
$CHAMFERA
 40
0.0
  9
$CHAMFERB
 40
0.0
  9
$SKPOLY
 70
     0
  9
$TDCREATE
 40
2457200.4849481019
  9
$TDUPDATE
 40
2457315.4947401392
  9
$TDINDWG
 40
0.0760982523
  9
$TDUSRTIMER
 40
0.0760982523
  9
$USRTIMER
 70
     1
  9
$ANGBASE
 50
0.0
  9
$ANGDIR
 70
     0
  9
$PDMODE
 70
     0
  9
$PDSIZE
 40
0.3125
  9
$PLINEWID
 40
0.0
  9
$COORDS
 70
     1
  9
$SPLFRAME
 70
     0
  9
$SPLINETYPE
 70
     6
  9
$SPLINESEGS
 70
     8
  9
$ATTDIA
 70
     0
  9
$ATTREQ
 70
     1
  9
$HANDLING
 70
     1
  9
$HANDSEED
  5
5A70
  9
$SURFTAB1
 70
     6
  9
$SURFTAB2
 70
     6
  9
$SURFTYPE
 70
     6
  9
$SURFU
 70
     6
  9
$SURFV
 70
     6
  9
$UCSNAME
  2

  9
$UCSORG
 10
0.0
 20
0.0
 30
0.0
  9
$UCSXDIR
 10
1.0
 20
0.0
 30
0.0
  9
$UCSYDIR
 10
0.0
 20
1.0
 30
0.0
  9
$PUCSNAME
  2

  9
$PUCSORG
 10
0.0
 20
0.0
 30
0.0
  9
$PUCSXDIR
 10
1.0
 20
0.0
 30
0.0
  9
$PUCSYDIR
 10
0.0
 20
1.0
 30
0.0
  9
$USERI1
 70
     0
  9
$USERI2
 70
     0
  9
$USERI3
 70
     0
  9
$USERI4
 70
     0
  9
$USERI5
 70
     0
  9
$USERR1
 40
0.0
  9
$USERR2
 40
0.0
  9
$USERR3
 40
0.0
  9
$USERR4
 40
0.0
  9
$USERR5
 40
0.0
  9
$WORLDVIEW
 70
     1
  9
$SHADEDGE
 70
     3
  9
$SHADEDIF
 70
    70
  9
$TILEMODE
 70
     1
  9
$MAXACTVP
 70
    64
  9
$PLIMCHECK
 70
     0
  9
$PEXTMIN
 10
1.0000000000000000E+020
 20
1.0000000000000000E+020
 30
1.0000000000000000E+020
  9
$PEXTMAX
 10
-1.0000000000000000E+020
 20
-1.0000000000000000E+020
 30
-1.0000000000000000E+020
  9
$PLIMMIN
 10
0.0
 20
0.0
  9
$PLIMMAX
 10
12.0
 20
9.0
  9
$UNITMODE
 70
     0
  9
$VISRETAIN
 70
     1
  9
$PLINEGEN
 70
     0
  9
$PSLTSCALE
 70
     1
  0
ENDSEC
  0
SECTION
  2
TABLES
  0
TABLE
  2
VPORT
 70
     1
  0
VPORT
  2
*ACTIVE
 70
     0
 10
0.0
 20
0.0
 11
1.0
 21
1.0
 12
10.574284602700789
 22
24.829057599819912
 13
0.0
 23
0.0
 14
1.0
 24
1.0
 15
0.0
 25
0.0
 16
0.0
 26
0.0
 36
1.0
 17
0.0
 27
0.0
 37
0.0
 40
11.57554543432901
 41
2.2293364377182772
 42
50.0
 43
0.0
 44
0.0
 50
0.0
 51
0.0
 71
     0
 72
   100
 73
     1
 74
     1
 75
     0
 76
     0
 77
     0
 78
     0
  0
ENDTAB
  0
TABLE
  2
LTYPE
 70
     1
  0
LTYPE
  2
CONTINUOUS
 70
     0
  3
Solid line
 72
    65
 73
     0
 40
0.0
  0
ENDTAB
  0
TABLE
  2
LAYER
 70
     2
  0
LAYER
  2
0
 70
     0
 62
     7
  6
CONTINUOUS
  0
LAYER
  2
DEFPOINTS
 70
     0
 62
     7
  6
CONTINUOUS
  0
ENDTAB
  0
TABLE
  2
STYLE
 70
     1
  0
STYLE
  2
STANDARD
 70
     0
 40
0.0
 41
0.8
 50
0.0
 71
     0
 42
0.2
  3
txt
  4

  0
ENDTAB
  0
TABLE
  2
VIEW
 70
     0
  0
ENDTAB
  0
TABLE
  2
UCS
 70
     0
  0
ENDTAB
  0
TABLE
  2
APPID
 70
     5
  0
APPID
  2
ACAD
 70
     0
  0
APPID
  2
ACAD_MLEADERVER
 70
     0
  0
APPID
  2
ACAD_NAV_VCDISPLAY
 70
     0
  0
APPID
  2
ACAD_EXEMPT_FROM_CAD_STANDARDS
 70
     0
  0
APPID
  2
ACDBATTR
 70
     0
  0
ENDTAB
  0
TABLE
  2
DIMSTYLE
 70
     1
  0
DIMSTYLE
  2
STANDARD
 70
     0
  3

  4

  5
CLOSED
  6
CLOSED
  7
CLOSED
 40
1.0
 41
0.1875
 42
0.0625
 43
0.38
 44
0.125
 45
0.0
 46
0.0
 47
1.5
 48
1.5
140
0.15625
141
0.09
142
0.0
143
25.399999999999999
144
1.0
145
0.0
146
1.0
147
0.09
 71
     0
 72
     0
 73
     1
 74
     1
 75
     0
 76
     0
 77
     0
 78
     4
170
     0
171
     2
172
     0
173
     0
174
     0
175
     0
176
     0
177
     0
178
     0
  0
ENDTAB
  0
ENDSEC
  0
SECTION
  2
BLOCKS
  0
BLOCK
  8
0
  2
$MODEL_SPACE
 70
     0
 10
0.0
 20
0.0
 30
0.0
  3
$MODEL_SPACE
  1

  0
ENDBLK
  5
21
  8
0
  0
BLOCK
 67
     1
  8
0
  2
$PAPER_SPACE
 70
     0
 10
0.0
 20
0.0
 30
0.0
  3
$PAPER_SPACE
  1

  0
ENDBLK
  5
1D
 67
     1
  8
0
  0
BLOCK
  8
0
  2
_CLOSED
 70
     0
 10
0.0
 20
0.0
 30
0.0
  3
_CLOSED
  1

  0
LINE
  5
233
  8
0
  6
BYBLOCK
 62
     0
 10
0.0
 20
0.0
 30
0.0
 11
-1.0
 21
0.1666666667
 31
0.0
  0
LINE
  5
234
  8
0
  6
BYBLOCK
 62
     0
 10
-1.0
 20
0.1666666667
 30
0.0
 11
-1.0
 21
-0.1666666667
 31
0.0
  0
LINE
  5
235
  8
0
  6
BYBLOCK
 62
     0
 10
-1.0
 20
-0.1666666667
 30
0.0
 11
0.0
 21
0.0
 31
0.0
  0
LINE
  5
236
  8
0
  6
BYBLOCK
 62
     0
 10
-1.0
 20
0.0
 30
0.0
 11
0.0
 21
0.0
 31
0.0
  0
ENDBLK
  5
237
  8
0
  6
BYBLOCK
 62
     0
  0
BLOCK
  8
0
  2
*U2
 70
     1
 10
0.0
 20
0.0
 30
0.0
  3
*U2
  1

  0
TEXT
  5
5A6D
  8
0
 62
     0
 10
13.1958467486196
 20
27.561832398250012
 30
0.0
 40
0.15625
  1
1.2243
 41
0.8
  0
ENDBLK
  5
5A6F
  8
0
  0
ENDSEC
  0
SECTION
  2
ENTITIES
  0
LINE
  5
497
  8
0
 10
11.861150240000001
 20
22.227748630099999
 30
0.0
 11
10.654291348699999
 21
22.227748630099999
 31
0.0
  0
LINE
  5
4B0
  8
0
 10
10.1982859188
 20
27.9723252219
 30
0.0
 11
10.247752120399999
 21
26.083287196600001
 31
0.0
  0
LINE
  5
4C1
  8
0
 10
10.5362211414
 20
22.342784121000001
 30
0.0
 11
10.39473492090891
 21
27.775854987518269
 31
0.0
  0
LINE
  5
4CA
  8
0
 10
11.091655124200001
 20
28.527698539599999
 30
0.0
 11
11.070962617099999
 21
27.9765186345
 31
0.0
  0
LINE
  5
4E0
  8
0
 10
11.444478971600001
 20
27.9765186345
 30
0.0
 11
11.423786464499999
 21
28.527698539999999
 31
0.0
  0
LINE
  5
4E3
  8
0
 10
10.365810374200001
 20
25.9682799375
 30
0.0
 11
10.4418071879
 21
25.9682799375
 31
0.0
  0
LINE
  5
4E4
  8
0
 10
12.0736344008
 20
25.9682799375
 30
0.0
 11
12.149631214499999
 21
25.9682799375
 31
0.0
  0
LINE
  5
4F0
  8
0
 10
12.12070666779216
 20
27.775854987518159
 30
0.0
 11
11.979220447299999
 21
22.342784121099999
 31
0.0
  0
LINE
  5
500
  8
0
 10
12.2676894683
 20
26.083287196600001
 30
0.0
 11
12.3171556699
 21
27.9723252219
 31
0.0
  0
LINE
  5
517
  8
0
 10
11.9993640706
 20
27.897297998100001
 30
0.0
 11
10.516077518099999
 21
27.897297998100001
 31
0.0
  0
LINE
  5
51A
  8
0
 10
11.0906338075
 20
27.956095086800001
 30
0.0
 11
11.424809483000001
 21
27.956095666100001
 31
0.0
  0
LINE
  5
526
  8
0
 10
12.199096319200001
 20
28.093516535300001
 30
0.0
 11
11.4400866128
 21
28.093516535300001
 31
0.0
  0
LINE
  5
527
  8
0
 10
11.0753549759
 20
28.093516535300001
 30
0.0
 11
10.316345269499999
 21
28.093516535300001
 31
0.0
  0
LINE
  5
52C
  8
0
 10
11.1113275398
 20
28.546645027299999
 30
0.0
 11
11.4041140489
 21
28.546645027299999
 31
0.0
  0
ARC
  5
620
  8
0
 10
10.654291348699999
 20
22.345858866299999
 30
0.0
 40
0.1181102362
 50
181.49174060940001
 51
270.0
  0
ARC
  5
621
  8
0
 10
10.633479531859219
 20
23.781604897785151
 30
0.0
 40
0.1357571038793543
 50
188.70720667436601
 51
267.0097325111326
  0
ARC
  5
625
  8
0
 10
11.257720794400001
 20
27.421438481399999
 30
0.0
 40
0.5196959755
 50
72.923737676999991
 51
107.07626232299999
  0
ARC
  5
628
  8
0
 10
10.51328755969956
 20
27.778743011006561
 30
0.0
 40
0.1185878106409027
 50
88.651905364307936
 51
181.39548843690861
  0
ARC
  5
630
  8
0
 10
11.112051503
 20
27.895642867500001
 30
0.0
 40
0.0236220472
 50
107.0762552213
 51
175.98215328514689
  0
ARC
  5
633
  8
0
 10
11.35636079250451
 20
27.93589423033016
 30
0.0
 40
0.0202020276528741
 50
90.616956627253174
 51
182.0286832579398
  0
ARC
  5
634
  8
0
 10
11.111327536099999
 20
28.526959997700001
 30
0.0
 40
0.0196850394
 50
90.000001910499975
 51
177.84999751169991
  0
ARC
  5
635
  8
0
 10
11.1592960277
 20
27.936410050500001
 30
0.0
 40
0.0196849282999964
 50
356.26702843766202
 51
90.001252088408975
  0
ARC
  5
639
  8
0
 10
11.861150240000001
 20
22.345858866299999
 30
0.0
 40
0.1181102362
 50
270.0
 51
358.50825943059999
  0
ARC
  5
63A
  8
0
 10
11.881962223924701
 20
23.781604661188862
 30
0.0
 40
0.1357569089370771
 50
272.9902208131457
 51
351.29286123693078
  0
ARC
  5
63F
  8
0
 10
12.00215793772378
 20
27.778746916498061
 30
0.0
 40
0.1185839982564996
 50
358.60257912335692
 51
91.350027070538232
  0
ARC
  5
645
  8
0
 10
11.4033900857
 20
27.895642867500001
 30
0.0
 40
0.0236220472
 50
4.017846714853051
 51
72.923744778699998
  0
ARC
  5
648
  8
0
 10
11.404114052600001
 20
28.526959997700001
 30
0.0
 40
0.0196850394
 50
2.1500026380000001
 51
89.999999998500002
  0
LINE
  5
742
  8
0
 10
10.626397536400001
 20
23.646032000799998
 30
0.0
 11
11.889044052199999
 21
23.646032000799998
 31
0.0
  0
ARC
  5
8B3
  8
0
 10
10.31633902638203
 20
27.975422796466042
 30
0.0
 40
0.1180937389448203
 50
89.997517463019307
 51
181.5030289337808
  0
ARC
  5
8B4
  8
0
 10
12.19910256222739
 20
27.975422796430589
 30
0.0
 40
0.1180937390344307
 50
358.49697108456297
 51
90.003028942298656
  0
ARC
  5
8C0
  8
0
 10
12.148365766482881
 20
26.089497718913499
 30
0.0
 40
0.1212243865296729
 50
270.59811519388199
 51
357.06335856147962
  0
ARC
  5
8C1
  8
0
 10
11.091176346549471
 20
27.976302159920252
 30
0.0
 40
0.0202143551148063
 50
179.3912935759441
 51
268.46203696257999
  0
ARC
  5
8C2
  8
0
 10
11.4244076061599
 20
27.976033839155981
 30
0.0
 40
0.0199422227899669
 50
271.15470606442801
 51
1.3929965010871319
  0
ARC
  5
914
  8
0
 10
10.36580593350519
 20
26.086374102302418
 30
0.0
 40
0.1180941648663964
 50
181.4978455206849
 51
270.00215451660608
  0
ATTDEF
  5
559C
  8
DEFPOINTS
 10
11.254346690360631
 20
27.060195206602408
 30
0.0
 40
0.001
  1
BRASS
  3

  2
MATERIAL
 70
     0
1001
ACDBATTR
1070
     0
1070
     1
  0
ATTDEF
  5
559D
  8
DEFPOINTS
 10
11.254346690360631
 20
27.061861873269081
 30
0.0
 40
0.001
  1
BATHROOM SINK FAUCET
  3

  2
PRODUCT
 70
     0
1001
ACDBATTR
1070
     0
1070
     1
  0
ATTDEF
  5
559E
  8
DEFPOINTS
 10
11.254346690360631
 20
27.063528539935749
 30
0.0
 40
0.001
  1
HONESTY
  3

  2
TRADENAME
 70
     0
1001
ACDBATTR
1070
     0
1070
     1
  0
ATTDEF
  5
559F
  8
DEFPOINTS
 10
11.254346690360631
 20
27.065195206602422
 30
0.0
 40
0.001
  1
K-99760-4
  3

  2
MODELNUMBER
 70
     0
1001
ACDBATTR
1070
     0
1070
     1
  0
ENDSEC
  0
EOF
