  0
SECTION
  2
HEADER
  9
$ACADVER
  1
AC1009
  9
$INSBASE
 10
13.71160053220148
 20
3.9869193959999989
 30
0.0
  9
$EXTMIN
 10
12.87211836696456
 20
1.3562973428761209
 30
-0.0015258207003583
  9
$EXTMAX
 10
14.08758674524092
 20
6.6169585124976251
 30
0.0000000349246037
  9
$LIMMIN
 10
0.0
 20
0.0
  9
$LIMMAX
 10
11.692913385800001
 20
8.2677165353999982
  9
$ORTHOMODE
 70
     0
  9
$REGENMODE
 70
     1
  9
$FILLMODE
 70
     1
  9
$QTEXTMODE
 70
     0
  9
$MIRRTEXT
 70
     0
  9
$DRAGMODE
 70
     2
  9
$LTSCALE
 40
0.6431102362
  9
$OSMODE
 70
  3071
  9
$ATTMODE
 70
     1
  9
$TEXTSIZE
 40
0.2
  9
$TRACEWID
 40
0.05
  9
$TEXTSTYLE
  7
STANDARD
  9
$CLAYER
  8
0
  9
$CELTYPE
  6
BYLAYER
  9
$CECOLOR
 62
   256
  9
$DIMSCALE
 40
1.0
  9
$DIMASZ
 40
0.1875
  9
$DIMEXO
 40
0.0625
  9
$DIMDLI
 40
0.4443307087
  9
$DIMRND
 40
0.0
  9
$DIMDLE
 40
0.0
  9
$DIMEXE
 40
0.125
  9
$DIMTP
 40
0.01
  9
$DIMTM
 40
0.01
  9
$DIMTXT
 40
0.15625
  9
$DIMCEN
 40
0.1052362205
  9
$DIMTSZ
 40
0.0
  9
$DIMTOL
 70
     1
  9
$DIMLIM
 70
     0
  9
$DIMTIH
 70
     1
  9
$DIMTOH
 70
     1
  9
$DIMSE1
 70
     0
  9
$DIMSE2
 70
     0
  9
$DIMTAD
 70
     0
  9
$DIMZIN
 70
     0
  9
$DIMBLK
  1

  9
$DIMASO
 70
     1
  9
$DIMSHO
 70
     1
  9
$DIMPOST
  1

  9
$DIMAPOST
  1

  9
$DIMALT
 70
     0
  9
$DIMALTD
 70
     2
  9
$DIMALTF
 40
25.399999999999999
  9
$DIMLFAC
 40
1.0
  9
$DIMTOFL
 70
     0
  9
$DIMTVP
 40
0.0
  9
$DIMTIX
 70
     0
  9
$DIMSOXD
 70
     0
  9
$DIMSAH
 70
     0
  9
$DIMBLK1
  1

  9
$DIMBLK2
  1

  9
$DIMSTYLE
  2
STANDARD
  9
$DIMCLRD
 70
     0
  9
$DIMCLRE
 70
     0
  9
$DIMCLRT
 70
     0
  9
$DIMTFAC
 40
1.0
  9
$DIMGAP
 40
0.09
  9
$LUNITS
 70
     2
  9
$LUPREC
 70
     4
  9
$SKETCHINC
 40
0.1
  9
$FILLETRAD
 40
0.0
  9
$AUNITS
 70
     0
  9
$AUPREC
 70
     0
  9
$MENU
  1
.
  9
$ELEVATION
 40
0.0
  9
$PELEVATION
 40
0.0
  9
$THICKNESS
 40
0.0
  9
$LIMCHECK
 70
     0
  9
$BLIPMODE
 70
     0
  9
$CHAMFERA
 40
0.0
  9
$CHAMFERB
 40
0.0
  9
$SKPOLY
 70
     0
  9
$TDCREATE
 40
2457896.4783285768
  9
$TDUPDATE
 40
2457939.7159234369
  9
$TDINDWG
 40
0.0786115972
  9
$TDUSRTIMER
 40
0.0786115972
  9
$USRTIMER
 70
     1
  9
$ANGBASE
 50
0.0
  9
$ANGDIR
 70
     0
  9
$PDMODE
 70
     0
  9
$PDSIZE
 40
0.3125
  9
$PLINEWID
 40
0.0
  9
$COORDS
 70
     1
  9
$SPLFRAME
 70
     0
  9
$SPLINETYPE
 70
     6
  9
$SPLINESEGS
 70
     8
  9
$ATTDIA
 70
     1
  9
$ATTREQ
 70
     1
  9
$HANDLING
 70
     1
  9
$HANDSEED
  5
C66
  9
$SURFTAB1
 70
     6
  9
$SURFTAB2
 70
     6
  9
$SURFTYPE
 70
     6
  9
$SURFU
 70
     6
  9
$SURFV
 70
     6
  9
$UCSNAME
  2

  9
$UCSORG
 10
0.0
 20
0.0
 30
0.0
  9
$UCSXDIR
 10
1.0
 20
0.0
 30
0.0
  9
$UCSYDIR
 10
0.0
 20
1.0
 30
0.0
  9
$PUCSNAME
  2

  9
$PUCSORG
 10
0.0
 20
0.0
 30
0.0
  9
$PUCSXDIR
 10
1.0
 20
0.0
 30
0.0
  9
$PUCSYDIR
 10
0.0
 20
1.0
 30
0.0
  9
$USERI1
 70
     0
  9
$USERI2
 70
     0
  9
$USERI3
 70
     0
  9
$USERI4
 70
     0
  9
$USERI5
 70
     0
  9
$USERR1
 40
0.0
  9
$USERR2
 40
0.0
  9
$USERR3
 40
0.0
  9
$USERR4
 40
0.0
  9
$USERR5
 40
0.0
  9
$WORLDVIEW
 70
     1
  9
$SHADEDGE
 70
     3
  9
$SHADEDIF
 70
    70
  9
$TILEMODE
 70
     1
  9
$MAXACTVP
 70
    48
  9
$PLIMCHECK
 70
     0
  9
$PEXTMIN
 10
1.0000000000000000E+020
 20
1.0000000000000000E+020
 30
1.0000000000000000E+020
  9
$PEXTMAX
 10
-1.0000000000000000E+020
 20
-1.0000000000000000E+020
 30
-1.0000000000000000E+020
  9
$PLIMMIN
 10
0.0
 20
0.0
  9
$PLIMMAX
 10
12.0
 20
9.0
  9
$UNITMODE
 70
     0
  9
$VISRETAIN
 70
     1
  9
$PLINEGEN
 70
     0
  9
$PSLTSCALE
 70
     1
  0
ENDSEC
  0
SECTION
  2
TABLES
  0
TABLE
  2
VPORT
 70
     1
  0
VPORT
  2
*ACTIVE
 70
     0
 10
0.0
 20
0.0
 11
1.0
 21
1.0
 12
3.095508535810362
 22
-1.1066027634657529
 13
0.0
 23
0.0
 14
1.0
 24
1.0
 15
0.0
 25
0.0
 16
-0.0000000000000089
 26
0.0
 36
39.249674459877909
 17
10.38434402029238
 27
5.0932306911526259
 37
0.0
 40
5.3062820993768911
 41
1.798307475317348
 42
50.0
 43
0.0
 44
0.0
 50
0.0
 51
0.0
 71
     0
 72
   100
 73
     1
 74
     1
 75
     0
 76
     0
 77
     0
 78
     0
  0
ENDTAB
  0
TABLE
  2
LTYPE
 70
     8
  0
LTYPE
  2
CONTINUOUS
 70
     0
  3
Solid line
 72
    65
 73
     0
 40
0.0
  0
LTYPE
  2
PHANTOM2
 70
     0
  3
___ _ _ ___ _ _ ___ _ _ ___ _ _
 72
    65
 73
     6
 40
1.25
 49
0.625
 49
-0.125
 49
0.125
 49
-0.125
 49
0.125
 49
-0.125
  0
ENDTAB
  0
TABLE
  2
LAYER
 70
    32
  0
LAYER
  2
0
 70
     0
 62
     7
  6
CONTINUOUS
  0
LAYER
  2
DEFPOINTS
 70
     0
 62
     7
  6
CONTINUOUS
  0
ENDTAB
  0
TABLE
  2
STYLE
 70
     2
  0
STYLE
  2
STANDARD
 70
     0
 40
0.0
 41
0.8
 50
0.0
 71
     0
 42
0.2
  3
txt
  4

  0
ENDTAB
  0
TABLE
  2
VIEW
 70
     0
  0
ENDTAB
  0
TABLE
  2
UCS
 70
     0
  0
ENDTAB
  0
TABLE
  2
APPID
 70
     5
  0
APPID
  2
ACAD
 70
     0
  0
APPID
  2
ACAD_MLEADERVER
 70
     0
  0
APPID
  2
ACAD_NAV_VCDISPLAY
 70
     0
  0
APPID
  2
ACAD_EXEMPT_FROM_CAD_STANDARDS
 70
     0
  0
APPID
  2
AcDbAttr
 70
     0
  0
ENDTAB
  0
TABLE
  2
DIMSTYLE
 70
     2
  0
DIMSTYLE
  2
STANDARD
 70
     0
  3

  4

  5

  6

  7

 40
1.0
 41
0.1875
 42
0.0625
 43
0.38
 44
0.125
 45
0.0
 46
0.0
 47
0.01
 48
0.01
140
0.15625
141
0.09
142
0.0
143
25.399999999999999
144
1.0
145
0.0
146
1.0
147
0.09
 71
     1
 72
     0
 73
     1
 74
     1
 75
     0
 76
     0
 77
     0
 78
     4
170
     0
171
     2
172
     0
173
     0
174
     0
175
     0
176
     0
177
     0
178
     0
  0
ENDTAB
  0
ENDSEC
  0
SECTION
  2
BLOCKS
  0
BLOCK
  8
0
  2
$MODEL_SPACE
 70
     0
 10
0.0
 20
0.0
 30
0.0
  3
$MODEL_SPACE
  1

  0
ENDBLK
  5
21
  8
0
  0
BLOCK
 67
     1
  8
0
  2
$PAPER_SPACE
 70
     0
 10
0.0
 20
0.0
 30
0.0
  3
$PAPER_SPACE
  1

  0
ENDBLK
  5
1D
 67
     1
  8
0
  0
ENDSEC
  0
SECTION
  2
ENTITIES
  0
LINE
  5
86D
  8
0
 10
13.042624953500001
 20
6.6169193960000001
 30
0.0
 11
12.9226249535
 21
6.6169193960000001
 31
0.0
  0
ARC
  5
86E
  8
0
 10
12.9226249535
 20
6.5669193959999994
 30
0.0
 40
0.0500000000000007
 50
90.0
 51
179.99999999999901
  0
LINE
  5
86F
  8
0
 10
12.872624953500001
 20
6.5669193960000003
 30
0.0
 11
12.8726249534999
 21
1.356919395999999
 31
0.0
  0
LINE
  5
870
  8
0
 10
12.8726249534999
 20
1.356919395999999
 30
0.0
 11
13.0476249535
 21
1.356919395999999
 31
0.0
  0
ARC
  5
871
  8
0
 10
13.047597563477369
 20
1.366946786022625
 30
0.0
 40
0.0100274274307616
 50
270.15650421401011
 51
359.84349578597732
  0
LINE
  5
872
  8
0
 10
13.0576249535
 20
1.366919395999999
 30
0.0
 11
13.0576249535
 21
6.6016575700999987
 31
0.0
  0
LINE
  5
873
  8
0
 10
13.04266781278031
 20
6.6019186478886898
 30
0.0
 11
13.0576249535
 21
6.6016575700999987
 31
0.0
  0
LINE
  5
874
  8
0
 10
13.042624953500001
 20
6.6169193960000001
 30
0.0
 11
13.042624953500001
 21
1.356919395999999
 31
0.0
  0
ARC
  5
875
  8
0
 10
13.06762495349119
 20
1.5270924234036041
 30
0.0
 40
0.0099999999911873
 50
90.999982390143444
 51
179.9999999846506
  0
LINE
  5
876
  8
0
 10
13.067450432499999
 20
1.5370909003999991
 30
0.0
 11
13.66249788203173
 21
1.5474773093234051
 31
0.0
  0
ARC
  5
877
  8
0
 10
13.661625282822349
 20
1.5974693650798371
 30
0.0
 40
0.0499996706802595
 50
270.9999823901432
 51
0.0005855898287235
  0
LINE
  5
878
  8
0
 10
13.711624953499999
 20
1.5974698760999999
 30
0.0
 11
13.711576366414221
 21
6.3513689656517194
 31
0.0
  0
ARC
  5
879
  8
0
 10
13.66157496671056
 20
6.3513684546138851
 30
0.0
 40
0.0500013997062754
 50
0.0005855898289017
 51
88.942738913095567
  0
LINE
  5
87A
  8
0
 10
13.66249757452956
 20
6.4013613417819508
 30
0.0
 11
13.067450433599999
 21
6.4117478916999993
 31
0.0
  0
ARC
  5
87B
  8
0
 10
13.06762495345558
 20
6.4217463686806058
 30
0.0
 40
0.0099999999555838
 50
179.999999923285
 51
269.00002411381621
  0
ARC
  5
87C
  8
0
 10
13.120591878338169
 20
6.4208218275543167
 30
0.0
 40
0.0100000000100908
 50
269.00000035356589
 51
359.00000005862989
  0
LINE
  5
87D
  8
0
 10
13.130590355300001
 20
6.4206473035
 30
0.0
 11
13.131453449142141
 21
6.470093919499992
 31
0.0
  0
ARC
  5
87E
  8
0
 10
13.14145192665779
 20
6.4699193954360057
 30
0.0
 40
0.0100000005639931
 50
90.000002622985491
 51
179.00000005863441
  0
LINE
  5
87F
  8
0
 10
13.1414519262
 20
6.4799193959999988
 30
0.0
 11
13.1706836428
 21
6.479919397338219
 31
0.0
  0
ARC
  5
880
  8
0
 10
13.17068364623348
 20
6.4049194516418417
 30
0.0
 40
0.0749999456963773
 50
73.39999950171871
 51
90.000002622986656
  0
LINE
  5
881
  8
0
 10
13.1921102589
 20
6.4767935924999991
 30
0.0
 11
13.43162479983576
 21
6.405391204445599
 31
0.0
  0
ARC
  5
882
  8
0
 10
13.741624953500001
 20
4.5564003139000002
 30
0.0
 40
0.0300000000000011
 50
180.0
 51
268.99999998685769
  0
LINE
  5
883
  8
0
 10
13.7411013813
 20
4.5264048830454282
 30
0.0
 11
13.928440345664431
 21
4.5231348692158768
 31
0.0
  0
ARC
  5
884
  8
0
 10
13.928265821592751
 20
4.5131363919768122
 30
0.0
 40
0.0100000002875855
 50
45.00000118563247
 51
88.999999986857205
  0
LINE
  5
885
  8
0
 10
13.93533688946164
 20
4.5202074601383542
 30
0.0
 11
13.965696021966361
 21
4.4898483288900897
 31
0.0
  0
ARC
  5
886
  8
0
 10
13.95862495623418
 20
4.482777262865258
 30
0.0
 40
0.0099999972658213
 50
359.99998587510697
 51
45.000001185633792
  0
LINE
  5
887
  8
0
 10
13.968624953500001
 20
4.4827772603999989
 30
0.0
 11
13.968624709016391
 21
3.49106153170003
 31
0.0
  0
ARC
  5
888
  8
0
 10
13.97862495358248
 20
4.3992463687337438
 30
0.0
 40
0.0100000000824832
 50
180.00000019334209
 51
268.99999954262228
  0
LINE
  5
889
  8
0
 10
13.978450429436849
 20
4.3892478917011024
 30
0.0
 11
14.07679947758594
 21
4.3875312018946957
 31
0.0
  0
ARC
  5
88A
  8
0
 10
14.076624953440721
 20
4.3775327248852562
 30
0.0
 40
0.0100000000592787
 50
0.0000052410961171
 51
88.99999954262185
  0
LINE
  5
88B
  8
0
 10
14.086624953499999
 20
4.3775327258000001
 30
0.0
 11
14.08662502496222
 21
3.596306066300003
 31
0.0
  0
ARC
  5
88C
  8
0
 10
13.74163879735082
 20
3.4174062557645182
 30
0.0
 40
0.0300324620722243
 50
91.025334354362556
 51
179.9385265511643
  0
LINE
  5
88D
  8
0
 10
13.7411013813
 20
3.447433909054574
 30
0.0
 11
13.928440345664431
 21
3.450703922884125
 31
0.0
  0
ARC
  5
88E
  8
0
 10
13.928265821592751
 20
3.4607024001231901
 30
0.0
 40
0.0100000002875855
 50
271.00000001314282
 51
314.99999881436747
  0
LINE
  5
88F
  8
0
 10
13.93533688946164
 20
3.4536313319616481
 30
0.0
 11
13.965696021966361
 21
3.4839904632099121
 31
0.0
  0
ARC
  5
890
  8
0
 10
13.95862631744702
 20
3.4910606197014982
 30
0.0
 40
0.0099983916109725
 50
314.99816857451538
 51
0.0052262072641447
  0
ARC
  5
891
  8
0
 10
13.978625120090859
 20
3.5745920358075138
 30
0.0
 40
0.0100003904894485
 50
91.000915545162798
 51
179.99777934502291
  0
LINE
  5
892
  8
0
 10
13.978450429436849
 20
3.5845909003988998
 30
0.0
 11
14.07679947758594
 21
3.5863075902053061
 31
0.0
  0
ARC
  5
893
  8
0
 10
14.07662490029508
 20
3.596306190914579
 30
0.0
 40
0.0100001246679204
 50
271.00029254010002
 51
359.99928601997402
  0
LINE
  5
894
  8
0
 10
13.711624953499999
 20
3.3369193959999999
 30
0.0
 11
13.7616249535
 21
3.3369060333999991
 31
0.0
  0
LINE
  5
895
  8
0
 10
13.7616249535
 20
3.3369060333999991
 30
0.0
 11
13.7616249535
 21
3.1369327586999991
 31
0.0
  0
LINE
  5
896
  8
0
 10
13.7616249535
 20
3.1369327586999991
 30
0.0
 11
13.711624953499999
 21
3.1369193959999988
 31
0.0
  0
ARC
  5
897
  8
0
 10
13.72662495363889
 20
2.2134073991554151
 30
0.0
 40
0.0150000001388993
 50
180.0000002112736
 51
266.9999994714949
  0
LINE
  5
898
  8
0
 10
13.725839914149811
 20
2.1984279560026301
 30
0.0
 11
13.79740999281127
 21
2.194677126454883
 31
0.0
  0
ARC
  5
899
  8
0
 10
13.796624953320039
 20
2.1796976832610908
 30
0.0
 40
0.0150000001799611
 50
0.0000032043926712
 51
86.999999471494391
  0
LINE
  5
89A
  8
0
 10
13.811624953500001
 20
2.1796976840999989
 30
0.0
 11
13.81162498429109
 21
1.6291411080000009
 31
0.0
  0
ARC
  5
89B
  8
0
 10
13.79662498429132
 20
1.6291411095318029
 30
0.0
 40
0.0149999999997661
 50
272.99988244001412
 51
359.9999941489524
  0
LINE
  5
89C
  8
0
 10
13.7974099929
 20
1.6141616648999999
 30
0.0
 11
13.72583991415588
 21
1.6104108360212941
 31
0.0
  0
ARC
  5
89D
  8
0
 10
13.72671323096746
 20
1.5951742202319961
 30
0.0
 40
0.015261623208695
 50
93.280431893157456
 51
171.34876530990709
  0
ARC
  5
89E
  8
0
 10
13.79886904799999
 20
1.8530603267999981
 30
0.0
 40
0.0275590551000023
 50
0.0000000000023181
 51
62.399975625895351
  0
LINE
  5
89F
  8
0
 10
13.8264281031
 20
1.8530603268000001
 30
0.0
 11
13.82642810310001
 21
1.6073653354999999
 31
0.0
  0
LINE
  5
8A0
  8
0
 10
13.82642810310001
 20
1.6073653354999999
 30
0.0
 11
13.798869048
 21
1.606884290351938
 31
0.0
  0
LINE
  5
8A1
  8
0
 10
13.798869048
 20
1.6143099201639739
 30
0.0
 11
13.798869048
 21
1.5843868587000001
 31
0.0
  0
ARC
  5
8A2
  8
0
 10
13.78902652830001
 20
1.5843868587000001
 30
0.0
 40
0.0098425196999941
 50
326.30993242049522
 51
359.99999999999659
  0
LINE
  5
8A3
  8
0
 10
13.79721599970831
 20
1.5789272110834121
 30
0.0
 11
13.76260390372398
 21
1.527009067212002
 31
0.0
  0
ARC
  5
8A4
  8
0
 10
13.754390326348441
 20
1.5324847854734449
 30
0.0
 40
0.0098714914669802
 50
273.08343233145979
 51
326.30993242049368
  0
LINE
  5
8A5
  8
0
 10
13.754921314600001
 20
1.5226275852999991
 30
0.0
 11
13.74969446297936
 21
1.5223460249426599
 31
0.0
  0
LINE
  5
8A6
  8
0
 10
13.74969446297936
 20
1.5223460249426599
 30
0.0
 11
13.743644060799999
 21
1.5226667613
 31
0.0
  0
LINE
  5
8A7
  8
0
 10
13.743644060799999
 20
1.5226667613
 30
0.0
 11
13.731351748364579
 21
1.5408025140262409
 31
0.0
  0
ARC
  5
8A8
  8
0
 10
13.73949913491381
 20
1.5463247673623439
 30
0.0
 40
0.0098425194686437
 50
185.55047410472551
 51
214.12920138928811
  0
LINE
  5
8A9
  8
0
 10
13.729702763300001
 20
1.5453727733
 30
0.0
 11
13.72406589932134
 21
1.603378192089534
 31
0.0
  0
LINE
  5
8AA
  8
0
 10
13.72406589932134
 20
1.603378192089534
 30
0.0
 11
13.714187323648551
 21
1.6038930956641879
 31
0.0
  0
LINE
  5
8AB
  8
0
 10
13.715406676300249
 20
1.605425023347923
 30
0.0
 11
13.789541646
 21
1.606727476699999
 31
0.0
  0
ARC
  5
8AC
  8
0
 10
13.789026528228661
 20
1.616556507643496
 30
0.0
 40
0.0098425197793324
 50
273.000000506216
 51
346.57726869058081
  0
ARC
  5
8AD
  8
0
 10
13.741782433899999
 20
1.615731858800002
 30
0.0
 40
0.009842519700002
 50
271.63396737638442
 51
335.92020742878373
  0
LINE
  5
8EF
  8
0
 10
13.928440345664299
 20
4.5231348693006233
 30
0.0
 11
13.9284403457
 21
3.450703922749057
 31
0.0
  0
ATTDEF
  5
A4E
  8
DEFPOINTS
 10
13.71958121751446
 20
3.983573294617301
 30
0.0
 40
0.001
  1
PREMIUM MATERIALS
  3

  2
MATERIAL
 70
     0
1001
AcDbAttr
1070
     0
1070
     1
  0
ATTDEF
  5
A4F
  8
DEFPOINTS
 10
13.71958121751446
 20
3.9852399612839662
 30
0.0
 40
0.001
  1
DIGITAL INTERFACE
  3

  2
PRODUCT
 70
     0
1001
AcDbAttr
1070
     0
1070
     1
  0
ATTDEF
  5
A50
  8
DEFPOINTS
 10
13.71958121751446
 20
3.9869066279506309
 30
0.0
 40
0.001
  1
DTV+
  3

  2
TRADENAME
 70
     0
1001
AcDbAttr
1070
     0
1070
     1
  0
ATTDEF
  5
A51
  8
DEFPOINTS
 10
13.71958121751446
 20
3.988573294617296
 30
0.0
 40
0.001
  1
K-99693
  3

  2
MODELNUMBER
 70
     0
1001
AcDbAttr
1070
     0
1070
     1
  0
ENDSEC
  0
EOF
