  0
SECTION
  2
HEADER
  9
$ACADVER
  1
AC1009
  9
$INSBASE
 10
60.831061237599151
 20
11.4394632119
 30
0.0
  9
$EXTMIN
 10
59.925552957557493
 20
11.4327175399815
 30
0.0
  9
$EXTMAX
 10
61.73656951764665
 20
18.038531548837408
 30
0.0
  9
$LIMMIN
 10
0.0
 20
0.0
  9
$LIMMAX
 10
11.692913385800001
 20
8.2677165353999982
  9
$ORTHOMODE
 70
     0
  9
$REGENMODE
 70
     1
  9
$FILLMODE
 70
     1
  9
$QTEXTMODE
 70
     0
  9
$MIRRTEXT
 70
     0
  9
$DRAGMODE
 70
     2
  9
$LTSCALE
 40
0.6431102362
  9
$OSMODE
 70
  3071
  9
$ATTMODE
 70
     1
  9
$TEXTSIZE
 40
0.2
  9
$TRACEWID
 40
0.05
  9
$TEXTSTYLE
  7
STANDARD
  9
$CLAYER
  8
0
  9
$CELTYPE
  6
BYLAYER
  9
$CECOLOR
 62
   256
  9
$DIMSCALE
 40
1.0
  9
$DIMASZ
 40
0.1875
  9
$DIMEXO
 40
0.0625
  9
$DIMDLI
 40
0.4443307087
  9
$DIMRND
 40
0.0
  9
$DIMDLE
 40
0.0
  9
$DIMEXE
 40
0.125
  9
$DIMTP
 40
0.01
  9
$DIMTM
 40
0.01
  9
$DIMTXT
 40
0.5
  9
$DIMCEN
 40
0.1052362205
  9
$DIMTSZ
 40
0.0
  9
$DIMTOL
 70
     1
  9
$DIMLIM
 70
     0
  9
$DIMTIH
 70
     1
  9
$DIMTOH
 70
     1
  9
$DIMSE1
 70
     0
  9
$DIMSE2
 70
     0
  9
$DIMTAD
 70
     0
  9
$DIMZIN
 70
     0
  9
$DIMBLK
  1

  9
$DIMASO
 70
     1
  9
$DIMSHO
 70
     1
  9
$DIMPOST
  1
\X
  9
$DIMAPOST
  1

  9
$DIMALT
 70
     1
  9
$DIMALTD
 70
     2
  9
$DIMALTF
 40
25.399999999999999
  9
$DIMLFAC
 40
1.0
  9
$DIMTOFL
 70
     0
  9
$DIMTVP
 40
0.0
  9
$DIMTIX
 70
     0
  9
$DIMSOXD
 70
     0
  9
$DIMSAH
 70
     0
  9
$DIMBLK1
  1

  9
$DIMBLK2
  1

  9
$DIMSTYLE
  2
STANDARD
  9
$DIMCLRD
 70
     0
  9
$DIMCLRE
 70
     0
  9
$DIMCLRT
 70
     0
  9
$DIMTFAC
 40
1.0
  9
$DIMGAP
 40
0.09
  9
$LUNITS
 70
     2
  9
$LUPREC
 70
     4
  9
$SKETCHINC
 40
0.1
  9
$FILLETRAD
 40
0.0
  9
$AUNITS
 70
     0
  9
$AUPREC
 70
     0
  9
$MENU
  1
.
  9
$ELEVATION
 40
0.0
  9
$PELEVATION
 40
0.0
  9
$THICKNESS
 40
0.0
  9
$LIMCHECK
 70
     0
  9
$BLIPMODE
 70
     0
  9
$CHAMFERA
 40
0.0
  9
$CHAMFERB
 40
0.0
  9
$SKPOLY
 70
     0
  9
$TDCREATE
 40
2458102.4405038659
  9
$TDUPDATE
 40
2458102.741423009
  9
$TDINDWG
 40
0.1412859491
  9
$TDUSRTIMER
 40
0.1412859491
  9
$USRTIMER
 70
     1
  9
$ANGBASE
 50
0.0
  9
$ANGDIR
 70
     0
  9
$PDMODE
 70
     0
  9
$PDSIZE
 40
0.3125
  9
$PLINEWID
 40
0.0
  9
$COORDS
 70
     2
  9
$SPLFRAME
 70
     0
  9
$SPLINETYPE
 70
     6
  9
$SPLINESEGS
 70
     8
  9
$ATTDIA
 70
     1
  9
$ATTREQ
 70
     1
  9
$HANDLING
 70
     1
  9
$HANDSEED
  5
2A84
  9
$SURFTAB1
 70
     6
  9
$SURFTAB2
 70
     6
  9
$SURFTYPE
 70
     6
  9
$SURFU
 70
     6
  9
$SURFV
 70
     6
  9
$UCSNAME
  2

  9
$UCSORG
 10
0.0
 20
0.0
 30
0.0
  9
$UCSXDIR
 10
1.0
 20
0.0
 30
0.0
  9
$UCSYDIR
 10
0.0
 20
1.0
 30
0.0
  9
$PUCSNAME
  2

  9
$PUCSORG
 10
0.0
 20
0.0
 30
0.0
  9
$PUCSXDIR
 10
1.0
 20
0.0
 30
0.0
  9
$PUCSYDIR
 10
0.0
 20
1.0
 30
0.0
  9
$USERI1
 70
     0
  9
$USERI2
 70
     0
  9
$USERI3
 70
     0
  9
$USERI4
 70
     0
  9
$USERI5
 70
     0
  9
$USERR1
 40
0.0
  9
$USERR2
 40
0.0
  9
$USERR3
 40
0.0
  9
$USERR4
 40
0.0
  9
$USERR5
 40
0.0
  9
$WORLDVIEW
 70
     1
  9
$SHADEDGE
 70
     3
  9
$SHADEDIF
 70
    70
  9
$TILEMODE
 70
     1
  9
$MAXACTVP
 70
    64
  9
$PLIMCHECK
 70
     0
  9
$PEXTMIN
 10
1.0000000000000000E+020
 20
1.0000000000000000E+020
 30
1.0000000000000000E+020
  9
$PEXTMAX
 10
-1.0000000000000000E+020
 20
-1.0000000000000000E+020
 30
-1.0000000000000000E+020
  9
$PLIMMIN
 10
0.0
 20
0.0
  9
$PLIMMAX
 10
12.0
 20
9.0
  9
$UNITMODE
 70
     0
  9
$VISRETAIN
 70
     1
  9
$PLINEGEN
 70
     0
  9
$PSLTSCALE
 70
     1
  0
ENDSEC
  0
SECTION
  2
TABLES
  0
TABLE
  2
VPORT
 70
     1
  0
VPORT
  2
*ACTIVE
 70
     0
 10
0.0
 20
0.0
 11
1.0
 21
1.0
 12
-0.553862378229276
 22
-1.1143859290181171
 13
0.0
 23
0.0
 14
1.0
 24
1.0
 15
0.0
 25
0.0
 16
-0.0000000000000071
 26
0.0
 36
19.260880182400619
 17
60.831061237599151
 27
14.735624544388349
 37
0.0
 40
11.159696310511579
 41
2.213785046728971
 42
50.0
 43
0.0
 44
0.0
 50
0.0
 51
0.0
 71
     0
 72
   100
 73
     1
 74
     1
 75
     0
 76
     0
 77
     0
 78
     0
  0
ENDTAB
  0
TABLE
  2
LTYPE
 70
     2
  0
LTYPE
  2
CONTINUOUS
 70
     0
  3
Solid line
 72
    65
 73
     0
 40
0.0
  0
LTYPE
  2
PHANTOM2
 70
     0
  3
___ _ _ ___ _ _ ___ _ _ ___ _ _
 72
    65
 73
     6
 40
1.25
 49
0.625
 49
-0.125
 49
0.125
 49
-0.125
 49
0.125
 49
-0.125
  0
ENDTAB
  0
TABLE
  2
LAYER
 70
     2
  0
LAYER
  2
0
 70
     0
 62
   255
  6
CONTINUOUS
  0
LAYER
  2
DEFPOINTS
 70
     0
 62
     7
  6
CONTINUOUS
  0
ENDTAB
  0
TABLE
  2
STYLE
 70
     1
  0
STYLE
  2
STANDARD
 70
     0
 40
0.0
 41
0.8
 50
0.0
 71
     0
 42
0.2
  3
txt
  4

  0
ENDTAB
  0
TABLE
  2
VIEW
 70
     0
  0
ENDTAB
  0
TABLE
  2
UCS
 70
     0
  0
ENDTAB
  0
TABLE
  2
APPID
 70
     9
  0
APPID
  2
ACAD
 70
     0
  0
APPID
  2
ACAD_MLEADERVER
 70
     0
  0
APPID
  2
ACAD_EXEMPT_FROM_CAD_STANDARDS
 70
     0
  0
APPID
  2
ACAD_DSTYLE_DIMJAG
 70
     0
  0
APPID
  2
ACAD_DSTYLE_DIMTALN
 70
     0
  0
APPID
  2
ACAD_NAV_VCDISPLAY
 70
     0
  0
APPID
  2
ACAECLAYERSTANDARD
 70
     0
  0
APPID
  2
ACCMTRANSPARENCY
 70
     0
  0
APPID
  2
ACDBATTR
 70
     0
  0
ENDTAB
  0
TABLE
  2
DIMSTYLE
 70
     2
  0
DIMSTYLE
  2
STANDARD
 70
     0
  3

  4

  5

  6

  7

 40
1.0
 41
0.1875
 42
0.0625
 43
0.38
 44
0.125
 45
0.0
 46
0.0
 47
0.01
 48
0.01
140
0.15625
141
0.09
142
0.0
143
25.399999999999999
144
1.0
145
0.0
146
1.0
147
0.09
 71
     1
 72
     0
 73
     1
 74
     1
 75
     0
 76
     0
 77
     0
 78
     4
170
     0
171
     2
172
     0
173
     0
174
     0
175
     0
176
     0
177
     0
178
     0
  0
ENDTAB
  0
ENDSEC
  0
SECTION
  2
BLOCKS
  0
BLOCK
  8
0
  2
$MODEL_SPACE
 70
     0
 10
0.0
 20
0.0
 30
0.0
  3
$MODEL_SPACE
  1

  0
ENDBLK
  5
21
  8
0
  0
BLOCK
 67
     1
  8
0
  2
$PAPER_SPACE
 70
     0
 10
0.0
 20
0.0
 30
0.0
  3
$PAPER_SPACE
  1

  0
ENDBLK
  5
1D
 67
     1
  8
0
  0
ENDSEC
  0
SECTION
  2
ENTITIES
  0
LINE
  5
2142
  8
0
 10
59.92555295847783
 20
17.2977309284
 30
0.0
 11
59.92555295847783
 21
17.596164835284078
 31
0.0
  0
LINE
  5
2143
  8
0
 10
59.92555295847783
 20
17.2977309284
 30
0.0
 11
61.736569516720479
 21
17.2977309284
 31
0.0
  0
LINE
  5
2144
  8
0
 10
61.736569516720479
 20
17.2977309284
 30
0.0
 11
61.736569516720479
 21
17.596164835284078
 31
0.0
  0
ARC
  5
2145
  8
0
 10
59.951826580649119
 20
17.588299845640432
 30
0.0
 40
0.0274255589568455
 50
105.9143180880228
 51
163.3349674167529
  0
ARC
  5
2146
  8
0
 10
60.71757737233046
 20
-15.68390597639978
 30
0.0
 40
33.30755760496168
 50
90.552726316625595
 51
91.330302827954469
  0
ARC
  5
2147
  8
0
 10
60.395917413815468
 20
18.409318891241469
 30
0.0
 40
0.7872171720523309
 50
270.02550754558968
 51
285.34203764207831
  0
ARC
  5
2148
  8
0
 10
60.588523110115787
 20
17.72334434133521
 30
0.0
 40
0.0748491182219246
 50
282.08981182970012
 51
339.33785695505702
  0
ARC
  5
2149
  8
0
 10
61.710295926826461
 20
17.58829988285607
 30
0.0
 40
0.0274255173627327
 50
16.664977437962541
 51
74.08570312552817
  0
ARC
  5
214A
  8
0
 10
60.944545113975018
 20
-15.68390597639978
 30
0.0
 40
33.30755760496168
 50
88.669697172045517
 51
89.447273683374831
  0
ARC
  5
214B
  8
0
 10
61.266205072490003
 20
18.409318891241469
 30
0.0
 40
0.7872171720523309
 50
254.65796235792169
 51
269.97449245441032
  0
ARC
  5
214C
  8
0
 10
61.073599376189676
 20
17.72334434133521
 30
0.0
 40
0.0748491182219246
 50
200.66214304494289
 51
257.91018817029999
  0
ARC
  5
214D
  8
0
 10
59.996415573378279
 20
17.219392201037309
 30
0.0
 40
0.0118110228537689
 50
115.2494044271309
 51
140.6595575684585
  0
ARC
  5
214E
  8
0
 10
60.831061249928553
 20
15.449642550155721
 30
0.0
 40
1.9685039554118009
 50
110.1441956773799
 51
115.2494055215045
  0
ARC
  5
214F
  8
0
 10
61.66570767025771
 20
17.219392976810092
 30
0.0
 40
0.011809945434387
 50
39.339860503723621
 51
64.759105551048279
  0
ARC
  5
2150
  8
0
 10
60.830714572503283
 20
15.44881410680124
 30
0.0
 40
1.969401069198643
 50
64.751794184076331
 51
69.854639146106038
  0
ARC
  5
2151
  8
0
 10
59.768932603411642
 20
46.781301972794353
 30
0.0
 40
29.185557381535521
 50
270.30747154439752
 51
271.0554121500623
  0
ARC
  5
2152
  8
0
 10
60.348283561771957
 20
18.465533412380331
 30
0.0
 40
0.8658456368255569
 50
267.234790964296
 51
287.94926000782363
  0
ARC
  5
2153
  8
0
 10
60.590034636881569
 20
17.706277853700261
 30
0.0
 40
0.0691573232427376
 50
291.26364111905468
 51
352.23445181463887
  0
ARC
  5
2154
  8
0
 10
61.893189903986141
 20
46.781303362233558
 30
0.0
 40
29.185558771127511
 50
268.94458785877953
 51
269.6925284070287
  0
ARC
  5
2155
  8
0
 10
61.31383892453352
 20
18.465533412380331
 30
0.0
 40
0.8658456368255569
 50
252.0507399921768
 51
272.765209035704
  0
ARC
  5
2156
  8
0
 10
61.072087849423902
 20
17.706277853700261
 30
0.0
 40
0.0691573232427376
 50
187.76554818536101
 51
248.73635888094529
  0
ARC
  5
2157
  8
0
 10
60.433960086891787
 20
17.742848783813699
 30
0.0
 40
0.3605757676167914
 50
241.43657286760251
 51
269.1147155090265
  0
ARC
  5
2158
  8
0
 10
60.831088743810291
 20
-24.996328575526331
 30
0.0
 40
42.380557900433459
 50
89.455634736296588
 51
90.544432252852104
  0
ARC
  5
2159
  8
0
 10
61.228141891795893
 20
17.742925958066628
 30
0.0
 40
0.3606533547412836
 50
270.88921706332241
 51
298.56042650123209
  0
ARC
  5
215A
  8
0
 10
102.1616557151514
 20
16.921751222004112
 30
0.0
 40
41.903134209772567
 50
179.07263866774841
 51
179.31028664588669
  0
ARC
  5
215B
  8
0
 10
19.50046677125405
 20
16.921751222004112
 30
0.0
 40
41.903134209772567
 50
0.6897133541133158
 51
0.9273613322516052
  0
LINE
  5
215C
  8
0
 10
60.656958488896507
 20
17.51332920896758
 30
0.0
 11
60.661322817276663
 21
18.013306416300001
 31
0.0
  0
LINE
  5
215D
  8
0
 10
61.005163461404379
 20
17.513329307599999
 30
0.0
 11
61.00080013700439
 21
18.0133167601
 31
0.0
  0
ARC
  5
215E
  8
0
 10
60.831079216010131
 20
14.27104819741567
 30
0.0
 40
3.767483351421737
 50
88.006726672049609
 51
91.99381577505072
  0
ARC
  5
215F
  8
0
 10
60.963177650095751
 20
17.99395101110008
 30
0.0
 40
0.0423141082325796
 50
27.2366319775393
 51
91.431666422478372
  0
ARC
  5
2160
  8
0
 10
60.698937363545177
 20
17.99397083031025
 30
0.0
 40
0.0422932497752682
 50
88.557095964666786
 51
152.79477666309319
  0
ARC
  5
2161
  8
0
 10
60.343528401962971
 20
18.501777529333818
 30
0.0
 40
1.078737146147482
 50
265.64201769321471
 51
283.6618281738767
  0
ARC
  5
2162
  8
0
 10
60.581932050177137
 20
17.528289925103131
 30
0.0
 40
0.0765035262860561
 50
282.36638305913709
 51
348.72280030196379
  0
ARC
  5
2163
  8
0
 10
61.318595889772723
 20
18.501766702014368
 30
0.0
 40
1.0787262129498889
 50
256.33812607277912
 51
274.3579303946749
  0
ARC
  5
2164
  8
0
 10
61.080200166905477
 20
17.528301094694601
 30
0.0
 40
0.0765157603455895
 50
191.28382627670351
 51
257.63088784785577
  0
LINE
  5
2165
  8
0
 10
59.945234471502751
 20
17.226864786699998
 30
0.0
 11
61.716888014802741
 21
17.226864786699998
 31
0.0
  0
ARC
  5
2166
  8
0
 10
61.716890515637878
 20
17.20718578485015
 30
0.0
 40
0.0196790020087659
 50
359.98242156043841
 51
90.007281227947857
  0
ARC
  5
2167
  8
0
 10
59.945231978518137
 20
17.207185765897261
 30
0.0
 40
0.0196790209606495
 50
89.992741636029535
 51
180.01752324098479
  0
LINE
  5
2168
  8
0
 10
59.92555295847783
 20
17.2071797473
 30
0.0
 11
59.92555295847783
 21
11.4394632119
 31
0.0
  0
LINE
  5
2169
  8
0
 10
59.92555295847783
 20
11.4394632119
 30
0.0
 11
61.736569516720479
 21
11.4394632119
 31
0.0
  0
LINE
  5
216A
  8
0
 10
61.736569516720479
 20
11.4394632119
 30
0.0
 11
61.736569516720479
 21
17.2071797473
 31
0.0
  0
ARC
  5
216B
  8
0
 10
60.829375156909151
 20
15.993900992391479
 30
0.0
 40
0.6776994118446839
 50
236.1653747265994
 51
302.95947948049428
  0
ARC
  5
216C
  8
0
 10
60.446926055684507
 20
15.42371610479525
 30
0.0
 40
0.0088727030938299
 50
54.85438637163962
 51
123.2438560297732
  0
ARC
  5
216D
  8
0
 10
60.463553195523261
 20
15.426317773054651
 30
0.0
 40
0.022024840935182
 50
167.36160713416399
 51
209.9761466874923
  0
ARC
  5
216E
  8
0
 10
60.831352722135541
 20
15.62331361497144
 30
0.0
 40
0.4392480627008494
 50
208.2641533049763
 51
330.86281958879158
  0
ARC
  5
216F
  8
0
 10
61.217712631670032
 20
15.39913053291542
 30
0.0
 40
0.0326972051877983
 50
86.969790174510777
 51
126.912947521389
  0
ARC
  5
2170
  8
0
 10
61.192969835405471
 20
15.42541690661217
 30
0.0
 40
0.0272257571970686
 50
324.0746749720866
 51
13.52031794539163
  0
ARC
  5
2171
  8
0
 10
60.834761610009998
 20
15.84959363135728
 30
0.0
 40
0.5081221421624516
 50
0.425575862765451
 51
90.417256524672055
  0
ARC
  5
2172
  8
0
 10
60.834787412243877
 20
15.857371537952449
 30
0.0
 40
0.5080980981285994
 50
268.89710114506892
 51
359.5485102864738
  0
ARC
  5
2173
  8
0
 10
60.827115151747982
 20
15.8572429132851
 30
0.0
 40
0.5078797161711525
 50
180.47459399874009
 51
269.76223031354692
  0
ARC
  5
2174
  8
0
 10
60.827727505611449
 20
15.849224293701431
 30
0.0
 40
0.5084889341820632
 50
89.624356706520544
 51
179.57048977578631
  0
ARC
  5
2175
  8
0
 10
60.834891245454088
 20
15.85312160259547
 30
0.0
 40
0.4882840844419554
 50
0.0884837695899649
 51
89.766387400472837
  0
ARC
  5
2176
  8
0
 10
60.834615650820261
 20
15.86068708718483
 30
0.0
 40
0.488606576296128
 50
268.90055207178938
 51
359.20124329295197
  0
ARC
  5
2177
  8
0
 10
60.827232758106888
 20
15.860452003937819
 30
0.0
 40
0.488285604034997
 50
180.0886610781649
 51
269.76621009542993
  0
ARC
  5
2178
  8
0
 10
60.827507905406051
 20
15.852883899964519
 30
0.0
 40
0.4886076615319263
 50
88.900679994413196
 51
179.20111536354591
  0
LINE
  5
2179
  8
0
 10
61.342869735502738
 20
15.853367775500001
 30
0.0
 11
61.342864767802737
 21
15.1800005444
 31
0.0
  0
LINE
  5
217A
  8
0
 10
60.31925285876428
 20
15.85303607796274
 30
0.0
 11
60.31925772630273
 21
15.1800005776
 31
0.0
  0
ARC
  5
217B
  8
0
 10
60.771442208889361
 20
15.170148114023061
 30
0.0
 40
0.4522918055090777
 50
178.75180308823809
 51
227.67325018096179
  0
ARC
  5
217C
  8
0
 10
60.889383047216619
 20
15.170704351017839
 30
0.0
 40
0.4535769946956496
 50
312.40771530890328
 51
1.174376013253035
  0
ARC
  5
217D
  8
0
 10
60.8310548616194
 20
15.35797634811057
 30
0.0
 40
0.6366523163077358
 50
235.1100011614806
 51
304.89597747395192
  0
ATTDEF
  5
27C7
  8
DEFPOINTS
 10
60.825781269672461
 20
11.4327175399815
 30
0.0
 40
0.001
  1
METAL
  3

  2
MATERIAL
 70
     0
1001
ACDBATTR
1070
     0
1070
     1
  0
ATTDEF
  5
27C8
  8
DEFPOINTS
 10
60.825781269672461
 20
11.43438420664817
 30
0.0
 40
0.001
  1
BATHROOM SINK FAUCET
  3

  2
PRODUCT
 70
     0
1001
ACDBATTR
1070
     0
1070
     1
  0
ATTDEF
  5
27C9
  8
DEFPOINTS
 10
60.825781269672461
 20
11.436050873314841
 30
0.0
 40
0.001
  1
ELATE
  3

  2
TRADENAME
 70
     0
1001
ACDBATTR
1070
     0
1070
     1
  0
ATTDEF
  5
27CA
  8
DEFPOINTS
 10
60.825781269672461
 20
11.437717539981501
 30
0.0
 40
0.001
  1
K-99491-4
  3

  2
MODELNUMBER
 70
     0
1001
ACDBATTR
1070
     0
1070
     1
  0
ENDSEC
  0
EOF
