  0
SECTION
  2
HEADER
  9
$ACADVER
  1
AC1009
  9
$INSBASE
 10
5.2690124857999949
 20
42.245100740100007
 30
0.0
  9
$EXTMIN
 10
-4.7318032169628452
 20
37.467527490829703
 30
-0.0015258207003583
  9
$EXTMAX
 10
15.27075457086414
 20
42.258326101473678
 30
0.0000000349246037
  9
$LIMMIN
 10
0.0
 20
0.0
  9
$LIMMAX
 10
22.0
 20
17.0
  9
$ORTHOMODE
 70
     0
  9
$REGENMODE
 70
     1
  9
$FILLMODE
 70
     1
  9
$QTEXTMODE
 70
     0
  9
$MIRRTEXT
 70
     0
  9
$DRAGMODE
 70
     2
  9
$LTSCALE
 40
1.2099999999999991
  9
$OSMODE
 70
  3071
  9
$ATTMODE
 70
     1
  9
$TEXTSIZE
 40
0.2
  9
$TRACEWID
 40
0.05
  9
$TEXTSTYLE
  7
STANDARD
  9
$CLAYER
  8
0
  9
$CELTYPE
  6
BYLAYER
  9
$CECOLOR
 62
   256
  9
$DIMSCALE
 40
1.0
  9
$DIMASZ
 40
0.1875
  9
$DIMEXO
 40
0.0625
  9
$DIMDLI
 40
0.8359999999999999
  9
$DIMRND
 40
0.0
  9
$DIMDLE
 40
0.0
  9
$DIMEXE
 40
0.125
  9
$DIMTP
 40
0.0
  9
$DIMTM
 40
0.0
  9
$DIMTXT
 40
0.15625
  9
$DIMCEN
 40
0.198
  9
$DIMTSZ
 40
0.0
  9
$DIMTOL
 70
     0
  9
$DIMLIM
 70
     0
  9
$DIMTIH
 70
     1
  9
$DIMTOH
 70
     1
  9
$DIMSE1
 70
     0
  9
$DIMSE2
 70
     0
  9
$DIMTAD
 70
     0
  9
$DIMZIN
 70
     0
  9
$DIMBLK
  1

  9
$DIMASO
 70
     1
  9
$DIMSHO
 70
     1
  9
$DIMPOST
  1

  9
$DIMAPOST
  1

  9
$DIMALT
 70
     0
  9
$DIMALTD
 70
     2
  9
$DIMALTF
 40
25.399999999999999
  9
$DIMLFAC
 40
1.0
  9
$DIMTOFL
 70
     0
  9
$DIMTVP
 40
0.0
  9
$DIMTIX
 70
     0
  9
$DIMSOXD
 70
     0
  9
$DIMSAH
 70
     0
  9
$DIMBLK1
  1

  9
$DIMBLK2
  1

  9
$DIMSTYLE
  2
STANDARD
  9
$DIMCLRD
 70
     0
  9
$DIMCLRE
 70
     0
  9
$DIMCLRT
 70
     0
  9
$DIMTFAC
 40
1.0
  9
$DIMGAP
 40
0.09
  9
$LUNITS
 70
     2
  9
$LUPREC
 70
     4
  9
$SKETCHINC
 40
0.1
  9
$FILLETRAD
 40
0.0
  9
$AUNITS
 70
     0
  9
$AUPREC
 70
     0
  9
$MENU
  1
.
  9
$ELEVATION
 40
0.0
  9
$PELEVATION
 40
0.0
  9
$THICKNESS
 40
0.0
  9
$LIMCHECK
 70
     0
  9
$BLIPMODE
 70
     0
  9
$CHAMFERA
 40
0.0
  9
$CHAMFERB
 40
0.0
  9
$SKPOLY
 70
     0
  9
$TDCREATE
 40
2458011.5303242239
  9
$TDUPDATE
 40
2458012.5209748959
  9
$TDINDWG
 40
0.1080390741
  9
$TDUSRTIMER
 40
0.1080390741
  9
$USRTIMER
 70
     1
  9
$ANGBASE
 50
0.0
  9
$ANGDIR
 70
     0
  9
$PDMODE
 70
     0
  9
$PDSIZE
 40
0.3125
  9
$PLINEWID
 40
0.0
  9
$COORDS
 70
     1
  9
$SPLFRAME
 70
     0
  9
$SPLINETYPE
 70
     6
  9
$SPLINESEGS
 70
     8
  9
$ATTDIA
 70
     1
  9
$ATTREQ
 70
     1
  9
$HANDLING
 70
     1
  9
$HANDSEED
  5
176E
  9
$SURFTAB1
 70
     6
  9
$SURFTAB2
 70
     6
  9
$SURFTYPE
 70
     6
  9
$SURFU
 70
     6
  9
$SURFV
 70
     6
  9
$UCSNAME
  2

  9
$UCSORG
 10
0.0
 20
0.0
 30
0.0
  9
$UCSXDIR
 10
1.0
 20
0.0
 30
0.0
  9
$UCSYDIR
 10
0.0
 20
1.0
 30
0.0
  9
$PUCSNAME
  2

  9
$PUCSORG
 10
0.0
 20
0.0
 30
0.0
  9
$PUCSXDIR
 10
1.0
 20
0.0
 30
0.0
  9
$PUCSYDIR
 10
0.0
 20
1.0
 30
0.0
  9
$USERI1
 70
     0
  9
$USERI2
 70
     0
  9
$USERI3
 70
     0
  9
$USERI4
 70
     0
  9
$USERI5
 70
     0
  9
$USERR1
 40
0.0
  9
$USERR2
 40
0.0
  9
$USERR3
 40
0.0
  9
$USERR4
 40
0.0
  9
$USERR5
 40
0.0
  9
$WORLDVIEW
 70
     1
  9
$SHADEDGE
 70
     3
  9
$SHADEDIF
 70
    70
  9
$TILEMODE
 70
     1
  9
$MAXACTVP
 70
    48
  9
$PLIMCHECK
 70
     0
  9
$PEXTMIN
 10
1.0000000000000000E+020
 20
1.0000000000000000E+020
 30
1.0000000000000000E+020
  9
$PEXTMAX
 10
-1.0000000000000000E+020
 20
-1.0000000000000000E+020
 30
-1.0000000000000000E+020
  9
$PLIMMIN
 10
0.0
 20
0.0
  9
$PLIMMAX
 10
12.0
 20
9.0
  9
$UNITMODE
 70
     0
  9
$VISRETAIN
 70
     1
  9
$PLINEGEN
 70
     0
  9
$PSLTSCALE
 70
     1
  0
ENDSEC
  0
SECTION
  2
TABLES
  0
TABLE
  2
VPORT
 70
     1
  0
VPORT
  2
*ACTIVE
 70
     0
 10
0.0
 20
0.0
 11
1.0
 21
1.0
 12
5.2694756769506483
 22
39.86292679615169
 13
0.0
 23
0.0
 14
1.0
 24
1.0
 15
0.0
 25
0.0
 16
0.0
 26
0.0
 36
1.0
 17
0.0
 27
0.0
 37
0.0
 40
10.221761604635001
 41
1.9630010277492289
 42
50.0
 43
0.0
 44
0.0
 50
0.0
 51
0.0
 71
     0
 72
   100
 73
     1
 74
     1
 75
     0
 76
     0
 77
     0
 78
     0
  0
ENDTAB
  0
TABLE
  2
LTYPE
 70
     2
  0
LTYPE
  2
CONTINUOUS
 70
     0
  3
Solid line
 72
    65
 73
     0
 40
0.0
  0
LTYPE
  2
PHANTOM2
 70
     0
  3
___ _ _ ___ _ _ ___ _ _ ___ _ _
 72
    65
 73
     6
 40
1.25
 49
0.625
 49
-0.125
 49
0.125
 49
-0.125
 49
0.125
 49
-0.125
  0
ENDTAB
  0
TABLE
  2
LAYER
 70
     2
  0
LAYER
  2
0
 70
     0
 62
     7
  6
CONTINUOUS
  0
LAYER
  2
DEFPOINTS
 70
     0
 62
     7
  6
CONTINUOUS
  0
ENDTAB
  0
TABLE
  2
STYLE
 70
     1
  0
STYLE
  2
STANDARD
 70
     0
 40
0.0
 41
0.8
 50
0.0
 71
     0
 42
0.2
  3
txt
  4

  0
ENDTAB
  0
TABLE
  2
VIEW
 70
     0
  0
ENDTAB
  0
TABLE
  2
UCS
 70
     0
  0
ENDTAB
  0
TABLE
  2
APPID
 70
     5
  0
APPID
  2
ACAD
 70
     0
  0
APPID
  2
ACAD_MLEADERVER
 70
     0
  0
APPID
  2
ACAD_NAV_VCDISPLAY
 70
     0
  0
APPID
  2
ACAD_EXEMPT_FROM_CAD_STANDARDS
 70
     0
  0
APPID
  2
ACDBATTR
 70
     0
  0
ENDTAB
  0
TABLE
  2
DIMSTYLE
 70
     2
  0
DIMSTYLE
  2
STANDARD
 70
     0
  3

  4

  5

  6

  7

 40
1.0
 41
0.1875
 42
0.0625
 43
0.38
 44
0.125
 45
0.0
 46
0.0
 47
1.5
 48
1.5
140
0.15625
141
0.09
142
0.0
143
25.399999999999999
144
1.0
145
0.0
146
1.0
147
0.09
 71
     0
 72
     0
 73
     1
 74
     1
 75
     0
 76
     0
 77
     0
 78
     4
170
     0
171
     2
172
     0
173
     0
174
     0
175
     0
176
     0
177
     0
178
     0
  0
ENDTAB
  0
ENDSEC
  0
SECTION
  2
BLOCKS
  0
BLOCK
  8
0
  2
$MODEL_SPACE
 70
     0
 10
0.0
 20
0.0
 30
0.0
  3
$MODEL_SPACE
  1

  0
ENDBLK
  5
21
  8
0
  0
BLOCK
 67
     1
  8
0
  2
$PAPER_SPACE
 70
     0
 10
0.0
 20
0.0
 30
0.0
  3
$PAPER_SPACE
  1

  0
ENDBLK
  5
1D
 67
     1
  8
0
  0
ENDSEC
  0
SECTION
  2
ENTITIES
  0
LINE
  5
3AC
  8
0
 10
-3.1529875141999999
 20
37.696088666999998
 30
0.0
 11
-3.1429875142000001
 21
37.696088666999998
 31
0.0
  0
LINE
  5
3C1
  8
0
 10
-3.9678433695999988
 20
38.186809513200011
 30
0.0
 11
-3.9214096034999999
 21
38.185188010399997
 31
0.0
  0
LINE
  5
457
  8
0
 10
-3.4759875141999999
 20
41.967600740100004
 30
0.0
 11
-3.3509875141999999
 21
41.967600740100004
 31
0.0
  0
LINE
  5
458
  8
0
 10
-2.350987514199999
 20
41.967600740100004
 30
0.0
 11
-2.2334875141999988
 21
41.967600740100004
 31
0.0
  0
LINE
  5
45F
  8
0
 10
-2.2334875141999988
 20
41.991100740100002
 30
0.0
 11
-2.350987514199999
 21
41.991100740100002
 31
0.0
  0
LINE
  5
460
  8
0
 10
-3.3509875141999999
 20
41.991100740100002
 30
0.0
 11
-3.4759875141999999
 21
41.991100740100002
 31
0.0
  0
LINE
  5
475
  8
0
 10
9.8840124857999996
 20
42.083887536699997
 30
0.0
 11
0.6490124858000002
 21
42.083887536699997
 31
0.0
  0
LINE
  5
487
  8
0
 10
-3.3359875142000002
 20
42.215119611799999
 30
0.0
 11
-2.3659875141999991
 21
42.215119611799999
 31
0.0
  0
ARC
  5
55F
  8
0
 10
-3.9219330950999991
 20
38.170197148
 30
0.0
 40
0.015
 50
14.836373492849759
 51
88.000003222000004
  0
LINE
  5
C6A
  8
0
 10
-4.6709875142000001
 20
38.690100740100007
 30
0.0
 11
-4.6709875142000001
 21
38.400100740100001
 31
0.0
  0
LINE
  5
C6B
  8
0
 10
-4.6039875141999991
 20
38.467100740100008
 30
0.0
 11
-4.6039875141999991
 21
38.6231007401
 31
0.0
  0
LINE
  5
C6C
  8
0
 10
-4.5659875141999988
 20
38.653100740100001
 30
0.0
 11
-4.5659875141999988
 21
38.690100740100007
 31
0.0
  0
LINE
  5
C6D
  8
0
 10
-3.920987514200001
 20
42.230100740099999
 30
0.0
 11
-3.920987514200001
 21
42.006100740100003
 31
0.0
  0
LINE
  5
C6E
  8
0
 10
-3.8539875142000009
 20
42.073100740100003
 30
0.0
 11
-3.8539875142000009
 21
42.230100740099999
 31
0.0
  0
LINE
  5
C6F
  8
0
 10
-3.8099875142000008
 20
42.088100740100003
 30
0.0
 11
-3.8099875142000008
 21
42.058100740100002
 31
0.0
  0
LINE
  5
C70
  8
0
 10
-3.7539875141999999
 20
42.103100740099997
 30
0.0
 11
-3.7539875141999999
 21
42.193100740099993
 31
0.0
  0
LINE
  5
C71
  8
0
 10
-3.6759875141999978
 20
39.225100740099997
 30
0.0
 11
-3.6759875141999978
 21
39.142583377600012
 31
0.0
  0
LINE
  5
C72
  8
0
 10
-3.663996622299996
 20
39.225100740099997
 30
0.0
 11
-3.663996622299996
 21
39.188197246199991
 31
0.0
  0
LINE
  5
C73
  8
0
 10
-3.663996622299996
 20
39.182004233899988
 30
0.0
 11
-3.663996622299996
 21
39.130470137099991
 31
0.0
  0
LINE
  5
C75
  8
0
 10
-3.554987514199996
 20
39.170100740099997
 30
0.0
 11
-3.554987514199996
 21
39.060100740099998
 31
0.0
  0
LINE
  5
C76
  8
0
 10
-3.5429875142000009
 20
41.06010074009999
 30
0.0
 11
-3.5429875142000009
 21
39.31010074009999
 31
0.0
  0
LINE
  5
C77
  8
0
 10
-3.5429875141999991
 20
39.188100740099998
 30
0.0
 11
-3.5429875141999991
 21
39.182100740099997
 31
0.0
  0
LINE
  5
C78
  8
0
 10
-3.5429875141999991
 20
39.060100740099998
 30
0.0
 11
-3.5429875141999991
 21
38.467100740100008
 31
0.0
  0
LINE
  5
C79
  8
0
 10
-3.5429875142000009
 20
41.31010074009999
 30
0.0
 11
-3.5429875142000009
 21
41.991100740100002
 31
0.0
  0
LINE
  5
C7A
  8
0
 10
-3.4759875142000012
 20
42.2451007401
 30
0.0
 11
-3.4759875142000012
 21
41.967600740100004
 31
0.0
  0
LINE
  5
C7B
  8
0
 10
-3.4759875142000012
 20
41.967600740100004
 30
0.0
 11
-3.4759875142000012
 21
41.725600740099992
 31
0.0
  0
LINE
  5
C7D
  8
0
 10
-3.4759875142000012
 20
38.400100740099987
 30
0.0
 11
-3.4759875142000012
 21
41.725600740099992
 31
0.0
  0
LINE
  5
C7E
  8
0
 10
-3.3509875141999981
 20
41.675600740099988
 30
0.0
 11
-3.3509875141999981
 21
42.231119611699988
 31
0.0
  0
LINE
  5
C7F
  8
0
 10
-2.350987514199999
 20
41.675600740100002
 30
0.0
 11
-2.350987514199999
 21
42.231119611700002
 31
0.0
  0
LINE
  5
C80
  8
0
 10
-2.2334875142000001
 20
42.245100740100007
 30
0.0
 11
-2.2334875142000001
 21
41.9251007401
 31
0.0
  0
LINE
  5
C81
  8
0
 10
-1.350987514199999
 20
41.659104827000007
 30
0.0
 11
-1.350987514199999
 21
42.217674333300003
 31
0.0
  0
LINE
  5
C82
  8
0
 10
0.6490124858000002
 20
41.659104827000007
 30
0.0
 11
0.6490124858000002
 21
42.217675724800003
 31
0.0
  0
LINE
  5
C83
  8
0
 10
-3.7539875141999999
 20
42.193100740099993
 30
0.0
 11
-3.7389875141999989
 21
42.208100740099987
 31
0.0
  0
LINE
  5
C87
  8
0
 10
-3.5429875141999991
 20
39.188100740099998
 30
0.0
 11
-3.554987514199996
 21
39.200100740099998
 31
0.0
  0
LINE
  5
C88
  8
0
 10
-3.6759875141999978
 20
39.142583377600012
 30
0.0
 11
-3.6618160168515308
 21
39.12816364989915
 31
0.0
  0
LINE
  5
C8A
  8
0
 10
-3.554987514199996
 20
39.170100740099997
 30
0.0
 11
-3.5429875141999991
 21
39.182100740099997
 31
0.0
  0
LINE
  5
C8B
  8
0
 10
-3.7389875141999989
 20
42.088100740100003
 30
0.0
 11
-3.7539875141999999
 21
42.103100740099997
 31
0.0
  0
LINE
  5
C8C
  8
0
 10
15.189012485799999
 20
38.3851007401
 30
0.0
 11
14.0240124858
 21
38.3851007401
 31
0.0
  0
LINE
  5
C8D
  8
0
 10
-4.6559875141999987
 20
38.3851007401
 30
0.0
 11
-3.4909875141999991
 21
38.3851007401
 31
0.0
  0
LINE
  5
C8E
  8
0
 10
14.0090124858
 20
38.405100740100004
 30
0.0
 11
-3.4759875141999999
 21
38.405100740100004
 31
0.0
  0
LINE
  5
C8F
  8
0
 10
-3.5579875141999961
 20
38.452100740100008
 30
0.0
 11
-4.5889875141999994
 21
38.452100740100008
 31
0.0
  0
LINE
  5
C90
  8
0
 10
14.0910124858
 20
38.452100740100008
 30
0.0
 11
15.122012485799999
 21
38.452100740100008
 31
0.0
  0
LINE
  5
C91
  8
0
 10
14.194840988499999
 20
39.128163649900003
 30
0.0
 11
14.0879915773
 21
39.126298586499999
 31
0.0
  0
LINE
  5
C93
  8
0
 10
15.122012485799999
 20
38.638100740100001
 30
0.0
 11
15.1140124858
 21
38.638100740100001
 31
0.0
  0
LINE
  5
C94
  8
0
 10
-4.5889875141999994
 20
38.638100740100001
 30
0.0
 11
-4.5809875142000003
 21
38.638100740100001
 31
0.0
  0
LINE
  5
C95
  8
0
 10
-4.5809875142000003
 20
38.705100740100008
 30
0.0
 11
-4.6559875141999987
 21
38.705100740100008
 31
0.0
  0
LINE
  5
C96
  8
0
 10
15.1140124858
 20
38.705100740100008
 30
0.0
 11
15.189012485799999
 21
38.705100740100008
 31
0.0
  0
LINE
  5
C97
  8
0
 10
14.0880124858
 20
39.060100740099998
 30
0.0
 11
14.0760124858
 21
39.060100740099998
 31
0.0
  0
LINE
  5
C98
  8
0
 10
-3.554987514199996
 20
39.060100740099998
 30
0.0
 11
-3.5429875141999991
 21
39.060100740099998
 31
0.0
  0
LINE
  5
C99
  8
0
 10
14.0090124858
 20
39.056761346300007
 30
0.0
 11
-3.4759875141999999
 21
39.056761346300007
 31
0.0
  0
LINE
  5
C9A
  8
0
 10
14.197021594000001
 20
39.182006663700001
 30
0.0
 11
14.07610656220001
 21
39.182006663699987
 31
0.0
  0
LINE
  5
C9B
  8
0
 10
-3.6639943198999978
 20
39.182006663700001
 30
0.0
 11
-3.5430815906000031
 21
39.182006663700001
 31
0.0
  0
LINE
  5
C9C
  8
0
 10
14.197019291600011
 20
39.188194816399999
 30
0.0
 11
14.076106562099991
 21
39.188194816399999
 31
0.0
  0
LINE
  5
C9D
  8
0
 10
-3.6639943198999978
 20
39.188194816399999
 30
0.0
 11
-3.5430815904999911
 21
39.188194816400006
 31
0.0
  0
LINE
  5
C9E
  8
0
 10
14.0090124858
 20
39.313440133900002
 30
0.0
 11
-3.4759875141999999
 21
39.313440133900002
 31
0.0
  0
LINE
  5
CA0
  8
0
 10
14.0760124858
 20
39.310100740099998
 30
0.0
 11
14.0880124858
 21
39.310100740099998
 31
0.0
  0
LINE
  5
CA1
  8
0
 10
-3.6618160168999969
 20
39.128163649900003
 30
0.0
 11
-3.554987514199996
 21
39.126298951500011
 31
0.0
  0
LINE
  5
CA3
  8
0
 10
14.0090124858
 20
41.056761346300007
 30
0.0
 11
-3.4759875142000052
 21
41.0567613463
 31
0.0
  0
LINE
  5
CA4
  8
0
 10
14.0090124858
 20
41.313440133900009
 30
0.0
 11
-3.4759875142000012
 21
41.313440133900002
 31
0.0
  0
LINE
  5
CA5
  8
0
 10
11.8840124858
 20
41.658600740200001
 30
0.0
 11
9.8840124857999996
 21
41.658600740200001
 31
0.0
  0
LINE
  5
CA6
  8
0
 10
0.6490124858000002
 20
41.659104827000007
 30
0.0
 11
-1.350987514199999
 21
41.659104827000007
 31
0.0
  0
LINE
  5
CA8
  8
0
 10
-2.3659875142
 20
41.660600740100001
 30
0.0
 11
-3.3359875142000011
 21
41.660600740099987
 31
0.0
  0
LINE
  5
CA9
  8
0
 10
14.0090124858
 20
41.725600740099992
 30
0.0
 11
13.88401248579998
 21
41.725600740099992
 31
0.0
  0
LINE
  5
CAA
  8
0
 10
9.8840124857999996
 20
41.725600713373673
 30
0.0
 11
0.6490124858000002
 21
41.725604826999991
 31
0.0
  0
LINE
  5
CAB
  8
0
 10
-1.350987514199999
 20
41.725604826999991
 30
0.0
 11
-2.350987514199999
 21
41.725600740099978
 31
0.0
  0
LINE
  5
CAC
  8
0
 10
-3.3509875141999981
 20
41.725600740099971
 30
0.0
 11
-3.4759875142000012
 21
41.725600740099992
 31
0.0
  0
LINE
  5
CAD
  8
0
 10
12.7665124858
 20
41.9251007401
 30
0.0
 11
11.8840124858
 21
41.9251007401
 31
0.0
  0
LINE
  5
CAE
  8
0
 10
9.8840124857999996
 20
41.925100713373673
 30
0.0
 11
0.6490124858000002
 21
41.925104826999998
 31
0.0
  0
LINE
  5
CAF
  8
0
 10
-1.350987514199999
 20
41.925104826999998
 30
0.0
 11
-2.2334875142000001
 21
41.9251007401
 31
0.0
  0
LINE
  5
CB0
  8
0
 10
-3.3359875142000002
 20
41.928037897199999
 30
0.0
 11
-2.3659875141999991
 21
41.928037897199999
 31
0.0
  0
LINE
  5
CB1
  8
0
 10
9.8840124857999996
 20
41.948174333300003
 30
0.0
 11
11.8840124858
 21
41.948174333300003
 31
0.0
  0
LINE
  5
CB2
  8
0
 10
12.88401248579998
 20
41.952600740100003
 30
0.0
 11
12.7665124858
 21
41.952600740100003
 31
0.0
  0
LINE
  5
CB3
  8
0
 10
14.439012485799999
 20
41.991100740100002
 30
0.0
 11
14.0760124858
 21
41.991100740100002
 31
0.0
  0
LINE
  5
CB4
  8
0
 10
-3.9059875142000009
 20
41.991100740100002
 30
0.0
 11
-3.5429875142000009
 21
41.991100740100002
 31
0.0
  0
LINE
  5
CB5
  8
0
 10
-3.5159875141999999
 20
42.058100740100002
 30
0.0
 11
-3.8389875142000012
 21
42.058100740100002
 31
0.0
  0
LINE
  5
CB6
  8
0
 10
14.049012485800001
 20
42.058100740100009
 30
0.0
 11
14.37201248580001
 21
42.058100740100009
 31
0.0
  0
LINE
  5
CB7
  8
0
 10
-3.4909875142000022
 20
42.078100740099998
 30
0.0
 11
-3.5009875142000002
 21
42.078100740099998
 31
0.0
  0
LINE
  5
CB8
  8
0
 10
14.272012485799999
 20
42.08810074010001
 30
0.0
 11
14.0090124858
 21
42.08810074010001
 31
0.0
  0
LINE
  5
CB9
  8
0
 10
-3.4759875142000012
 20
42.088100740100003
 30
0.0
 11
-3.7389875141999989
 21
42.088100740100003
 31
0.0
  0
LINE
  5
CBA
  8
0
 10
-3.7389875141999989
 20
42.088100740100003
 30
0.0
 11
-3.8099875142000008
 21
42.088100740100003
 31
0.0
  0
LINE
  5
CBB
  8
0
 10
14.272012485799999
 20
42.08810074010001
 30
0.0
 11
14.343012485799999
 21
42.08810074010001
 31
0.0
  0
LINE
  5
CBC
  8
0
 10
-2.3659875141999991
 20
42.093684725699987
 30
0.0
 11
-3.3370393844495911
 21
42.093684725700001
 31
0.0
  0
LINE
  5
CBD
  8
0
 10
-3.7389875141999989
 20
42.208100740099987
 30
0.0
 11
-3.4759875142000012
 21
42.208100740099987
 31
0.0
  0
LINE
  5
CBE
  8
0
 10
14.0090124858
 20
42.208100740100001
 30
0.0
 11
14.272012485799999
 21
42.208100740100001
 31
0.0
  0
LINE
  5
CBF
  8
0
 10
9.8840124857999996
 20
42.217174333299987
 30
0.0
 11
11.8840124858
 21
42.217174333299987
 31
0.0
  0
LINE
  5
CC0
  8
0
 10
-1.350987514199999
 20
42.2176784201
 30
0.0
 11
0.6490124858000002
 21
42.2176784201
 31
0.0
  0
LINE
  5
CC2
  8
0
 10
-3.4759875142000012
 20
42.2451007401
 30
0.0
 11
-3.3414214859208129
 21
42.2451007401
 31
0.0
  0
LINE
  5
CC3
  8
0
 10
-2.3605535424792019
 20
42.245100740100007
 30
0.0
 11
-2.2334875142000001
 21
42.245100740100007
 31
0.0
  0
LINE
  5
CC4
  8
0
 10
-2.2334875142000001
 20
42.245100740100007
 30
0.0
 11
12.706512485799999
 21
42.245100740100007
 31
0.0
  0
LINE
  5
CC5
  8
0
 10
-3.8689875141999979
 20
42.2451007401
 30
0.0
 11
-3.9059875142000009
 21
42.2451007401
 31
0.0
  0
LINE
  5
CC6
  8
0
 10
12.706512485799999
 20
42.245100740100007
 30
0.0
 11
12.893578514079159
 21
42.245100740099993
 31
0.0
  0
LINE
  5
CC7
  8
0
 10
13.87444645752082
 20
42.245100740100007
 30
0.0
 11
14.0090124858
 21
42.245100740100007
 31
0.0
  0
LINE
  5
CC8
  8
0
 10
14.402012485800009
 20
42.245100740100007
 30
0.0
 11
14.439012485799999
 21
42.245100740100007
 31
0.0
  0
LINE
  5
CC9
  8
0
 10
-3.3359875142000011
 20
42.246119611699989
 30
0.0
 11
-2.3659875142
 21
42.246119611700003
 31
0.0
  0
LINE
  5
CCB
  8
0
 10
14.2870124858
 20
42.103100740100011
 30
0.0
 11
14.272012485799999
 21
42.08810074010001
 31
0.0
  0
LINE
  5
CCC
  8
0
 10
14.0760124858
 20
39.182100740099997
 30
0.0
 11
14.0880124858
 21
39.170100740099997
 31
0.0
  0
LINE
  5
CCE
  8
0
 10
9.8840124857999996
 20
41.658600740200001
 30
0.0
 11
9.8840124857999996
 21
42.217170246499997
 31
0.0
  0
LINE
  5
CCF
  8
0
 10
14.209012485800001
 20
39.142583377600012
 30
0.0
 11
14.194840988499999
 21
39.128163649900003
 31
0.0
  0
LINE
  5
CD0
  8
0
 10
14.0880124858
 20
39.200100740099998
 30
0.0
 11
14.0760124858
 21
39.188100740099998
 31
0.0
  0
LINE
  5
CD1
  8
0
 10
14.272012485799999
 20
42.208100740100001
 30
0.0
 11
14.2870124858
 21
42.1931007401
 31
0.0
  0
LINE
  5
CD2
  8
0
 10
11.8840124858
 20
41.658600740200001
 30
0.0
 11
11.8840124858
 21
42.217171638000003
 31
0.0
  0
LINE
  5
CD3
  8
0
 10
12.7665124858
 20
41.9251007401
 30
0.0
 11
12.7665124858
 21
42.245100740100007
 31
0.0
  0
LINE
  5
CD6
  8
0
 10
14.0090124858
 20
38.400100740100001
 30
0.0
 11
14.0090124858
 21
41.725600740099992
 31
0.0
  0
LINE
  5
CD7
  8
0
 10
14.0090124858
 20
41.725600740099992
 30
0.0
 11
14.0090124858
 21
41.967600740100004
 31
0.0
  0
LINE
  5
CD8
  8
0
 10
14.0090124858
 20
41.967600740100004
 30
0.0
 11
14.0090124858
 21
41.991100740100002
 31
0.0
  0
LINE
  5
CD9
  8
0
 10
14.0090124858
 20
41.991100740100002
 30
0.0
 11
14.0090124858
 21
42.245100740100007
 31
0.0
  0
LINE
  5
CDA
  8
0
 10
14.0760124858
 20
38.467100740100008
 30
0.0
 11
14.0760124858
 21
39.060100740099998
 31
0.0
  0
LINE
  5
CDB
  8
0
 10
14.0760124858
 20
39.182100740099997
 30
0.0
 11
14.0760124858
 21
39.188100740099998
 31
0.0
  0
LINE
  5
CDC
  8
0
 10
14.0760124858
 20
39.310100740099998
 30
0.0
 11
14.0760124858
 21
41.060100740099998
 31
0.0
  0
LINE
  5
CDD
  8
0
 10
14.0760124858
 20
41.310100740099998
 30
0.0
 11
14.0760124858
 21
41.991100740100002
 31
0.0
  0
LINE
  5
CDE
  8
0
 10
14.0880124858
 20
39.310100740099998
 30
0.0
 11
14.0880124858
 21
39.200100740099998
 31
0.0
  0
LINE
  5
CDF
  8
0
 10
14.0880124858
 20
39.170100740099997
 30
0.0
 11
14.0880124858
 21
39.060100740099998
 31
0.0
  0
LINE
  5
CE0
  8
0
 10
14.093012485799999
 20
42.058100740100009
 30
0.0
 11
14.093012485799999
 21
42.08810074010001
 31
0.0
  0
LINE
  5
CE1
  8
0
 10
14.197021594000001
 20
39.130382451263443
 30
0.0
 11
14.197021594000001
 21
39.182006663700001
 31
0.0
  0
LINE
  5
CE2
  8
0
 10
14.197021594000001
 20
39.188197246199991
 30
0.0
 11
14.197021594000001
 21
39.225100740100011
 31
0.0
  0
LINE
  5
CE3
  8
0
 10
14.209012485800001
 20
39.142583377600012
 30
0.0
 11
14.209012485800001
 21
39.225100740100011
 31
0.0
  0
LINE
  5
CE4
  8
0
 10
14.2870124858
 20
42.1931007401
 30
0.0
 11
14.2870124858
 21
42.103100740100011
 31
0.0
  0
LINE
  5
CE5
  8
0
 10
14.343012485799999
 20
42.058100740100009
 30
0.0
 11
14.343012485799999
 21
42.08810074010001
 31
0.0
  0
LINE
  5
CE6
  8
0
 10
14.38701248580001
 20
42.07310074010001
 30
0.0
 11
14.38701248580001
 21
42.230100740100013
 31
0.0
  0
LINE
  5
CE7
  8
0
 10
14.4540124858
 20
42.230100740100013
 30
0.0
 11
14.4540124858
 21
42.006100740100003
 31
0.0
  0
LINE
  5
CE8
  8
0
 10
15.099012485799999
 20
38.653100740100001
 30
0.0
 11
15.099012485799999
 21
38.690100740100007
 31
0.0
  0
LINE
  5
CE9
  8
0
 10
15.13701248580001
 20
38.467100740100008
 30
0.0
 11
15.13701248580001
 21
38.6231007401
 31
0.0
  0
LINE
  5
CEA
  8
0
 10
15.2040124858
 20
38.690100740100007
 30
0.0
 11
15.2040124858
 21
38.400100740100001
 31
0.0
  0
ARC
  5
CEB
  8
0
 10
-4.5809875142000003
 20
38.690100740100007
 30
0.0
 40
0.015
 50
0.0
 51
90.0
  0
ARC
  5
CEC
  8
0
 10
-4.5809875142000003
 20
38.653100740100001
 30
0.0
 40
0.015
 50
270.0
 51
0.0
  0
ARC
  5
CED
  8
0
 10
-4.5889875141999994
 20
38.6231007401
 30
0.0
 40
0.015
 50
90.0
 51
180.0
  0
ARC
  5
CEE
  8
0
 10
-4.5889875141999994
 20
38.467100740100008
 30
0.0
 40
0.015
 50
180.0
 51
270.0
  0
ARC
  5
CEF
  8
0
 10
-3.5579875141999961
 20
38.467100740100008
 30
0.0
 40
0.015
 50
270.0
 51
0.0
  0
ARC
  5
CF0
  8
0
 10
-3.4909875141999991
 20
38.400100740100001
 30
0.0
 40
0.015
 50
270.0
 51
0.0
  0
ARC
  5
CF1
  8
0
 10
-4.6559875141999987
 20
38.400100740100001
 30
0.0
 40
0.015
 50
180.0
 51
270.0
  0
ARC
  5
CF2
  8
0
 10
-4.6559875141999987
 20
38.690100740100007
 30
0.0
 40
0.015
 50
90.0
 51
180.0
  0
ARC
  5
CF3
  8
0
 10
-3.3359875142000011
 20
41.675600740099988
 30
0.0
 40
0.015
 50
179.9999999996999
 51
270.0
  0
ARC
  5
CF4
  8
0
 10
-3.3359875142000011
 20
42.231119611699988
 30
0.0
 40
0.015
 50
90.0
 51
180.0
  0
ARC
  5
CF5
  8
0
 10
-3.9059875142000009
 20
42.006100740100003
 30
0.0
 40
0.015
 50
180.0
 51
270.0
  0
ARC
  5
CF6
  8
0
 10
-3.9059875142000009
 20
42.230100740099999
 30
0.0
 40
0.015
 50
90.0
 51
180.0
  0
ARC
  5
CF7
  8
0
 10
-3.8689875141999979
 20
42.230100740099999
 30
0.0
 40
0.015
 50
0.0
 51
90.0
  0
ARC
  5
CF8
  8
0
 10
-3.8389875142000012
 20
42.073100740100003
 30
0.0
 40
0.015
 50
180.0
 51
270.0
  0
ARC
  5
CF9
  8
0
 10
-3.5009875142000002
 20
42.063100740099998
 30
0.0
 40
0.015
 50
90.0
 51
180.0
  0
ARC
  5
CFA
  8
0
 10
-3.4909875142000022
 20
42.063100740099998
 30
0.0
 40
0.015
 50
0.0
 51
90.0
  0
ARC
  5
CFB
  8
0
 10
-2.3659875142
 20
41.675600740100002
 30
0.0
 40
0.015
 50
270.0
 51
0.0
  0
ARC
  5
CFC
  8
0
 10
-2.3659875142
 20
42.231119611700002
 30
0.0
 40
0.015
 50
0.0
 51
90.0
  0
ARC
  5
CFD
  8
0
 10
15.1140124858
 20
38.690100740100007
 30
0.0
 40
0.015
 50
90.0
 51
180.0
  0
ARC
  5
CFE
  8
0
 10
15.189012485799999
 20
38.690100740100007
 30
0.0
 40
0.015
 50
0.0
 51
90.0
  0
ARC
  5
CFF
  8
0
 10
15.189012485799999
 20
38.400100740100001
 30
0.0
 40
0.015
 50
270.0
 51
0.0
  0
ARC
  5
D00
  8
0
 10
14.0240124858
 20
38.400100740100001
 30
0.0
 40
0.015
 50
180.0
 51
270.0
  0
ARC
  5
D01
  8
0
 10
14.0910124858
 20
38.467100740100008
 30
0.0
 40
0.015
 50
180.0
 51
270.0
  0
ARC
  5
D02
  8
0
 10
15.122012485799999
 20
38.467100740100008
 30
0.0
 40
0.015
 50
270.0
 51
0.0
  0
ARC
  5
D03
  8
0
 10
15.122012485799999
 20
38.6231007401
 30
0.0
 40
0.015
 50
0.0
 51
90.0
  0
ARC
  5
D04
  8
0
 10
15.1140124858
 20
38.653100740100001
 30
0.0
 40
0.015
 50
180.0
 51
270.0
  0
ARC
  5
D09
  8
0
 10
14.439012485799999
 20
42.230100740100013
 30
0.0
 40
0.015
 50
0.0
 51
90.0
  0
ARC
  5
D0A
  8
0
 10
14.402012485800009
 20
42.230100740100013
 30
0.0
 40
0.015
 50
90.0
 51
180.0
  0
ARC
  5
D0B
  8
0
 10
14.37201248580001
 20
42.07310074010001
 30
0.0
 40
0.015
 50
270.0
 51
0.0
  0
ARC
  5
D0C
  8
0
 10
14.439012485799999
 20
42.006100740100003
 30
0.0
 40
0.015
 50
270.0
 51
0.0
  0
LINE
  5
D1C
  8
0
 10
-3.663996622299996
 20
39.188197246199991
 30
0.0
 11
-3.6623841115999971
 21
39.186514953600003
 31
0.0
  0
ARC
  5
D1D
  8
0
 10
-3.6638777327384688
 20
39.185100740050011
 30
0.0
 40
0.0020569161553873
 50
316.56425303085632
 51
43.435746969143672
  0
LINE
  5
D1E
  8
0
 10
-3.6623841115999971
 20
39.183686526499997
 30
0.0
 11
-3.663996622299996
 21
39.182004233899988
 31
0.0
  0
ARC
  5
D20
  8
0
 10
14.085503440694509
 20
39.293475641809479
 30
0.0
 40
0.1533617915218004
 50
315.77800498811507
 51
316.64861070529548
  0
ARC
  5
D21
  8
0
 10
14.19690270407321
 20
39.185100740050032
 30
0.0
 40
0.002056915890171
 50
136.56424614254161
 51
223.4357539652577
  0
ARC
  5
D22
  8
0
 10
14.078988082319441
 20
39.070319426116058
 30
0.0
 40
0.1624990735935931
 50
43.41754712392229
 51
44.238579745660182
  0
LINE
  5
D36
  8
0
 10
-3.5159875141999999
 20
42.058100740100002
 30
0.0
 11
-3.5159875141999999
 21
42.063100740099998
 31
0.0
  0
LINE
  5
D37
  8
0
 10
14.0090124858
 20
39.082100740100003
 30
0.0
 11
-3.4759875141999999
 21
39.08210074010001
 31
0.0
  0
LINE
  5
D38
  8
0
 10
14.0090124858
 20
39.288903622099987
 30
0.0
 11
-3.4759875141999999
 21
39.28890362210084
 31
0.0
  0
LINE
  5
D39
  8
0
 10
-3.4759875142000012
 20
41.290291059999987
 30
0.0
 11
14.0090124858
 21
41.290291060000001
 31
0.0
  0
LINE
  5
D3A
  8
0
 10
-3.4759875142000012
 20
41.083685751099992
 30
0.0
 11
14.0090124858
 21
41.083685751099992
 31
0.0
  0
LINE
  5
D3B
  8
0
 10
-1.350987514199999
 20
41.755104826999997
 30
0.0
 11
0.6490124858000002
 21
41.755104826999997
 31
0.0
  0
LINE
  5
D3C
  8
0
 10
0.6490124858000002
 20
41.948678420100002
 30
0.0
 11
-1.350987514199999
 21
41.948678420100002
 31
0.0
  0
LINE
  5
D3D
  8
0
 10
9.8840124857999996
 20
41.754600740199997
 30
0.0
 11
11.8840124858
 21
41.754600740199997
 31
0.0
  0
LINE
  5
D3E
  8
0
 10
11.8840124858
 20
41.725600740099992
 30
0.0
 11
12.88401248579998
 21
41.725600740099992
 31
0.0
  0
LINE
  5
D42
  8
0
 10
-3.5549875141999978
 20
41.31010074009999
 30
0.0
 11
-3.5549875141999978
 21
41.200100740099991
 31
0.0
  0
LINE
  5
D43
  8
0
 10
-3.5549875141999978
 20
41.17010074009999
 30
0.0
 11
-3.5549875141999978
 21
41.06010074009999
 31
0.0
  0
LINE
  5
D4D
  8
0
 10
-3.5549875141999978
 20
41.06010074009999
 30
0.0
 11
-3.5429875142000049
 21
41.06010074009999
 31
0.0
  0
LINE
  5
D50
  8
0
 10
-3.5429875142000049
 20
41.31010074009999
 30
0.0
 11
-3.5549875141999978
 21
41.31010074009999
 31
0.0
  0
LINE
  5
D56
  8
0
 10
14.0880124858
 20
41.060100740099998
 30
0.0
 11
14.0760124858
 21
41.060100740099998
 31
0.0
  0
LINE
  5
D59
  8
0
 10
14.0760124858
 20
41.310100740099998
 30
0.0
 11
14.0880124858
 21
41.310100740099998
 31
0.0
  0
LINE
  5
D5B
  8
0
 10
14.0760124858
 20
41.182100740099997
 30
0.0
 11
14.0880124858
 21
41.170100740099997
 31
0.0
  0
LINE
  5
D5E
  8
0
 10
14.0880124858
 20
41.200100740099998
 30
0.0
 11
14.0760124858
 21
41.188100740099998
 31
0.0
  0
LINE
  5
D5F
  8
0
 10
14.0760124858
 20
41.182100740099997
 30
0.0
 11
14.0760124858
 21
41.188100740099998
 31
0.0
  0
LINE
  5
D60
  8
0
 10
14.0880124858
 20
41.310100740099998
 30
0.0
 11
14.0880124858
 21
41.200100740099998
 31
0.0
  0
LINE
  5
D61
  8
0
 10
14.0880124858
 20
41.170100740099997
 30
0.0
 11
14.0880124858
 21
41.060100740099998
 31
0.0
  0
LINE
  5
D69
  8
0
 10
13.404012485799999
 20
37.8226007401
 30
0.0
 11
-3.1829875141997901
 21
37.82208866700001
 31
0.0
  0
LINE
  5
D6A
  8
0
 10
-4.7159875141999983
 20
37.467600740100004
 30
0.0
 11
15.25401248579999
 21
37.467600740100004
 31
0.0
  0
LINE
  5
D6B
  8
0
 10
15.25401248579999
 20
37.587600740100008
 30
0.0
 11
-4.7159875142000054
 21
37.587600740100001
 31
0.0
  0
LINE
  5
D6C
  8
0
 10
-4.7159875142000054
 20
37.587600740100008
 30
0.0
 11
-4.7309875142000051
 21
37.572600740100007
 31
0.0
  0
LINE
  5
D6D
  8
0
 10
-4.7309875142000051
 20
37.482600740099997
 30
0.0
 11
-4.7159875142000054
 21
37.467600740100004
 31
0.0
  0
LINE
  5
D6E
  8
0
 10
-4.7309875142000051
 20
37.572600740100007
 30
0.0
 11
-4.7309875142000051
 21
37.482600740099997
 31
0.0
  0
LINE
  5
D6F
  8
0
 10
-4.670987514100001
 20
37.597088667000001
 30
0.0
 11
-3.1679875142000031
 21
37.597088667000001
 31
0.0
  0
LINE
  5
D70
  8
0
 10
-3.1829875140000001
 20
37.82208866700001
 30
0.0
 11
-3.490987514300012
 21
37.82208866700001
 31
0.0
  0
LINE
  5
D71
  8
0
 10
-4.0273307244000121
 20
38.197600740100007
 30
0.0
 11
-4.6689875141000057
 21
38.197600740100007
 31
0.0
  0
LINE
  5
D72
  8
0
 10
-3.508621071800003
 20
37.827818157200007
 30
0.0
 11
-4.009697166800005
 21
38.191871249999998
 31
0.0
  0
LINE
  5
D73
  8
0
 10
-3.152987514200003
 20
37.612088667000002
 30
0.0
 11
-3.152987514200003
 21
37.792088667000009
 31
0.0
  0
LINE
  5
D74
  8
0
 10
-4.7009875142000039
 20
37.65142121600001
 30
0.0
 11
-4.7009875142000039
 21
37.627088666900001
 31
0.0
  0
ARC
  5
D75
  8
0
 10
-3.490987514199996
 20
37.852088666999997
 30
0.0
 40
0.03
 50
233.99999979910001
 51
269.99999981530033
  0
ARC
  5
D76
  8
0
 10
-3.1829875142000041
 20
37.792088667000009
 30
0.0
 40
0.03
 50
359.99999995190029
 51
89.999999999600234
  0
ARC
  5
D77
  8
0
 10
-4.8819875142000022
 20
37.91033239770001
 30
0.0
 40
0.304
 50
309.17835685080001
 51
50.377646540799972
  0
ARC
  5
D78
  8
0
 10
-4.6709875142000028
 20
37.62708866700001
 30
0.0
 40
0.03
 50
180.00000013150009
 51
270.0
  0
ARC
  5
D79
  8
0
 10
-4.6709875142000028
 20
37.651421216100012
 30
0.0
 40
0.03
 50
129.17835698559989
 51
180.0
  0
ARC
  5
D7A
  8
0
 10
-4.6695500465800519
 20
38.167803388186499
 30
0.0
 40
0.0298026613532205
 50
88.918464194412337
 51
231.45918192827469
  0
LINE
  5
D7B
  8
0
 10
-3.1429875142000121
 20
37.82208866700001
 30
0.0
 11
-3.1429875142000121
 21
37.587600740100008
 31
0.0
  0
ARC
  5
D7C
  8
0
 10
-3.1675724730914072
 20
37.611673625891413
 30
0.0
 40
0.0145908630651476
 50
268.36998594331368
 51
1.630014056687161
  0
LINE
  5
D7D
  8
0
 10
15.25401248579999
 20
37.587600740100008
 30
0.0
 11
15.26901248579999
 21
37.5726007401
 31
0.0
  0
LINE
  5
D7E
  8
0
 10
15.26901248579999
 20
37.5726007401
 30
0.0
 11
15.26901248579999
 21
37.482600740099997
 31
0.0
  0
LINE
  5
D7F
  8
0
 10
15.26901248579999
 20
37.482600740099997
 30
0.0
 11
15.25401248579999
 21
37.467600740100004
 31
0.0
  0
LINE
  5
D80
  8
0
 10
-3.152987514200003
 20
37.702600740100003
 30
0.0
 11
-3.142987514199997
 21
37.702600740100003
 31
0.0
  0
LINE
  5
D81
  8
0
 10
-3.152987514200003
 20
37.656600740099996
 30
0.0
 11
-3.1429875142000121
 21
37.656600740099996
 31
0.0
  0
ARC
  5
D82
  8
0
 10
13.05891874968562
 20
37.80773501083609
 30
0.0
 40
0.0148388024917174
 50
89.573559352888054
 51
180.61645374889841
  0
LINE
  5
D83
  8
0
 10
13.044080806049999
 20
37.807575361050013
 30
0.0
 11
13.0440124858
 21
37.612600740000012
 31
0.0
  0
ARC
  5
D84
  8
0
 10
13.05901248579999
 20
37.612600740099971
 30
0.0
 40
0.0149999999999686
 50
180.00000038181551
 51
270.00000000625607
  0
LINE
  5
D85
  8
0
 10
13.05901248580162
 20
37.597600740099999
 30
0.0
 11
15.22401248580001
 21
37.597600740099999
 31
0.0
  0
ARC
  5
D86
  8
0
 10
15.22401248580001
 20
37.6126007401
 30
0.0
 40
0.0150000000000041
 50
270.00000000001342
 51
359.92882791720251
  0
LINE
  5
D87
  8
0
 10
15.239012474227289
 20
37.612582107297087
 30
0.0
 11
15.239012485799989
 21
38.137600740000011
 31
0.0
  0
ARC
  5
D88
  8
0
 10
15.199012485800001
 20
38.137600740100012
 30
0.0
 40
0.0399999999999921
 50
359.99999985675271
 51
90.0
  0
LINE
  5
D89
  8
0
 10
15.199012485800001
 20
38.177600740099997
 30
0.0
 11
13.45901248580001
 21
38.177600740099997
 31
0.0
  0
ARC
  5
D8A
  8
0
 10
13.45901248580001
 20
38.137600740100012
 30
0.0
 40
0.0399999999999956
 50
90.000000000015476
 51
180.00000014323669
  0
LINE
  5
D8B
  8
0
 10
13.4190124858
 20
38.137600740000011
 30
0.0
 11
13.4190124858
 21
37.837600740100001
 31
0.0
  0
ARC
  5
D8C
  8
0
 10
-4.0271931232677893
 20
38.168024232457832
 30
0.0
 40
0.0295768277267707
 50
53.733440687768073
 51
90.266559775992448
  0
ARC
  5
D8D
  8
0
 10
13.40401248579999
 20
37.837600740100008
 30
0.0
 40
0.0150000000000041
 50
270.00000000001342
 51
359.99999999997272
  0
LINE
  5
D8E
  8
0
 10
13.029012485799999
 20
37.822571023694479
 30
0.0
 11
13.029012485799999
 21
37.587600740100001
 31
0.0
  0
LINE
  5
D8F
  8
0
 10
13.1040124858
 20
37.597600740099999
 30
0.0
 11
13.1040124858
 21
37.587600740100008
 31
0.0
  0
LINE
  5
D90
  8
0
 10
13.8540124858
 20
37.597600740099999
 30
0.0
 11
13.8540124858
 21
37.587600740100001
 31
0.0
  0
LINE
  5
D91
  8
0
 10
14.394012485799999
 20
37.597600740099999
 30
0.0
 11
14.394012485799999
 21
37.587600740100008
 31
0.0
  0
LINE
  5
D92
  8
0
 10
15.144012485799999
 20
37.597600740099999
 30
0.0
 11
15.144012485799999
 21
37.587600740100008
 31
0.0
  0
LINE
  5
D93
  8
0
 10
13.0440124858
 20
37.702600740100003
 30
0.0
 11
13.029012485799999
 21
37.702600740100003
 31
0.0
  0
ARC
  5
D94
  8
0
 10
-4.5876108098612418
 20
38.370097617988371
 30
0.0
 40
0.0150031224627471
 50
90.004080742231778
 51
165.55749179045171
  0
ARC
  5
D95
  8
0
 10
-3.9760816979637812
 20
38.212599928383618
 30
0.0
 40
0.6464881792367289
 50
165.55749179045171
 51
179.9999280606757
  0
LINE
  5
D96
  8
0
 10
-4.6225698772000028
 20
38.212600740100001
 30
0.0
 11
-4.622569896033677
 21
38.197600740100007
 31
0.0
  0
LINE
  5
D97
  8
0
 10
-4.1225698772000028
 20
38.1976007401
 30
0.0
 11
-4.122568567995966
 21
38.212600740454462
 31
0.0
  0
ARC
  5
D98
  8
0
 10
-4.7685652648147778
 20
38.212657123218499
 30
0.0
 40
0.6459966992793631
 50
359.99499920909091
 51
14.448496712808421
  0
ARC
  5
D99
  8
0
 10
-4.1575305128461251
 20
38.370095594530248
 30
0.0
 40
0.0150051461145395
 50
14.44849671280879
 51
89.989930754412185
  0
LINE
  5
D9A
  8
0
 10
-3.3964875141999999
 20
37.597088667000001
 30
0.0
 11
-3.3964875141999999
 21
37.587600740100001
 31
0.0
  0
LINE
  5
D9B
  8
0
 10
-4.1464875142000004
 20
37.597088667000001
 30
0.0
 11
-4.1464875142000004
 21
37.587600740100001
 31
0.0
  0
LINE
  5
D9C
  8
0
 10
-3.4759875141999999
 20
38.690100740099993
 30
0.0
 11
14.0090124858
 21
38.6901007401
 31
0.0
  0
LINE
  5
D9D
  8
0
 10
3.3732504544999951
 20
38.033597939500012
 30
0.0
 11
3.376573485104291
 21
37.882634508600091
 31
0.0
  0
LINE
  5
D9E
  8
0
 10
3.376573485104291
 20
37.882634508600091
 30
0.0
 11
-3.4697533754000061
 21
38.121713510699998
 31
0.0
  0
LINE
  5
D9F
  8
0
 10
-3.4697533754000061
 20
38.121713510699998
 30
0.0
 11
-3.4559077630000061
 21
38.272077399399997
 31
0.0
  0
LINE
  5
DA0
  8
0
 10
-3.4559077630000061
 20
38.272077399399997
 30
0.0
 11
3.3732504544999951
 21
38.033597939500012
 31
0.0
  0
LINE
  5
DA1
  8
0
 10
3.3765734850999962
 20
37.882634508599999
 30
0.0
 11
3.126634029899992
 21
37.877132802300011
 31
0.0
  0
LINE
  5
DA2
  8
0
 10
3.126634029899992
 20
37.877132802300011
 30
0.0
 11
-3.2208065399000061
 21
38.0987903113
 31
0.0
  0
LINE
  5
DA3
  8
0
 10
-3.2208065399000061
 20
38.0987903113
 30
0.0
 11
-3.4697533754064969
 21
38.121713510629498
 31
0.0
  0
ARC
  5
DA4
  8
0
 10
-3.9725314503912199
 20
38.160185891413889
 30
0.0
 40
0.0281723411506047
 50
331.73302151233338
 51
69.852675540816278
  0
ARC
  5
DA5
  8
0
 10
-3.9675338570961869
 20
38.201593737523851
 30
0.0
 40
0.0147874638409656
 50
179.1993302485439
 51
268.80066957603992
  0
LINE
  5
DA6
  8
0
 10
-3.9823198771000068
 20
38.201800375600001
 30
0.0
 11
-3.9822836514813602
 21
38.28131679099004
 31
0.0
  0
ARC
  5
DA7
  8
0
 10
-3.9672350421011648
 20
38.283535570063542
 30
0.0
 40
0.0152112992493884
 50
89.326367583867096
 51
188.3873075505187
  0
LINE
  5
DA8
  8
0
 10
-3.6587908426889828
 20
38.080541238116929
 30
0.0
 11
-3.590639843948864
 21
38.185180262570071
 31
0.0
  0
ARC
  5
DA9
  8
0
 10
-3.8473198771253472
 20
38.0476007401762
 30
0.0
 40
0.1399999999283627
 50
27.834738641703719
 51
135.25265951354541
  0
ARC
  5
DAA
  8
0
 10
-3.6704602692211701
 20
38.140985315906711
 30
0.0
 40
0.059999999802603
 50
207.8347386417033
 51
268.00000010919121
  0
LINE
  5
DAB
  8
0
 10
-3.6725542389021579
 20
38.081021866478856
 30
0.0
 11
-0.3634939867298641
 21
37.965466942492363
 31
0.0
  0
ARC
  5
DAC
  8
0
 10
-0.3640174791469128
 20
37.950476080226871
 30
0.0
 40
0.014999999859115
 50
358.99997543803528
 51
88.000000109199959
  0
LINE
  5
DAD
  8
0
 10
-0.3490197639726595
 20
37.950214287703439
 30
0.0
 11
-0.3507469275944324
 21
37.900743477981358
 31
0.0
  0
ARC
  5
DAE
  8
0
 10
-0.3657275710797556
 20
37.901505958492073
 30
0.0
 40
0.0150000351920756
 50
270.00006218392178
 51
357.08629011700918
  0
LINE
  5
DAF
  8
0
 10
-0.3657275548000065
 20
37.8865059233
 30
0.0
 11
-3.675311299202753
 21
38.002069991121317
 31
0.0
  0
ARC
  5
DB0
  8
0
 10
-3.6774052690000012
 20
37.942106541499982
 30
0.0
 40
0.0600000000000257
 50
88.000000004684452
 51
137.54284056349701
  0
ARC
  5
DB1
  8
0
 10
-3.5780334930940039
 20
38.17695583595961
 30
0.0
 40
0.015052137849083
 50
94.355028035303945
 51
146.8809530011539
  0
LINE
  5
DB2
  8
0
 10
-3.7728492966339209
 20
38.185200317482362
 30
0.0
 11
-3.5467963846466679
 21
38.193095251701862
 31
0.0
  0
ARC
  5
DB3
  8
0
 10
-3.547319877087463
 20
38.208086114094947
 30
0.0
 40
0.0149999999874616
 50
271.99999996444058
 51
0.0000000193239307
  0
LINE
  5
DB4
  8
0
 10
-3.5323198771000071
 20
38.208086114100013
 30
0.0
 11
-3.5323198771000071
 21
38.272284834426422
 31
0.0
  0
ARC
  5
DB5
  8
0
 10
-3.5476897149521198
 20
38.275642530852728
 30
0.0
 40
0.0157323247135164
 50
347.67676480782598
 51
87.692188113502056
  0
LINE
  5
DB6
  8
0
 10
-3.5470562053000019
 20
38.291362095300009
 30
0.0
 11
-3.9670562054000049
 21
38.298745818
 31
0.0
  0
LINE
  5
DB7
  8
0
 10
-3.9670580911000068
 20
38.244421960899999
 30
0.0
 11
-3.5470580911000051
 21
38.2377925268
 31
0.0
  0
ARC
  5
DB8
  8
0
 10
-3.5472944290285069
 20
38.222819615315643
 30
0.0
 40
0.0149747765904813
 50
0.3138504720802841
 51
89.095697490278553
  0
ARC
  5
DB9
  8
0
 10
-3.9673706914612832
 20
38.22947586241245
 30
0.0
 40
0.0149493671767531
 50
88.801823069035748
 51
179.7051856231829
  0
ARC
  5
DBA
  8
0
 10
-3.7723221371089428
 20
38.170212235886517
 30
0.0
 40
0.0149973493354094
 50
92.014371898895078
 51
165.86298563924689
  0
LINE
  5
12B8
  8
0
 10
13.98584237999999
 20
38.177600740099983
 30
0.0
 11
13.941307761399999
 21
38.222758220399982
 31
0.0
  0
LINE
  5
12B9
  8
0
 10
13.941307761399999
 20
38.222758220399982
 30
0.0
 11
14.16571721029999
 21
38.222758220400003
 31
0.0
  0
LINE
  5
12BA
  8
0
 10
14.165717210299981
 20
38.232600740100011
 30
0.0
 11
13.94130776139999
 21
38.232600740099983
 31
0.0
  0
LINE
  5
12BB
  8
0
 10
14.12118259169999
 20
38.177600740099997
 30
0.0
 11
14.16571721029999
 21
38.222758220400003
 31
0.0
  0
LINE
  5
12BC
  8
0
 10
14.165717210299981
 20
38.232600740100011
 30
0.0
 11
14.16571721029999
 21
38.222758220400003
 31
0.0
  0
LINE
  5
12BD
  8
0
 10
13.94130776139999
 20
38.232600740099983
 30
0.0
 11
13.941307761399999
 21
38.222758220399982
 31
0.0
  0
LINE
  5
12BF
  8
0
 10
-3.5549875142
 20
39.310100740099998
 30
0.0
 11
-3.554987514199996
 21
39.200100740099998
 31
0.0
  0
LINE
  5
12C0
  8
0
 10
-3.5429875142
 20
39.310100740099998
 30
0.0
 11
-3.5549875142
 21
39.310100740099998
 31
0.0
  0
LINE
  5
12CB
  8
0
 10
-3.5549875142
 20
41.200100740099998
 30
0.0
 11
-3.5429875142
 21
41.188100740099998
 31
0.0
  0
LINE
  5
12CC
  8
0
 10
-3.5429875142
 20
41.188100740099998
 30
0.0
 11
-3.5429875142
 21
41.182100740099997
 31
0.0
  0
LINE
  5
12CD
  8
0
 10
-3.5429875142
 20
41.182100740099997
 30
0.0
 11
-3.5549875141999978
 21
41.170100740099997
 31
0.0
  0
LINE
  5
12CE
  8
0
 10
-3.5429875141999991
 20
41.975100740099997
 30
0.0
 11
-4.5117375142
 21
41.975100740099997
 31
0.0
  0
LINE
  5
12CF
  8
0
 10
-4.5117375142
 20
41.975100740099997
 30
0.0
 11
-4.5117375142
 21
39.225100740100011
 31
0.0
  0
LINE
  5
12D0
  8
0
 10
-4.5117375142
 20
39.225100740100011
 30
0.0
 11
-3.5549875141999991
 21
39.225100740100011
 31
0.0
  0
LINE
  5
12D1
  8
0
 10
-4.5417375142000003
 20
38.76510074010001
 30
0.0
 11
-4.5717375141999996
 21
38.735100740100002
 31
0.0
  0
LINE
  5
12D2
  8
0
 10
-4.5717375141999996
 20
38.735100740100002
 30
0.0
 11
-4.6317375142000001
 21
38.735100740100002
 31
0.0
  0
LINE
  5
12D3
  8
0
 10
-4.6317375142000001
 20
38.735100740100002
 30
0.0
 11
-4.6617375142000004
 21
38.76510074010001
 31
0.0
  0
LINE
  5
12D4
  8
0
 10
-4.6617375142000004
 20
38.76510074010001
 30
0.0
 11
-4.6617375142000004
 21
42.145100740099998
 31
0.0
  0
LINE
  5
12D5
  8
0
 10
-4.6617375142000004
 20
42.145100740099998
 30
0.0
 11
-4.6317375142000001
 21
42.175100740099992
 31
0.0
  0
LINE
  5
12D6
  8
0
 10
-4.6317375142000001
 20
42.175100740099992
 30
0.0
 11
-4.5717375141999996
 21
42.175100740099992
 31
0.0
  0
LINE
  5
12D7
  8
0
 10
-4.5717375141999996
 20
42.175100740099992
 30
0.0
 11
-4.5417375142000003
 21
42.145100740099998
 31
0.0
  0
LINE
  5
12D8
  8
0
 10
-4.5417375142000003
 20
42.145100740099998
 30
0.0
 11
-4.5417375142000003
 21
38.76510074010001
 31
0.0
  0
LINE
  5
12D9
  8
0
 10
-4.5117375142
 20
39.350100740099997
 30
0.0
 11
-4.5417375142000003
 21
39.350100740099997
 31
0.0
  0
LINE
  5
12DA
  8
0
 10
-4.5117375142
 20
41.850100740099997
 30
0.0
 11
-4.5417375142000003
 21
41.850100740099997
 31
0.0
  0
LINE
  5
12DB
  8
0
 10
-4.4817375141999989
 20
41.975100740099997
 30
0.0
 11
-4.4817375141999989
 21
39.225100740099997
 31
0.0
  0
ARC
  5
12DC
  8
0
 10
-2.3659648373025961
 20
42.108689621400032
 30
0.0
 40
0.0150049128358318
 50
269.91340895977828
 51
356.52494877971338
  0
ARC
  5
12DD
  8
0
 10
-2.3659875141999991
 20
42.200119611799991
 30
0.0
 40
0.0149999999999993
 50
0.0000000000271619
 51
90.000000000001748
  0
ARC
  5
12DE
  8
0
 10
-3.3359875142000059
 20
42.200119611799998
 30
0.0
 40
0.0149999999999935
 50
89.999999999974534
 51
179.9999999999186
  0
ARC
  5
12DF
  8
0
 10
-3.3365134510373169
 20
42.108154063485571
 30
0.0
 40
0.0144788929793407
 50
181.4799510359131
 51
272.0816890603316
  0
ARC
  5
12E0
  8
0
 10
-3.3359906915528241
 20
41.943063543881983
 30
0.0
 40
0.0150256470179358
 50
183.54952638230461
 51
270.01211587813827
  0
ARC
  5
12E1
  8
0
 10
-2.3659843368471729
 20
41.943063543881983
 30
0.0
 40
0.0150256470179287
 50
269.9878841218532
 51
356.45047361777648
  0
ARC
  5
12F7
  8
0
 10
-2.7888424628141339
 20
42.01121471899981
 30
0.0
 40
0.0098271011800782
 50
325.72096765496002
 51
53.077642455473253
  0
ARC
  5
12F8
  8
0
 10
-2.8294008152493291
 20
41.955345503693053
 30
0.0
 40
0.0788646835299882
 50
53.9044735689858
 51
86.642035184669879
  0
ARC
  5
12F9
  8
0
 10
-2.8508988475824451
 20
41.820640110380872
 30
0.0
 40
0.2150266968765028
 50
83.023546116574465
 51
97.291065547381677
  0
ARC
  5
12FA
  8
0
 10
-2.8707623596942682
 20
41.943086861865552
 30
0.0
 40
0.0911442734161254
 50
94.673058902882005
 51
120.6782985292332
  0
ARC
  5
12FB
  8
0
 10
-2.9130927449145498
 20
42.01137312285374
 30
0.0
 40
0.0109299418453351
 50
112.4448782003096
 51
230.15745123949861
  0
ARC
  5
12FC
  8
0
 10
-2.8154777324310198
 20
42.03907496256619
 30
0.0
 40
0.0481993132891173
 50
282.98734733125161
 51
316.14352440543939
  0
ARC
  5
12FD
  8
0
 10
-2.851174870001838
 20
42.177662989283341
 30
0.0
 40
0.1912992478478616
 50
255.82981931055801
 51
284.07711320993582
  0
ARC
  5
12FE
  8
0
 10
-2.8889446338020721
 20
42.038719185268221
 30
0.0
 40
0.0474086756999808
 50
228.92338361915481
 51
258.9817439384538
  0
LINE
  5
1308
  8
0
 10
11.8840124858
 20
42.083887536699997
 30
0.0
 11
12.7665124858
 21
42.083887536699997
 31
0.0
  0
LINE
  5
1312
  8
0
 10
12.88401248579998
 20
41.991100740100002
 30
0.0
 11
12.7665124858
 21
41.991100740100002
 31
0.0
  0
LINE
  5
134B
  8
0
 10
12.8990124858
 20
42.215119611799999
 30
0.0
 11
13.869012485800001
 21
42.215119611799999
 31
0.0
  0
LINE
  5
134C
  8
0
 10
12.8840124858
 20
41.675600740099988
 30
0.0
 11
12.8840124858
 21
42.231119611699988
 31
0.0
  0
LINE
  5
134D
  8
0
 10
13.8840124858
 20
41.675600740100002
 30
0.0
 11
13.8840124858
 21
42.231119611700002
 31
0.0
  0
LINE
  5
134E
  8
0
 10
13.869012485800001
 20
41.660600740100001
 30
0.0
 11
12.8990124858
 21
41.660600740099987
 31
0.0
  0
LINE
  5
134F
  8
0
 10
12.8990124858
 20
41.928037897199999
 30
0.0
 11
13.869012485800001
 21
41.928037897199999
 31
0.0
  0
LINE
  5
1350
  8
0
 10
13.869012485800001
 20
42.093684725699987
 30
0.0
 11
12.89796061555041
 21
42.093684725700001
 31
0.0
  0
LINE
  5
1351
  8
0
 10
12.8990124858
 20
42.246119611699989
 30
0.0
 11
13.869012485800001
 21
42.246119611700003
 31
0.0
  0
ARC
  5
1352
  8
0
 10
12.8990124858
 20
41.675600740099988
 30
0.0
 40
0.015
 50
179.9999999996999
 51
270.0
  0
ARC
  5
1353
  8
0
 10
12.8990124858
 20
42.231119611699988
 30
0.0
 40
0.015
 50
90.0
 51
180.0
  0
ARC
  5
1354
  8
0
 10
13.869012485800001
 20
41.675600740100002
 30
0.0
 40
0.015
 50
270.0
 51
0.0
  0
ARC
  5
1355
  8
0
 10
13.869012485800001
 20
42.231119611700002
 30
0.0
 40
0.015
 50
0.0
 51
90.0
  0
ARC
  5
1356
  8
0
 10
13.869035162697401
 20
42.108689621400032
 30
0.0
 40
0.0150049128358318
 50
269.91340895977828
 51
356.52494877971338
  0
ARC
  5
1357
  8
0
 10
13.869012485800001
 20
42.200119611799991
 30
0.0
 40
0.0149999999999993
 50
0.0000000000272764
 51
90.000000000001833
  0
ARC
  5
1358
  8
0
 10
12.899012485799989
 20
42.200119611799998
 30
0.0
 40
0.0149999999999935
 50
89.999999999974534
 51
179.9999999999186
  0
ARC
  5
1359
  8
0
 10
12.89848654896268
 20
42.108154063485571
 30
0.0
 40
0.0144788929793407
 50
181.47995103591299
 51
272.0816890603316
  0
ARC
  5
135A
  8
0
 10
12.89900930844718
 20
41.943063543881983
 30
0.0
 40
0.0150256470179358
 50
183.54952638230461
 51
270.01211587813827
  0
ARC
  5
135B
  8
0
 10
13.869015663152821
 20
41.943063543881983
 30
0.0
 40
0.0150256470179287
 50
269.98788412185309
 51
356.45047361777648
  0
ARC
  5
135C
  8
0
 10
13.44615753718586
 20
42.01121471899981
 30
0.0
 40
0.0098271011800782
 50
325.72096765496002
 51
53.077642455473239
  0
ARC
  5
135D
  8
0
 10
13.40559918475067
 20
41.955345503693053
 30
0.0
 40
0.0788646835299882
 50
53.904473568985708
 51
86.642035184669879
  0
ARC
  5
135E
  8
0
 10
13.38410115241755
 20
41.820640110380872
 30
0.0
 40
0.2150266968765028
 50
83.023546116574451
 51
97.291065547381677
  0
ARC
  5
135F
  8
0
 10
13.364237640305729
 20
41.943086861865552
 30
0.0
 40
0.0911442734161254
 50
94.673058902882005
 51
120.6782985292331
  0
ARC
  5
1360
  8
0
 10
13.321907255085449
 20
42.01137312285374
 30
0.0
 40
0.0109299418453351
 50
112.4448782003096
 51
230.15745123949861
  0
ARC
  5
1361
  8
0
 10
13.419522267568979
 20
42.03907496256619
 30
0.0
 40
0.0481993132891173
 50
282.98734733125161
 51
316.14352440543939
  0
ARC
  5
1362
  8
0
 10
13.38382512999816
 20
42.177662989283341
 30
0.0
 40
0.1912992478478616
 50
255.82981931055781
 51
284.07711320993582
  0
ARC
  5
1363
  8
0
 10
13.34605536619793
 20
42.038719185268221
 30
0.0
 40
0.0474086756999808
 50
228.92338361915481
 51
258.9817439384538
  0
ARC
  5
1364
  8
0
 10
14.02868753485974
 20
42.058001132577957
 30
0.0
 40
0.0203251950146115
 50
0.2807900962835141
 51
165.4691772059013
  0
LINE
  5
1387
  8
0
 10
14.0760124858
 20
41.975100740099997
 30
0.0
 11
15.0447624858
 21
41.975100740099997
 31
0.0
  0
LINE
  5
1388
  8
0
 10
15.0447624858
 20
41.975100740099997
 30
0.0
 11
15.0447624858
 21
39.225100740100011
 31
0.0
  0
LINE
  5
1389
  8
0
 10
15.0447624858
 20
39.225100740100011
 30
0.0
 11
14.0880124858
 21
39.225100740100011
 31
0.0
  0
LINE
  5
138A
  8
0
 10
15.074762485799999
 20
38.76510074010001
 30
0.0
 11
15.1047624858
 21
38.735100740100002
 31
0.0
  0
LINE
  5
138B
  8
0
 10
15.1047624858
 20
38.735100740100002
 30
0.0
 11
15.164762485800001
 21
38.735100740100002
 31
0.0
  0
LINE
  5
138C
  8
0
 10
15.164762485800001
 20
38.735100740100002
 30
0.0
 11
15.1947624858
 21
38.76510074010001
 31
0.0
  0
LINE
  5
138D
  8
0
 10
15.1947624858
 20
38.76510074010001
 30
0.0
 11
15.1947624858
 21
42.145100740099998
 31
0.0
  0
LINE
  5
138E
  8
0
 10
15.1947624858
 20
42.145100740099998
 30
0.0
 11
15.164762485800001
 21
42.175100740099992
 31
0.0
  0
LINE
  5
138F
  8
0
 10
15.164762485800001
 20
42.175100740099992
 30
0.0
 11
15.1047624858
 21
42.175100740099992
 31
0.0
  0
LINE
  5
1390
  8
0
 10
15.1047624858
 20
42.175100740099992
 30
0.0
 11
15.074762485799999
 21
42.145100740099998
 31
0.0
  0
LINE
  5
1391
  8
0
 10
15.074762485799999
 20
42.145100740099998
 30
0.0
 11
15.074762485799999
 21
38.76510074010001
 31
0.0
  0
LINE
  5
1392
  8
0
 10
15.0447624858
 20
39.350100740099997
 30
0.0
 11
15.074762485799999
 21
39.350100740099997
 31
0.0
  0
LINE
  5
1393
  8
0
 10
15.0447624858
 20
41.850100740099997
 30
0.0
 11
15.074762485799999
 21
41.850100740099997
 31
0.0
  0
LINE
  5
1394
  8
0
 10
15.0147624858
 20
41.975100740099997
 30
0.0
 11
15.0147624858
 21
39.225100740099997
 31
0.0
  0
LINE
  5
1395
  8
0
 10
13.8840124858
 20
41.991100740100002
 30
0.0
 11
14.0090124858
 21
41.991100740100002
 31
0.0
  0
LINE
  5
1396
  8
0
 10
13.8840124858
 20
41.952600740100003
 30
0.0
 11
14.0090124858
 21
41.952600740100003
 31
0.0
  0
LINE
  5
1397
  8
0
 10
14.0760124858
 20
38.705100740100001
 30
0.0
 11
14.0090124858
 21
38.705100740100001
 31
0.0
  0
LINE
  5
1398
  8
0
 10
-3.4759875142000012
 20
38.705100740100001
 30
0.0
 11
-3.5429875141999991
 21
38.705100740100001
 31
0.0
  0
LINE
  5
1399
  8
0
 10
14.0760124858
 20
41.466255213300002
 30
0.0
 11
14.0090124858
 21
41.466255213300002
 31
0.0
  0
LINE
  5
139B
  8
0
 10
-3.4759875141999999
 20
41.466255213300002
 30
0.0
 11
-3.5429875142
 21
41.466255213300002
 31
0.0
  0
LINE
  5
1462
  8
0
 10
-1.350987514199999
 20
42.083887536699997
 30
0.0
 11
-2.2334875141999988
 21
42.08388753669999
 31
0.0
  0
ATTDEF
  5
1515
  8
DEFPOINTS
 10
5.2666884013185271
 20
42.251036420674552
 30
0.0
 40
0.001
  1
ALUMINUM
  3

  2
MATERIAL
 70
     0
1001
ACDBATTR
1070
     0
1070
     1
  0
ATTDEF
  5
1516
  8
DEFPOINTS
 10
5.2666884013185271
 20
42.25270308734121
 30
0.0
 40
0.001
  1
MEDICINE CABINET
  3

  2
PRODUCT
 70
     0
1001
ACDBATTR
1070
     0
1070
     1
  0
ATTDEF
  5
1517
  8
DEFPOINTS
 10
5.2666884013185271
 20
42.254369754007882
 30
0.0
 40
0.001
  1
VERDERA
  3

  2
TRADENAME
 70
     0
1001
ACDBATTR
1070
     0
1070
     1
  0
ATTDEF
  5
1518
  8
DEFPOINTS
 10
5.2666884013185271
 20
42.25603642067454
 30
0.0
 40
0.001
  1
K-99003
  3

  2
MODELNUMBER
 70
     0
1001
ACDBATTR
1070
     0
1070
     1
  0
ENDSEC
  0
EOF
