  0
SECTION
  2
HEADER
  9
$ACADVER
  1
AC1009
  9
$INSBASE
 10
34.445832169589274
 20
20.56165670477035
 30
0.0
  9
$EXTMIN
 10
33.512009945351977
 20
15.953751715992009
 30
0.0
  9
$EXTMAX
 10
35.379654393828318
 20
21.958120985687739
 30
0.0
  9
$LIMMIN
 10
0.0
 20
0.0
  9
$LIMMAX
 10
11.692913385800001
 20
8.2677165353999982
  9
$ORTHOMODE
 70
     0
  9
$REGENMODE
 70
     1
  9
$FILLMODE
 70
     1
  9
$QTEXTMODE
 70
     0
  9
$MIRRTEXT
 70
     0
  9
$DRAGMODE
 70
     2
  9
$LTSCALE
 40
0.6431102362
  9
$OSMODE
 70
  3071
  9
$ATTMODE
 70
     1
  9
$TEXTSIZE
 40
0.2
  9
$TRACEWID
 40
0.05
  9
$TEXTSTYLE
  7
STANDARD
  9
$CLAYER
  8
0
  9
$CELTYPE
  6
BYLAYER
  9
$CECOLOR
 62
   256
  9
$DIMSCALE
 40
1.0
  9
$DIMASZ
 40
0.1875
  9
$DIMEXO
 40
0.0625
  9
$DIMDLI
 40
0.4443307087
  9
$DIMRND
 40
0.0
  9
$DIMDLE
 40
0.0
  9
$DIMEXE
 40
0.125
  9
$DIMTP
 40
0.01
  9
$DIMTM
 40
0.01
  9
$DIMTXT
 40
0.5
  9
$DIMCEN
 40
0.1052362205
  9
$DIMTSZ
 40
0.0
  9
$DIMTOL
 70
     1
  9
$DIMLIM
 70
     0
  9
$DIMTIH
 70
     1
  9
$DIMTOH
 70
     1
  9
$DIMSE1
 70
     0
  9
$DIMSE2
 70
     0
  9
$DIMTAD
 70
     0
  9
$DIMZIN
 70
     0
  9
$DIMBLK
  1

  9
$DIMASO
 70
     1
  9
$DIMSHO
 70
     1
  9
$DIMPOST
  1
\X
  9
$DIMAPOST
  1

  9
$DIMALT
 70
     1
  9
$DIMALTD
 70
     2
  9
$DIMALTF
 40
25.399999999999999
  9
$DIMLFAC
 40
1.0
  9
$DIMTOFL
 70
     0
  9
$DIMTVP
 40
0.0
  9
$DIMTIX
 70
     0
  9
$DIMSOXD
 70
     0
  9
$DIMSAH
 70
     0
  9
$DIMBLK1
  1

  9
$DIMBLK2
  1

  9
$DIMSTYLE
  2
STANDARD
  9
$DIMCLRD
 70
     0
  9
$DIMCLRE
 70
     0
  9
$DIMCLRT
 70
     0
  9
$DIMTFAC
 40
1.0
  9
$DIMGAP
 40
0.09
  9
$LUNITS
 70
     2
  9
$LUPREC
 70
     4
  9
$SKETCHINC
 40
0.1
  9
$FILLETRAD
 40
0.0
  9
$AUNITS
 70
     0
  9
$AUPREC
 70
     0
  9
$MENU
  1
.
  9
$ELEVATION
 40
0.0
  9
$PELEVATION
 40
0.0
  9
$THICKNESS
 40
0.0
  9
$LIMCHECK
 70
     0
  9
$BLIPMODE
 70
     0
  9
$CHAMFERA
 40
0.0
  9
$CHAMFERB
 40
0.0
  9
$SKPOLY
 70
     0
  9
$TDCREATE
 40
2458092.4751137621
  9
$TDUPDATE
 40
2458092.7135290862
  9
$TDINDWG
 40
0.1616965625
  9
$TDUSRTIMER
 40
0.1616965625
  9
$USRTIMER
 70
     1
  9
$ANGBASE
 50
0.0
  9
$ANGDIR
 70
     0
  9
$PDMODE
 70
     0
  9
$PDSIZE
 40
0.3125
  9
$PLINEWID
 40
0.0
  9
$COORDS
 70
     1
  9
$SPLFRAME
 70
     0
  9
$SPLINETYPE
 70
     6
  9
$SPLINESEGS
 70
     8
  9
$ATTDIA
 70
     1
  9
$ATTREQ
 70
     1
  9
$HANDLING
 70
     1
  9
$HANDSEED
  5
1C8E
  9
$SURFTAB1
 70
     6
  9
$SURFTAB2
 70
     6
  9
$SURFTYPE
 70
     6
  9
$SURFU
 70
     6
  9
$SURFV
 70
     6
  9
$UCSNAME
  2

  9
$UCSORG
 10
0.0
 20
0.0
 30
0.0
  9
$UCSXDIR
 10
1.0
 20
0.0
 30
0.0
  9
$UCSYDIR
 10
0.0
 20
1.0
 30
0.0
  9
$PUCSNAME
  2

  9
$PUCSORG
 10
0.0
 20
0.0
 30
0.0
  9
$PUCSXDIR
 10
1.0
 20
0.0
 30
0.0
  9
$PUCSYDIR
 10
0.0
 20
1.0
 30
0.0
  9
$USERI1
 70
     0
  9
$USERI2
 70
     0
  9
$USERI3
 70
     0
  9
$USERI4
 70
     0
  9
$USERI5
 70
     0
  9
$USERR1
 40
0.0
  9
$USERR2
 40
0.0
  9
$USERR3
 40
0.0
  9
$USERR4
 40
0.0
  9
$USERR5
 40
0.0
  9
$WORLDVIEW
 70
     1
  9
$SHADEDGE
 70
     3
  9
$SHADEDIF
 70
    70
  9
$TILEMODE
 70
     1
  9
$MAXACTVP
 70
    64
  9
$PLIMCHECK
 70
     0
  9
$PEXTMIN
 10
1.0000000000000000E+020
 20
1.0000000000000000E+020
 30
1.0000000000000000E+020
  9
$PEXTMAX
 10
-1.0000000000000000E+020
 20
-1.0000000000000000E+020
 30
-1.0000000000000000E+020
  9
$PLIMMIN
 10
0.0
 20
0.0
  9
$PLIMMAX
 10
12.0
 20
9.0
  9
$UNITMODE
 70
     0
  9
$VISRETAIN
 70
     1
  9
$PLINEGEN
 70
     0
  9
$PSLTSCALE
 70
     1
  0
ENDSEC
  0
SECTION
  2
TABLES
  0
TABLE
  2
VPORT
 70
     1
  0
VPORT
  2
*ACTIVE
 70
     0
 10
0.0
 20
0.0
 11
1.0
 21
1.0
 12
0.0
 22
0.0
 13
0.0
 23
0.0
 14
1.0
 24
1.0
 15
0.0
 25
0.0
 16
-0.0000000000000071
 26
0.0
 36
17.67959495254896
 17
34.445832169590147
 27
18.95607480389496
 37
0.0
 40
6.2872287341118778
 41
2.0983240223463682
 42
50.0
 43
0.0
 44
0.0
 50
0.0
 51
0.0
 71
     0
 72
   100
 73
     1
 74
     1
 75
     0
 76
     0
 77
     0
 78
     0
  0
ENDTAB
  0
TABLE
  2
LTYPE
 70
     2
  0
LTYPE
  2
CONTINUOUS
 70
     0
  3
Solid line
 72
    65
 73
     0
 40
0.0
  0
LTYPE
  2
PHANTOM2
 70
     0
  3
___ _ _ ___ _ _ ___ _ _ ___ _ _
 72
    65
 73
     6
 40
1.25
 49
0.625
 49
-0.125
 49
0.125
 49
-0.125
 49
0.125
 49
-0.125
  0
ENDTAB
  0
TABLE
  2
LAYER
 70
     2
  0
LAYER
  2
0
 70
     0
 62
   255
  6
CONTINUOUS
  0
LAYER
  2
DEFPOINTS
 70
     0
 62
     7
  6
CONTINUOUS
  0
ENDTAB
  0
TABLE
  2
STYLE
 70
     1
  0
STYLE
  2
STANDARD
 70
     0
 40
0.0
 41
0.8
 50
0.0
 71
     0
 42
0.2
  3
txt
  4

  0
ENDTAB
  0
TABLE
  2
VIEW
 70
     0
  0
ENDTAB
  0
TABLE
  2
UCS
 70
     0
  0
ENDTAB
  0
TABLE
  2
APPID
 70
     9
  0
APPID
  2
ACAD
 70
     0
  0
APPID
  2
ACAD_MLEADERVER
 70
     0
  0
APPID
  2
ACAD_EXEMPT_FROM_CAD_STANDARDS
 70
     0
  0
APPID
  2
ACAD_NAV_VCDISPLAY
 70
     0
  0
APPID
  2
ACAD_DSTYLE_DIMJAG
 70
     0
  0
APPID
  2
ACAD_DSTYLE_DIMTALN
 70
     0
  0
APPID
  2
ACAECLAYERSTANDARD
 70
     0
  0
APPID
  2
ACCMTRANSPARENCY
 70
     0
  0
APPID
  2
ACDBATTR
 70
     0
  0
ENDTAB
  0
TABLE
  2
DIMSTYLE
 70
     1
  0
DIMSTYLE
  2
STANDARD
 70
     0
  3

  4

  5

  6

  7

 40
1.0
 41
0.1875
 42
0.0625
 43
0.38
 44
0.125
 45
0.0
 46
0.0
 47
0.01
 48
0.01
140
0.15625
141
0.09
142
0.0
143
25.399999999999999
144
1.0
145
0.0
146
1.0
147
0.09
 71
     1
 72
     0
 73
     1
 74
     1
 75
     0
 76
     0
 77
     0
 78
     4
170
     0
171
     2
172
     0
173
     0
174
     0
175
     0
176
     0
177
     0
178
     0
  0
ENDTAB
  0
ENDSEC
  0
SECTION
  2
BLOCKS
  0
BLOCK
  8
0
  2
$MODEL_SPACE
 70
     0
 10
0.0
 20
0.0
 30
0.0
  3
$MODEL_SPACE
  1

  0
ENDBLK
  5
21
  8
0
  0
BLOCK
 67
     1
  8
0
  2
$PAPER_SPACE
 70
     0
 10
0.0
 20
0.0
 30
0.0
  3
$PAPER_SPACE
  1

  0
ENDBLK
  5
1D
 67
     1
  8
0
  0
ENDSEC
  0
SECTION
  2
ENTITIES
  0
ARC
  5
1652
  8
0
 10
34.445832576829282
 20
20.561664627612089
 30
0.0
 40
0.9258920771582578
 50
9.3959233581536203
 51
170.6040766418466
  0
ARC
  5
1653
  8
0
 10
34.445832155314633
 20
16.878740386179309
 30
0.0
 40
0.924988670187297
 50
205.54287070109501
 51
334.45712888033131
  0
ARC
  5
1654
  8
0
 10
36.66448608459261
 20
17.016022919920189
 30
0.0
 40
3.1445074900893761
 50
179.72842959938649
 51
183.89661578991709
  0
ARC
  5
1655
  8
0
 10
34.407597096387143
 20
16.859523573937238
 30
0.0
 40
0.8822049796851299
 50
183.7168705737981
 51
205.48752460618661
  0
LINE
  5
1656
  8
0
 10
33.520013916189271
 20
17.030927193299998
 30
0.0
 11
33.520431451489273
 21
19.493662716700001
 31
0.0
  0
ARC
  5
1657
  8
0
 10
4.506537414280591
 20
19.563409534734902
 30
0.0
 40
29.013977869657911
 50
359.86226631264861
 51
1.3873639516754139
  0
ARC
  5
1658
  8
0
 10
42.508639364232899
 20
20.080129035126362
 30
0.0
 40
8.9985469410008108
 50
175.96817544617281
 51
178.81715090855769
  0
ARC
  5
1659
  8
0
 10
32.22717906906594
 20
17.016022919920189
 30
0.0
 40
3.1445074900893761
 50
356.10338421008282
 51
0.2715704006134969
  0
ARC
  5
165A
  8
0
 10
34.484089027659692
 20
16.859520192672878
 30
0.0
 40
0.8821838342144994
 50
334.51206339625571
 51
356.28326027774318
  0
LINE
  5
165B
  8
0
 10
35.37165123746928
 20
17.030927193299998
 30
0.0
 11
35.371233702169278
 21
19.493662716700001
 31
0.0
  0
ARC
  5
165C
  8
0
 10
64.389725385726393
 20
19.56338999244764
 30
0.0
 40
29.018575455760349
 50
178.61281730301889
 51
180.13767327992289
  0
ARC
  5
165D
  8
0
 10
26.384340872970292
 20
20.080205314221882
 30
0.0
 40
8.9972297488793593
 50
1.1825364240120759
 51
4.0319288256318844
  0
ARC
  5
165E
  8
0
 10
34.445853027414962
 20
20.562479145281021
 30
0.0
 40
0.8081022727260783
 50
10.709644335081
 51
169.28946289192399
  0
ARC
  5
165F
  8
0
 10
34.94902937038195
 20
20.485509431357318
 30
0.0
 40
1.3169386656966371
 50
170.067613630907
 51
179.9578886457623
  0
ARC
  5
1660
  8
0
 10
-32.191643741724292
 20
18.068913759824198
 30
0.0
 40
65.868115784849422
 50
0.143218842563498
 51
2.103404775409234
  0
ARC
  5
1661
  8
0
 10
34.57007352187015
 20
18.173840824573869
 30
0.0
 40
0.8958000980172268
 50
176.17748745747781
 51
203.887633811771
  0
ARC
  5
1662
  8
0
 10
33.938289414082227
 20
20.485318185244431
 30
0.0
 40
1.321293465478433
 50
0.0502656457773711
 51
9.9071942640180133
  0
ARC
  5
1663
  8
0
 10
101.0833171732028
 20
18.068913759824198
 30
0.0
 40
65.868115784849422
 50
177.89659522459081
 51
179.8567811574365
  0
ARC
  5
1664
  8
0
 10
34.321608363199481
 20
18.17384036600048
 30
0.0
 40
0.8957916938042206
 50
336.11217503714181
 51
3.8225778544259299
  0
ARC
  5
1665
  8
0
 10
34.445836443914267
 20
18.147582537901371
 30
0.0
 40
0.7720199609432618
 50
205.83988079792829
 51
334.16013669247661
  0
ATTDEF
  5
1997
  8
DEFPOINTS
 10
34.443074349032713
 20
20.562465069600989
 30
0.0
 40
0.001
  1
METAL
  3

  2
MATERIAL
 70
     0
1001
ACDBATTR
1070
     0
1070
     1
  0
ATTDEF
  5
1998
  8
DEFPOINTS
 10
34.443074349032713
 20
20.564131736267651
 30
0.0
 40
0.001
  1
BATHROOM SINK FAUCET
  3

  2
PRODUCT
 70
     0
1001
ACDBATTR
1070
     0
1070
     1
  0
ATTDEF
  5
1999
  8
DEFPOINTS
 10
34.443074349032713
 20
20.56579840293432
 30
0.0
 40
0.001
  1
KUMIN
  3

  2
TRADENAME
 70
     0
1001
ACDBATTR
1070
     0
1070
     1
  0
ATTDEF
  5
199A
  8
DEFPOINTS
 10
34.443074349032713
 20
20.567465069600981
 30
0.0
 40
0.001
  1
K-98827-4
  3

  2
MODELNUMBER
 70
     0
1001
ACDBATTR
1070
     0
1070
     1
  0
ARC
  5
1A76
  8
0
 10
32.028552950730557
 20
22.718918485143341
 30
0.0
 40
3.102619143498643
 50
334.858591620227
 51
337.77038524337291
  0
LINE
  5
1A77
  8
0
 10
34.900570437329279
 20
21.545137795970351
 30
0.0
 11
35.06480882532928
 21
21.946114433970362
 31
0.0
  0
ARC
  5
1A78
  8
0
 10
32.194779234508303
 20
22.647933861959341
 30
0.0
 40
3.0793712751599349
 50
334.49664860657867
 51
337.8206143686798
  0
LINE
  5
1A79
  8
0
 10
35.046296951729282
 20
21.485447664770341
 30
0.0
 11
35.210535339729283
 21
21.886424302770351
 31
0.0
  0
ARC
  5
1A7A
  8
0
 10
35.076693779116169
 20
21.940145334749928
 30
0.0
 40
0.013299709471249
 50
104.4944693242406
 51
153.332366691814
  0
ARC
  5
1A7B
  8
0
 10
43.505772318605658
 20
-2.5409149748442021
 30
0.0
 40
25.904795467554681
 50
108.9643792856544
 51
108.9967972216017
  0
ARC
  5
1A7C
  8
0
 10
35.09690977291045
 20
21.816747847777421
 30
0.0
 40
0.1413731379103166
 50
41.523570897723957
 51
93.928105135521037
  0
ARC
  5
1A7D
  8
0
 10
-0.0162653474253887
 20
4.3666788914509409
 30
0.0
 40
39.346712997539221
 50
26.45811195617598
 51
26.479454224883931
  0
ARC
  5
1A7E
  8
0
 10
35.197873045872562
 20
21.89050936420821
 30
0.0
 40
0.0133049393887581
 50
342.11945590111623
 51
30.930241954001179
  0
ARC
  5
1A7F
  8
0
 10
35.091306013256997
 20
21.865108502085992
 30
0.0
 40
0.0897252229131419
 50
73.194033534820932
 51
101.5343051359373
  0
ARC
  5
1A80
  8
0
 10
35.070323132583709
 20
21.753810475971651
 30
0.0
 40
0.2026975165714822
 50
51.223789280944267
 51
76.614370596080434
  0
ARC
  5
1A81
  8
0
 10
35.16527733485222
 20
21.873064294494021
 30
0.0
 40
0.0502638718513166
 50
28.889696190698761
 51
50.471217094499139
  0
ENDSEC
  0
EOF
