  0
SECTION
  2
HEADER
  9
$ACADVER
  1
AC1009
  9
$INSBASE
 10
100.2452856117073
 20
18.642459822135859
 30
0.0
  9
$EXTMIN
 10
89.745035350291346
 20
18.259596887235858
 30
0.0
  9
$EXTMAX
 10
110.7455356117073
 20
21.87205982213586
 30
0.0
  9
$LIMMIN
 10
0.0
 20
0.0
  9
$LIMMAX
 10
22.0
 20
17.0
  9
$ORTHOMODE
 70
     0
  9
$REGENMODE
 70
     1
  9
$FILLMODE
 70
     1
  9
$QTEXTMODE
 70
     0
  9
$MIRRTEXT
 70
     0
  9
$DRAGMODE
 70
     2
  9
$LTSCALE
 40
1.2099999999999991
  9
$OSMODE
 70
  3071
  9
$ATTMODE
 70
     1
  9
$TEXTSIZE
 40
0.2
  9
$TRACEWID
 40
0.05
  9
$TEXTSTYLE
  7
STANDARD
  9
$CLAYER
  8
0
  9
$CELTYPE
  6
BYLAYER
  9
$CECOLOR
 62
   256
  9
$DIMSCALE
 40
1.0
  9
$DIMASZ
 40
0.1875
  9
$DIMEXO
 40
0.0625
  9
$DIMDLI
 40
0.8359999999999999
  9
$DIMRND
 40
0.0
  9
$DIMDLE
 40
0.0
  9
$DIMEXE
 40
0.125
  9
$DIMTP
 40
0.01
  9
$DIMTM
 40
0.01
  9
$DIMTXT
 40
0.15625
  9
$DIMCEN
 40
0.198
  9
$DIMTSZ
 40
0.0
  9
$DIMTOL
 70
     1
  9
$DIMLIM
 70
     0
  9
$DIMTIH
 70
     1
  9
$DIMTOH
 70
     1
  9
$DIMSE1
 70
     0
  9
$DIMSE2
 70
     0
  9
$DIMTAD
 70
     0
  9
$DIMZIN
 70
     0
  9
$DIMBLK
  1

  9
$DIMASO
 70
     1
  9
$DIMSHO
 70
     1
  9
$DIMPOST
  1

  9
$DIMAPOST
  1

  9
$DIMALT
 70
     0
  9
$DIMALTD
 70
     2
  9
$DIMALTF
 40
25.399999999999999
  9
$DIMLFAC
 40
1.0
  9
$DIMTOFL
 70
     0
  9
$DIMTVP
 40
0.0
  9
$DIMTIX
 70
     0
  9
$DIMSOXD
 70
     0
  9
$DIMSAH
 70
     0
  9
$DIMBLK1
  1

  9
$DIMBLK2
  1

  9
$DIMSTYLE
  2
STANDARD
  9
$DIMCLRD
 70
     0
  9
$DIMCLRE
 70
     0
  9
$DIMCLRT
 70
     0
  9
$DIMTFAC
 40
1.0
  9
$DIMGAP
 40
0.09
  9
$LUNITS
 70
     2
  9
$LUPREC
 70
     4
  9
$SKETCHINC
 40
0.1
  9
$FILLETRAD
 40
0.0
  9
$AUNITS
 70
     0
  9
$AUPREC
 70
     0
  9
$MENU
  1
.
  9
$ELEVATION
 40
0.0
  9
$PELEVATION
 40
0.0
  9
$THICKNESS
 40
0.0
  9
$LIMCHECK
 70
     0
  9
$BLIPMODE
 70
     0
  9
$CHAMFERA
 40
0.0
  9
$CHAMFERB
 40
0.0
  9
$SKPOLY
 70
     0
  9
$TDCREATE
 40
2457486.4563713889
  9
$TDUPDATE
 40
2458219.6396042709
  9
$TDINDWG
 40
0.0845351736
  9
$TDUSRTIMER
 40
0.0845351736
  9
$USRTIMER
 70
     1
  9
$ANGBASE
 50
0.0
  9
$ANGDIR
 70
     0
  9
$PDMODE
 70
     0
  9
$PDSIZE
 40
0.3125
  9
$PLINEWID
 40
0.0
  9
$COORDS
 70
     1
  9
$SPLFRAME
 70
     0
  9
$SPLINETYPE
 70
     6
  9
$SPLINESEGS
 70
     8
  9
$ATTDIA
 70
     1
  9
$ATTREQ
 70
     1
  9
$HANDLING
 70
     1
  9
$HANDSEED
  5
1DE5
  9
$SURFTAB1
 70
     6
  9
$SURFTAB2
 70
     6
  9
$SURFTYPE
 70
     6
  9
$SURFU
 70
     6
  9
$SURFV
 70
     6
  9
$UCSNAME
  2

  9
$UCSORG
 10
0.0
 20
0.0
 30
0.0
  9
$UCSXDIR
 10
1.0
 20
0.0
 30
0.0
  9
$UCSYDIR
 10
0.0
 20
1.0
 30
0.0
  9
$PUCSNAME
  2

  9
$PUCSORG
 10
0.0
 20
0.0
 30
0.0
  9
$PUCSXDIR
 10
1.0
 20
0.0
 30
0.0
  9
$PUCSYDIR
 10
0.0
 20
1.0
 30
0.0
  9
$USERI1
 70
     0
  9
$USERI2
 70
     0
  9
$USERI3
 70
     0
  9
$USERI4
 70
     0
  9
$USERI5
 70
     0
  9
$USERR1
 40
0.0
  9
$USERR2
 40
0.0
  9
$USERR3
 40
0.0
  9
$USERR4
 40
0.0
  9
$USERR5
 40
0.0
  9
$WORLDVIEW
 70
     1
  9
$SHADEDGE
 70
     3
  9
$SHADEDIF
 70
    70
  9
$TILEMODE
 70
     1
  9
$MAXACTVP
 70
    64
  9
$PLIMCHECK
 70
     0
  9
$PEXTMIN
 10
1.0000000000000000E+020
 20
1.0000000000000000E+020
 30
1.0000000000000000E+020
  9
$PEXTMAX
 10
-1.0000000000000000E+020
 20
-1.0000000000000000E+020
 30
-1.0000000000000000E+020
  9
$PLIMMIN
 10
0.0
 20
0.0
  9
$PLIMMAX
 10
12.0
 20
9.0
  9
$UNITMODE
 70
     0
  9
$VISRETAIN
 70
     1
  9
$PLINEGEN
 70
     0
  9
$PSLTSCALE
 70
     1
  0
ENDSEC
  0
SECTION
  2
TABLES
  0
TABLE
  2
VPORT
 70
     1
  0
VPORT
  2
*ACTIVE
 70
     0
 10
0.0
 20
0.0
 11
1.0
 21
1.0
 12
0.0
 22
0.0
 13
0.0
 23
0.0
 14
1.0
 24
1.0
 15
0.0
 25
0.0
 16
-0.0000000000000142
 26
0.0
 36
59.920424306263428
 17
100.2452856117073
 27
20.065828354685859
 37
0.0
 40
21.338089553278021
 41
2.0983240223463682
 42
50.0
 43
0.0
 44
0.0
 50
0.0
 51
0.0
 71
     0
 72
   100
 73
     1
 74
     1
 75
     0
 76
     0
 77
     0
 78
     0
  0
ENDTAB
  0
TABLE
  2
LTYPE
 70
     1
  0
LTYPE
  2
CONTINUOUS
 70
     0
  3
Solid line
 72
    65
 73
     0
 40
0.0
  0
ENDTAB
  0
TABLE
  2
LAYER
 70
     2
  0
LAYER
  2
0
 70
     0
 62
     7
  6
CONTINUOUS
  0
LAYER
  2
DEFPOINTS
 70
     0
 62
     7
  6
CONTINUOUS
  0
ENDTAB
  0
TABLE
  2
STYLE
 70
     1
  0
STYLE
  2
STANDARD
 70
     0
 40
0.0
 41
0.8
 50
0.0
 71
     0
 42
0.2
  3
txt
  4

  0
ENDTAB
  0
TABLE
  2
VIEW
 70
     0
  0
ENDTAB
  0
TABLE
  2
UCS
 70
     0
  0
ENDTAB
  0
TABLE
  2
APPID
 70
     5
  0
APPID
  2
ACAD
 70
     0
  0
APPID
  2
ACAD_MLEADERVER
 70
     0
  0
APPID
  2
ACAD_NAV_VCDISPLAY
 70
     0
  0
APPID
  2
ACAD_EXEMPT_FROM_CAD_STANDARDS
 70
     0
  0
APPID
  2
ACDBATTR
 70
     0
  0
ENDTAB
  0
TABLE
  2
DIMSTYLE
 70
     1
  0
DIMSTYLE
  2
STANDARD
 70
     0
  3

  4

  5

  6

  7

 40
1.0
 41
0.1875
 42
0.0625
 43
0.38
 44
0.125
 45
0.0
 46
0.0
 47
0.01
 48
0.01
140
0.15625
141
0.09
142
0.0
143
25.399999999999999
144
1.0
145
0.0
146
1.0
147
0.09
 71
     1
 72
     0
 73
     1
 74
     1
 75
     0
 76
     0
 77
     0
 78
     4
170
     0
171
     2
172
     0
173
     0
174
     0
175
     0
176
     0
177
     0
178
     0
  0
ENDTAB
  0
ENDSEC
  0
SECTION
  2
BLOCKS
  0
BLOCK
  8
0
  2
$MODEL_SPACE
 70
     0
 10
0.0
 20
0.0
 30
0.0
  3
$MODEL_SPACE
  1

  0
ENDBLK
  5
21
  8
0
  0
BLOCK
 67
     1
  8
0
  2
$PAPER_SPACE
 70
     0
 10
0.0
 20
0.0
 30
0.0
  3
$PAPER_SPACE
  1

  0
ENDBLK
  5
1D
 67
     1
  8
0
  0
ENDSEC
  0
SECTION
  2
ENTITIES
  0
ATTDEF
  5
C60
  8
DEFPOINTS
 10
100.2421474772017
 20
18.650324946542838
 30
0.0
 40
0.001
  1
PREMIUM MATERIALS
  3

  2
MATERIAL
 70
     0
1001
ACDBATTR
1070
     0
1070
     1
  0
ATTDEF
  5
C61
  8
DEFPOINTS
 10
100.2421474772017
 20
18.6519916132095
 30
0.0
 40
0.001
  1
SHOWER PANEL
  3

  2
PRODUCT
 70
     0
1001
ACDBATTR
1070
     0
1070
     1
  0
ATTDEF
  5
C62
  8
DEFPOINTS
 10
100.2421474772017
 20
18.653658279876169
 30
0.0
 40
0.001
  1
WATERTILE
  3

  2
TRADENAME
 70
     0
1001
ACDBATTR
1070
     0
1070
     1
  0
ATTDEF
  5
C63
  8
DEFPOINTS
 10
100.2421474772017
 20
18.655324946542841
 30
0.0
 40
0.001
  1
K-98741-K1
  3

  2
MODELNUMBER
 70
     0
1001
ACDBATTR
1070
     0
1070
     1
  0
LINE
  5
1ABD
  8
0
 10
93.385487113195367
 20
18.324259822135851
 30
0.0
 11
93.385487113195367
 21
18.346969822135861
 31
0.0
  0
LINE
  5
1ABE
  8
0
 10
89.74503561170728
 20
18.48045982213586
 30
0.0
 11
89.74503561170728
 21
18.642459822135859
 31
0.0
  0
LINE
  5
1ABF
  8
0
 10
90.661920613195363
 20
18.392459822135859
 30
0.0
 11
90.707410613195364
 21
18.346969822135861
 31
0.0
  0
LINE
  5
1AC0
  8
0
 10
97.510487113195367
 20
18.346969822135861
 30
0.0
 11
97.510487113195367
 21
18.324259822135851
 31
0.0
  0
LINE
  5
1AC1
  8
0
 10
98.182410613195358
 20
18.324259822135851
 30
0.0
 11
98.182410613195358
 21
18.346969822135861
 31
0.0
  0
LINE
  5
1AC2
  8
0
 10
104.1896810698953
 20
18.272830226235861
 30
0.0
 11
104.1997279655953
 21
18.308259822135859
 31
0.0
  0
LINE
  5
1AC3
  8
0
 10
93.851987048595362
 20
18.308259822135859
 30
0.0
 11
97.043987177795358
 21
18.308259822135859
 31
0.0
  0
LINE
  5
1AC4
  8
0
 10
105.09915505569531
 20
18.280826238635861
 30
0.0
 11
105.1040213230953
 21
18.308259822135859
 31
0.0
  0
LINE
  5
1AC5
  8
0
 10
103.4458340485953
 20
18.308259822135859
 30
0.0
 11
106.6378341777953
 21
18.308259822135859
 31
0.0
  0
LINE
  5
1AC6
  8
0
 10
98.648910548595367
 20
18.308259822135859
 30
0.0
 11
101.84091067779531
 21
18.308259822135859
 31
0.0
  0
LINE
  5
1AC7
  8
0
 10
93.385487113195367
 20
18.324259822135851
 30
0.0
 11
97.510487113195367
 21
18.324259822135851
 31
0.0
  0
LINE
  5
1AC8
  8
0
 10
98.182410613195358
 20
18.324259822135851
 30
0.0
 11
102.3074106131953
 21
18.324259822135851
 31
0.0
  0
LINE
  5
1AC9
  8
0
 10
109.7824106131954
 20
18.346969822135861
 30
0.0
 11
90.707410613195364
 21
18.346969822135861
 31
0.0
  0
LINE
  5
1ACA
  8
0
 10
102.97933411319531
 20
18.324259822135851
 30
0.0
 11
107.10433411319531
 21
18.324259822135851
 31
0.0
  0
LINE
  5
1ACB
  8
0
 10
104.98451317069529
 20
18.280826238635861
 30
0.0
 11
104.9796469032953
 21
18.308259822135859
 31
0.0
  0
LINE
  5
1ACC
  8
0
 10
110.6574106131953
 20
18.392459822135859
 30
0.0
 11
89.833410613195369
 21
18.392459822135859
 31
0.0
  0
LINE
  5
1ACD
  8
0
 10
89.74503561170728
 20
18.642459822135859
 30
0.0
 11
110.7455356117073
 21
18.642459822135859
 31
0.0
  0
LINE
  5
1ACE
  8
0
 10
102.3074106131953
 20
18.346969822135861
 30
0.0
 11
102.3074106131953
 21
18.324259822135851
 31
0.0
  0
LINE
  5
1ACF
  8
0
 10
107.10433411319531
 20
18.346969822135861
 30
0.0
 11
107.10433411319531
 21
18.324259822135851
 31
0.0
  0
LINE
  5
1AD0
  8
0
 10
102.97933411319531
 20
18.324259822135851
 30
0.0
 11
102.97933411319531
 21
18.346969822135861
 31
0.0
  0
LINE
  5
1AD1
  8
0
 10
110.7455356117073
 20
18.48045982213586
 30
0.0
 11
110.7455356117073
 21
18.642459822135859
 31
0.0
  0
LINE
  5
1AD2
  8
0
 10
109.7824106131954
 20
18.346969822135861
 30
0.0
 11
109.8279006131953
 21
18.392459822135859
 31
0.0
  0
ARC
  5
1AD3
  8
0
 10
93.851987048495346
 20
18.338259822135861
 30
0.0
 40
0.03
 50
207.87242323470011
 51
270.00000000039978
  0
ARC
  5
1AD4
  8
0
 10
97.043987177895374
 20
18.338259822135861
 30
0.0
 40
0.03
 50
269.99999999959942
 51
332.12757676099977
  0
ARC
  5
1AD5
  8
0
 10
104.1693360052255
 20
18.64642752539568
 30
0.0
 40
0.3868525965550725
 50
259.73997025852952
 51
269.38952592491592
  0
ARC
  5
1AD6
  8
0
 10
98.648910548495365
 20
18.338259822135861
 30
0.0
 40
0.03
 50
207.87242323470011
 51
270.00000000039978
  0
ARC
  5
1AD7
  8
0
 10
101.84091067789529
 20
18.338259822135861
 30
0.0
 40
0.03
 50
269.99999999959942
 51
332.12757676099977
  0
ARC
  5
1AD8
  8
0
 10
103.4458340484953
 20
18.338259822135861
 30
0.0
 40
0.03
 50
207.87242323470011
 51
270.00000000039978
  0
ARC
  5
1AD9
  8
0
 10
106.6378341778953
 20
18.338259822135861
 30
0.0
 40
0.03
 50
269.99999999959942
 51
332.12757676099977
  0
ARC
  5
1ADA
  8
0
 10
89.832823077863296
 20
18.48024558359225
 30
0.0
 40
0.0877877275719443
 50
179.86017434461959
 51
270.38346528707388
  0
ARC
  5
1ADB
  8
0
 10
104.17265532325639
 20
18.278116285198021
 30
0.0
 40
0.0178274658003308
 50
277.62847036811797
 51
342.75151644234199
  0
ARC
  5
1ADC
  8
0
 10
110.6573220741969
 20
18.480673574186611
 30
0.0
 40
0.0882137964834602
 50
270.05750701207961
 51
359.86116568077853
  0
ARC
  5
1ADD
  8
0
 10
104.1177783444255
 20
18.355981637151881
 30
0.0
 40
0.0918732795544045
 50
251.77811412419979
 51
259.11646073820259
  0
ARC
  5
1ADE
  8
0
 10
104.1610310768495
 20
18.364906966071999
 30
0.0
 40
0.1053931291113433
 50
272.27473362869512
 51
277.62847036811797
  0
ARC
  5
1ADF
  8
0
 10
104.09367965178539
 20
18.286274174921651
 30
0.0
 40
0.0181587673757371
 50
185.98602160902581
 51
255.2284020743754
  0
LINE
  5
1AE0
  8
0
 10
104.0756198974953
 20
18.28438047283586
 30
0.0
 11
104.0731919880143
 21
18.308259822135859
 31
0.0
  0
ARC
  5
1AE1
  8
0
 10
104.1135169414067
 20
18.086765585329029
 30
0.0
 40
0.1818953605879138
 50
80.090153668878585
 51
84.826355375564717
  0
ARC
  5
1AE2
  8
0
 10
104.11819101059891
 20
18.17526601636516
 30
0.0
 40
0.0933932235485928
 50
82.785792902428639
 51
94.082139668916355
  0
ARC
  5
1AE3
  8
0
 10
104.15058214924289
 20
18.261254379303661
 30
0.0
 40
0.0031889374880322
 50
51.092019958571029
 51
70.070881568093569
  0
ARC
  5
1AE4
  8
0
 10
104.14022338664429
 20
18.232683988577278
 30
0.0
 40
0.0335792515507788
 50
70.070881568104909
 51
82.130716142018287
  0
ARC
  5
1AE5
  8
0
 10
104.152204807692
 20
18.263620606037971
 30
0.0
 40
0.000547431724932
 50
277.65080154334049
 51
322.2694938157851
  0
ARC
  5
1AE6
  8
0
 10
104.15238159372331
 20
18.26348381984981
 30
0.0
 40
0.0003239059721565
 50
322.26949381571052
 51
51.092019958607253
  0
ARC
  5
1AE7
  8
0
 10
104.1480583867546
 20
18.417854769072012
 30
0.0
 40
0.1552940708908231
 50
264.50734990462212
 51
269.36551946597251
  0
ARC
  5
1AE8
  8
0
 10
104.1472725372959
 20
18.286630983146939
 30
0.0
 40
0.0240788771978488
 50
267.77744560678019
 51
281.99725781623903
  0
ARC
  5
1AE9
  8
0
 10
104.14436153935181
 20
18.40402651155874
 30
0.0
 40
0.141195112911992
 50
256.99685233885941
 51
265.46354431657619
  0
ARC
  5
1AEA
  8
0
 10
104.1146056460566
 20
18.27492937115861
 30
0.0
 40
0.0087132779329368
 50
239.2427320527739
 51
256.63805203709052
  0
ARC
  5
1AEB
  8
0
 10
104.1101065871415
 20
18.267782092417111
 30
0.0
 40
0.0001664385777089
 50
131.49552055159401
 51
193.0925989973563
  0
ARC
  5
1AEC
  8
0
 10
104.11044055904409
 20
18.267859764638811
 30
0.0
 40
0.0005093236980727
 50
193.0925989973048
 51
235.1693549253776
  0
ARC
  5
1AED
  8
0
 10
104.11254440134439
 20
18.261164523587169
 30
0.0
 40
0.0073265836512223
 50
97.858395093845786
 51
104.6736630050046
  0
ARC
  5
1AEE
  8
0
 10
104.1109879593813
 20
18.266785725368841
 30
0.0
 40
0.0014966882986155
 50
101.542485056027
 51
131.49552055158361
  0
ARC
  5
1AEF
  8
0
 10
105.0378386807628
 20
18.176655487322321
 30
0.0
 40
0.0933932235485928
 50
88.577351036288832
 51
99.873697802776974
  0
ARC
  5
1AF0
  8
0
 10
105.04211902295511
 20
18.088135140016679
 30
0.0
 40
0.1818953605879138
 50
85.881711802738025
 51
90.617913509425222
  0
ARC
  5
1AF1
  8
0
 10
105.0613874207347
 20
18.26547351065787
 30
0.0
 40
0.0031889374880322
 50
56.88357809243147
 51
75.86243970195369
  0
ARC
  5
1AF2
  8
0
 10
105.0539645634332
 20
18.236003655240609
 30
0.0
 40
0.0335792515507788
 50
75.862439701965442
 51
87.922274275878138
  0
ARC
  5
1AF3
  8
0
 10
105.0627630212074
 20
18.267991401191608
 30
0.0
 40
0.000547431724932
 50
283.44235967720073
 51
328.06105194964567
  0
ARC
  5
1AF4
  8
0
 10
105.0629527079048
 20
18.267873152644089
 30
0.0
 40
0.0003239059721565
 50
328.06105194957041
 51
56.883578092467452
  0
ARC
  5
1AF5
  8
0
 10
105.055533956627
 20
18.29038660985886
 30
0.0
 40
0.0240788771978488
 50
273.56900374064043
 51
287.78881595009869
  0
ARC
  5
1AF6
  8
0
 10
105.0430740403413
 20
18.42101987529319
 30
0.0
 40
0.1552940708908231
 50
270.29890803848212
 51
275.15707759983292
  0
ARC
  5
1AF7
  8
0
 10
105.02421461697141
 20
18.27544832113831
 30
0.0
 40
0.0087132779329368
 50
245.03429018663459
 51
262.42961017095081
  0
ARC
  5
1AF8
  8
0
 10
105.0407914686557
 20
18.40688915510373
 30
0.0
 40
0.141195112911992
 50
262.7884104727197
 51
271.25510245043648
  0
ARC
  5
1AF9
  8
0
 10
105.0204597529482
 20
18.267883526316389
 30
0.0
 40
0.0001664385777089
 50
137.28707868545371
 51
198.8841571312168
  0
ARC
  5
1AFA
  8
0
 10
105.020784182239
 20
18.267994503075538
 30
0.0
 40
0.0005093236980727
 50
198.8841571311651
 51
240.96091305923841
  0
ARC
  5
1AFB
  8
0
 10
105.0235529005066
 20
18.261545735416629
 30
0.0
 40
0.0073265836512223
 50
103.64995322770621
 51
110.4652211388653
  0
ARC
  5
1AFC
  8
0
 10
105.02143716941239
 20
18.266981184155409
 30
0.0
 40
0.0014966882986155
 50
107.3340431898871
 51
137.2870786854441
  0
ARC
  5
1AFD
  8
0
 10
104.5813449558995
 20
18.08789360116705
 30
0.0
 40
0.1818953605879138
 50
83.982010883789613
 51
88.718212590475375
  0
ARC
  5
1AFE
  8
0
 10
104.58000141231859
 20
18.17650718989384
 30
0.0
 40
0.0933932235485928
 50
86.677650117340193
 51
97.973996883827624
  0
ARC
  5
1AFF
  8
0
 10
104.5980858214967
 20
18.235288167019409
 30
0.0
 40
0.0335792515507788
 50
73.962738783016405
 51
86.022573356929215
  0
ARC
  5
1B00
  8
0
 10
104.606481523681
 20
18.264495758047509
 30
0.0
 40
0.0031889374880322
 50
54.983877173482249
 51
73.9627387830038
  0
ARC
  5
1B01
  8
0
 10
104.60793983608239
 20
18.266966663618469
 30
0.0
 40
0.000547431724932
 50
281.54265875825081
 51
326.16135103069581
  0
ARC
  5
1B02
  8
0
 10
104.60812549859109
 20
18.266842191954971
 30
0.0
 40
0.0003239059721565
 50
326.16135103062118
 51
54.983877173517392
  0
ARC
  5
1B03
  8
0
 10
104.59333456449239
 20
18.420563720540748
 30
0.0
 40
0.1552940708908231
 50
268.399207119533
 51
273.25737668088289
  0
ARC
  5
1B04
  8
0
 10
104.60145714497619
 20
18.28958920684374
 30
0.0
 40
0.0240788771978488
 50
271.66930282169091
 51
285.88911503114912
  0
ARC
  5
1B05
  8
0
 10
104.5905848145058
 20
18.406516433913652
 30
0.0
 40
0.141195112911992
 50
260.88870955377121
 51
269.35540153148651
  0
ARC
  5
1B06
  8
0
 10
104.5696598150812
 20
18.275697363268851
 30
0.0
 40
0.0087132779329368
 50
243.1345892676849
 51
260.52990925200072
  0
ARC
  5
1B07
  8
0
 10
104.5656562421169
 20
18.26826119973849
 30
0.0
 40
0.0001664385777089
 50
135.3873777665043
 51
196.98445621226691
  0
ARC
  5
1B08
  8
0
 10
104.5659841719731
 20
18.268361360685159
 30
0.0
 40
0.0005093236980727
 50
196.9844562122156
 51
239.06121214028869
  0
ARC
  5
1B09
  8
0
 10
104.5685375921242
 20
18.26182435443646
 30
0.0
 40
0.0073265836512223
 50
101.750252308757
 51
108.5655202199152
  0
ARC
  5
1B0A
  8
0
 10
104.56660320877459
 20
18.267326952196729
 30
0.0
 40
0.0014966882986155
 50
105.43434227093719
 51
135.38737776649469
  0
ARC
  5
1B0B
  8
0
 10
105.0019410200559
 20
18.284255981007451
 30
0.0
 40
0.0177621244807355
 50
191.13334498743421
 51
255.6338956553391
  0
ARC
  5
1B0C
  8
0
 10
105.02231847359729
 20
18.363816292161381
 30
0.0
 40
0.0998905831521615
 50
255.6338956553391
 51
267.26396699625082
  0
ARC
  5
1B0D
  8
0
 10
105.0667829966593
 20
18.331971138731149
 30
0.0
 40
0.0676150832985875
 50
273.71628934302578
 51
288.8135629824946
  0
ARC
  5
1B0E
  8
0
 10
105.04134136098961
 20
18.616890695181151
 30
0.0
 40
0.3536522698156036
 50
266.14264740197518
 51
274.8376089373005
  0
LINE
  5
1B0F
  8
0
 10
104.6441740428231
 20
18.276976478652688
 30
0.0
 11
104.651532694567
 21
18.308259822135859
 31
0.0
  0
ARC
  5
1B10
  8
0
 10
105.0834915895371
 20
18.282928027312249
 30
0.0
 40
0.0158038504083924
 50
288.8135629824929
 51
352.35746604997809
  0
ARC
  5
1B11
  8
0
 10
104.5472996659751
 20
18.28579049977569
 30
0.0
 40
0.0177621244807355
 50
187.95523308676641
 51
252.45578375467159
  0
LINE
  5
1B12
  8
0
 10
104.5297084751823
 20
18.283332233605972
 30
0.0
 11
104.5267004730739
 21
18.308259822135859
 31
0.0
  0
ARC
  5
1B13
  8
0
 10
104.6050807040526
 20
18.615729269212981
 30
0.0
 40
0.3536522698156036
 50
262.96453550130758
 51
271.65949703663199
  0
ARC
  5
1B14
  8
0
 10
104.57205660911509
 20
18.364098720864611
 30
0.0
 40
0.0998905831521615
 50
252.45578375467079
 51
264.08585509558287
  0
ARC
  5
1B15
  8
0
 10
104.61468724869771
 20
18.329837428173061
 30
0.0
 40
0.0676150832985875
 50
270.53817744235789
 51
285.6354510818266
  0
ARC
  5
1B16
  8
0
 10
104.6286511901482
 20
18.27994341858502
 30
0.0
 40
0.0158038504083924
 50
285.6354510818249
 51
349.17935414931031
  0
ARC
  5
1B17
  8
0
 10
104.54601518496069
 20
18.269127906931871
 30
0.0
 40
0.0005114336616835
 50
109.76729159672379
 51
216.1539399203578
  0
ARC
  5
1B18
  8
0
 10
104.55127821593931
 20
18.274937953624811
 30
0.0
 40
0.0083408926782711
 50
227.11724594617979
 51
256.45832203551743
  0
ARC
  5
1B19
  8
0
 10
104.57656255394259
 20
17.964372327746251
 30
0.0
 40
0.3077810336842018
 50
81.886921549174573
 51
94.587612171453941
  0
ARC
  5
1B1A
  8
0
 10
104.5524821372032
 20
18.256332484975339
 30
0.0
 40
0.0148445207013547
 50
92.072970667063515
 51
116.57043685393
  0
ARC
  5
1B1B
  8
0
 10
104.6143090369501
 20
18.23101422859126
 30
0.0
 40
0.0384816605729576
 50
70.413228752206308
 51
81.497222553270817
  0
ARC
  5
1B1C
  8
0
 10
104.6267091242411
 20
18.26507017399215
 30
0.0
 40
0.0022551588470103
 50
36.45214101772148
 51
77.183097735415686
  0
ARC
  5
1B1D
  8
0
 10
104.6260506384014
 20
18.26843582298547
 30
0.0
 40
0.0036686492025616
 50
284.28206830568661
 51
312.0997844625681
  0
ARC
  5
1B1E
  8
0
 10
104.6280630964182
 20
18.266070311558671
 30
0.0
 40
0.0005718538216664
 50
321.42833088820629
 51
36.452141017742093
  0
ARC
  5
1B1F
  8
0
 10
104.09733370446369
 20
18.276852140682529
 30
0.0
 40
0.0102003790952296
 50
224.50958177743931
 51
249.19698492964341
  0
ARC
  5
1B20
  8
0
 10
104.6053874988467
 20
18.325907623569499
 30
0.0
 40
0.0647262602576966
 50
280.51945802697759
 51
289.46442274680902
  0
ARC
  5
1B21
  8
0
 10
104.09049222961499
 20
18.269973942202022
 30
0.0
 40
0.0005114336616835
 50
105.8169868387341
 51
212.20363516236779
  0
ARC
  5
1B22
  8
0
 10
104.0960623253672
 20
18.256763403694318
 30
0.0
 40
0.0148445207013547
 50
88.122665909073334
 51
112.62013209593989
  0
ARC
  5
1B23
  8
0
 10
104.1559981299655
 20
18.227245968748239
 30
0.0
 40
0.0384816605729576
 50
66.46292399421587
 51
77.546917795281075
  0
ARC
  5
1B24
  8
0
 10
104.0999720414096
 20
17.963837962668709
 30
0.0
 40
0.3077810336842017
 50
77.936616791184903
 51
90.637307413463844
  0
ARC
  5
1B25
  8
0
 10
104.17213456837931
 20
18.261271230836719
 30
0.0
 40
0.0005718538216664
 50
317.47802613021639
 51
32.501836259751421
  0
ARC
  5
1B26
  8
0
 10
104.1707149123071
 20
18.260366746207168
 30
0.0
 40
0.0022551588470103
 50
32.501836259731128
 51
73.232792977425319
  0
ARC
  5
1B27
  8
0
 10
104.17028985456039
 20
18.263769762907
 30
0.0
 40
0.0036686492025616
 50
280.33176354769643
 51
308.1494797045774
  0
ARC
  5
1B28
  8
0
 10
104.153635109108
 20
18.32252852950861
 30
0.0
 40
0.0647262602576966
 50
284.59800239706601
 51
285.51411798881838
  0
ARC
  5
1B29
  8
0
 10
105.0008524565158
 20
18.267998371120662
 30
0.0
 40
0.0005114336616835
 50
111.8347617669634
 51
218.2214100905957
  0
ARC
  5
1B2A
  8
0
 10
105.00945794217979
 20
18.279370332936011
 30
0.0
 40
0.01475633763182
 50
232.38150690036591
 51
249.1233396151965
  0
ARC
  5
1B2B
  8
0
 10
105.0423744036013
 20
17.964543213466829
 30
0.0
 40
0.3077810336842018
 50
83.954391719413735
 51
96.655082341692918
  0
ARC
  5
1B2C
  8
0
 10
105.0077768108977
 20
18.25544458241977
 30
0.0
 40
0.0148445207013547
 50
94.140440837302506
 51
118.6379070241686
  0
ARC
  5
1B2D
  8
0
 10
105.0704768534479
 20
18.232373295007879
 30
0.0
 40
0.0384816605729576
 50
72.4806989224451
 51
83.564692723509467
  0
ARC
  5
1B2E
  8
0
 10
105.0816402551684
 20
18.266854420917578
 30
0.0
 40
0.0022551588470103
 50
38.519611187959441
 51
79.25056790565371
  0
ARC
  5
1B2F
  8
0
 10
105.0808607777096
 20
18.270194123245432
 30
0.0
 40
0.0036686492025616
 50
286.34953847592499
 51
314.16725463280619
  0
ARC
  5
1B30
  8
0
 10
105.08295726466569
 20
18.26790275378093
 30
0.0
 40
0.0005718538216664
 50
323.49580105844512
 51
38.519611187980381
  0
LINE
  5
1B31
  8
0
 10
105.8939871564953
 20
18.272830226235861
 30
0.0
 11
105.8839402607953
 21
18.308259822135859
 31
0.0
  0
ARC
  5
1B32
  8
0
 10
105.0581377173586
 20
18.326883061557151
 30
0.0
 40
0.0647262602576966
 50
287.95066651322031
 51
291.5318929170478
  0
ARC
  5
1B33
  8
0
 10
105.9143322211652
 20
18.64642752539568
 30
0.0
 40
0.3868525965550725
 50
270.61047407508408
 51
280.26002974146968
  0
ARC
  5
1B34
  8
0
 10
105.91101290313431
 20
18.278116285198021
 30
0.0
 40
0.0178274658003308
 50
197.24848355765781
 51
262.37152963188203
  0
ARC
  5
1B35
  8
0
 10
105.9658898819651
 20
18.355981637151881
 30
0.0
 40
0.0918732795544045
 50
280.88353926179661
 51
288.22188587579939
  0
ARC
  5
1B36
  8
0
 10
105.9226371495412
 20
18.364906966071999
 30
0.0
 40
0.1053931291113433
 50
262.37152963188203
 51
267.72526637130488
  0
LINE
  5
1B37
  8
0
 10
106.0080483288953
 20
18.28438047283586
 30
0.0
 11
106.0104762383763
 21
18.308259822135859
 31
0.0
  0
ARC
  5
1B38
  8
0
 10
105.98998857460531
 20
18.286274174921651
 30
0.0
 40
0.0181587673757371
 50
284.77159792562378
 51
354.01397839097388
  0
ARC
  5
1B39
  8
0
 10
105.96547721579179
 20
18.17526601636516
 30
0.0
 40
0.0933932235485928
 50
85.917860331082807
 51
97.214207097570551
  0
ARC
  5
1B3A
  8
0
 10
105.970151284984
 20
18.086765585329029
 30
0.0
 40
0.1818953605879138
 50
95.173644624435283
 51
99.909846331121415
  0
ARC
  5
1B3B
  8
0
 10
105.93308607714781
 20
18.261254379303661
 30
0.0
 40
0.0031889374880322
 50
109.9291184319064
 51
128.907980041429
  0
ARC
  5
1B3C
  8
0
 10
105.94344483974641
 20
18.232683988577278
 30
0.0
 40
0.0335792515507788
 50
97.869283857981728
 51
109.9291184318943
  0
ARC
  5
1B3D
  8
0
 10
105.9314634186987
 20
18.263620606037971
 30
0.0
 40
0.000547431724932
 50
217.73050618421499
 51
262.34919845665951
  0
ARC
  5
1B3E
  8
0
 10
105.93128663266729
 20
18.26348381984981
 30
0.0
 40
0.0003239059721565
 50
128.9079800413927
 51
217.73050618428951
  0
ARC
  5
1B3F
  8
0
 10
105.9356098396361
 20
18.417854769072012
 30
0.0
 40
0.1552940708908231
 50
270.63448053402749
 51
275.49265009537788
  0
ARC
  5
1B40
  8
0
 10
105.93639568909479
 20
18.286630983146939
 30
0.0
 40
0.0240788771978488
 50
258.00274218376097
 51
272.22255439321981
  0
ARC
  5
1B41
  8
0
 10
105.9690625803341
 20
18.27492937115861
 30
0.0
 40
0.0087132779329368
 50
283.36194796290948
 51
300.75726794722527
  0
ARC
  5
1B42
  8
0
 10
105.93930668703879
 20
18.40402651155874
 30
0.0
 40
0.141195112911992
 50
274.53645568342381
 51
283.00314766113991
  0
ARC
  5
1B43
  8
0
 10
105.97322766734651
 20
18.267859764638811
 30
0.0
 40
0.0005093236980727
 50
304.8306450746216
 51
346.907401002695
  0
ARC
  5
1B44
  8
0
 10
105.9735616392492
 20
18.267782092417111
 30
0.0
 40
0.0001664385777089
 50
346.90740100264372
 51
48.504479448405988
  0
ARC
  5
1B45
  8
0
 10
105.97112382504631
 20
18.261164523587169
 30
0.0
 40
0.0073265836512223
 50
75.326336994995344
 51
82.141604906153404
  0
ARC
  5
1B46
  8
0
 10
105.97268026700939
 20
18.266785725368841
 30
0.0
 40
0.0014966882986155
 50
48.504479448416397
 51
78.457514943973806
  0
ARC
  5
1B47
  8
0
 10
105.5023232704912
 20
18.08789360116705
 30
0.0
 40
0.1818953605879138
 50
91.281787409524625
 51
96.017989116210373
  0
ARC
  5
1B48
  8
0
 10
105.5036668140721
 20
18.17650718989384
 30
0.0
 40
0.0933932235485928
 50
82.026003116172376
 51
93.322349882660617
  0
ARC
  5
1B49
  8
0
 10
105.485582404894
 20
18.235288167019409
 30
0.0
 40
0.0335792515507788
 50
93.977426643070785
 51
106.0372612169835
  0
ARC
  5
1B4A
  8
0
 10
105.4771867027096
 20
18.264495758047509
 30
0.0
 40
0.0031889374880322
 50
106.0372612169954
 51
125.0161228265176
  0
ARC
  5
1B4B
  8
0
 10
105.4757283903083
 20
18.266966663618469
 30
0.0
 40
0.000547431724932
 50
213.83864896930379
 51
258.4573412417484
  0
ARC
  5
1B4C
  8
0
 10
105.47554272779961
 20
18.266842191954971
 30
0.0
 40
0.0003239059721565
 50
125.0161228264819
 51
213.8386489693788
  0
ARC
  5
1B4D
  8
0
 10
105.4903336618983
 20
18.420563720540748
 30
0.0
 40
0.1552940708908231
 50
266.74262331911632
 51
271.60079288046711
  0
ARC
  5
1B4E
  8
0
 10
105.48221108141441
 20
18.28958920684374
 30
0.0
 40
0.0240788771978488
 50
254.11088496885091
 51
268.33069717830921
  0
ARC
  5
1B4F
  8
0
 10
105.4930834118849
 20
18.406516433913652
 30
0.0
 40
0.141195112911992
 50
270.6445984685127
 51
279.11129044622891
  0
ARC
  5
1B50
  8
0
 10
105.5140084113095
 20
18.275697363268851
 30
0.0
 40
0.0087132779329368
 50
279.47009074799939
 51
296.86541073231513
  0
ARC
  5
1B51
  8
0
 10
105.5180119842737
 20
18.26826119973849
 30
0.0
 40
0.0001664385777089
 50
343.01554378773289
 51
44.612622233495678
  0
ARC
  5
1B52
  8
0
 10
105.5176840544176
 20
18.268361360685159
 30
0.0
 40
0.0005093236980727
 50
300.93878785971049
 51
343.01554378778388
  0
ARC
  5
1B53
  8
0
 10
105.5151306342664
 20
18.26182435443646
 30
0.0
 40
0.0073265836512223
 50
71.434479780084743
 51
78.249747691242945
  0
ARC
  5
1B54
  8
0
 10
105.5170650176161
 20
18.267326952196729
 30
0.0
 40
0.0014966882986155
 50
44.612622233505192
 51
74.565657729062735
  0
LINE
  5
1B55
  8
0
 10
105.4394941835675
 20
18.276976478652688
 30
0.0
 11
105.4321355318237
 21
18.308259822135859
 31
0.0
  0
LINE
  5
1B56
  8
0
 10
105.5539597512083
 20
18.283332233605972
 30
0.0
 11
105.5569677533168
 21
18.308259822135859
 31
0.0
  0
ARC
  5
1B57
  8
0
 10
105.51161161727561
 20
18.364098720864611
 30
0.0
 40
0.0998905831521615
 50
275.91414490441713
 51
287.54421624532921
  0
ARC
  5
1B58
  8
0
 10
105.5363685604155
 20
18.28579049977569
 30
0.0
 40
0.0177621244807355
 50
287.54421624532841
 51
352.04476691323322
  0
ARC
  5
1B59
  8
0
 10
105.46898097769289
 20
18.329837428173061
 30
0.0
 40
0.0676150832985875
 50
254.3645489181726
 51
269.4618225576412
  0
ARC
  5
1B5A
  8
0
 10
105.4785875223381
 20
18.615729269212981
 30
0.0
 40
0.3536522698156036
 50
268.3405029633671
 51
277.03546449869242
  0
ARC
  5
1B5B
  8
0
 10
105.4550170362425
 20
18.27994341858502
 30
0.0
 40
0.0158038504083924
 50
190.8206458506896
 51
254.3645489181751
  0
ARC
  5
1B5C
  8
0
 10
105.53239001045139
 20
18.274937953624811
 30
0.0
 40
0.0083408926782711
 50
283.54167796448257
 51
312.88275405381961
  0
ARC
  5
1B5D
  8
0
 10
105.5311860891875
 20
18.256332484975339
 30
0.0
 40
0.0148445207013547
 50
63.429563146070031
 51
87.927029332936485
  0
ARC
  5
1B5E
  8
0
 10
105.53765304143
 20
18.269127906931871
 30
0.0
 40
0.0005114336616835
 50
323.84606007964231
 51
70.23270840327541
  0
ARC
  5
1B5F
  8
0
 10
105.4693591894406
 20
18.23101422859126
 30
0.0
 40
0.0384816605729576
 50
98.502777446729155
 51
109.58677124779371
  0
ARC
  5
1B60
  8
0
 10
105.50710567244801
 20
17.964372327746251
 30
0.0
 40
0.3077810336842018
 50
85.412387828546045
 51
98.113078450825427
  0
ARC
  5
1B61
  8
0
 10
105.4569591021496
 20
18.26507017399215
 30
0.0
 40
0.0022551588470103
 50
102.8169022645843
 51
143.5478589822784
  0
ARC
  5
1B62
  8
0
 10
105.4556051299725
 20
18.266070311558671
 30
0.0
 40
0.0005718538216664
 50
143.54785898225791
 51
218.57166911179269
  0
ARC
  5
1B63
  8
0
 10
105.478280727544
 20
18.325907623569499
 30
0.0
 40
0.0647262602576966
 50
250.53557725319101
 51
259.4805419730223
  0
ARC
  5
1B64
  8
0
 10
105.4576175879893
 20
18.26843582298547
 30
0.0
 40
0.0036686492025616
 50
227.9002155374319
 51
255.7179316943126
  0
ARC
  5
1B65
  8
0
 10
105.9931759967757
 20
18.269973942202022
 30
0.0
 40
0.0005114336616835
 50
327.79636483763221
 51
74.183013161265919
  0
ARC
  5
1B66
  8
0
 10
105.98633452192701
 20
18.276852140682529
 30
0.0
 40
0.0102003790952296
 50
290.80301507035671
 51
315.49041822256072
  0
ARC
  5
1B67
  8
0
 10
105.9876059010235
 20
18.256763403694318
 30
0.0
 40
0.0148445207013547
 50
67.379867904059324
 51
91.877334090925828
  0
ARC
  5
1B68
  8
0
 10
105.9836961849811
 20
17.963837962668709
 30
0.0
 40
0.3077810336842017
 50
89.362692586536156
 51
102.0633832088151
  0
ARC
  5
1B69
  8
0
 10
105.91295331408359
 20
18.260366746207168
 30
0.0
 40
0.0022551588470103
 50
106.7672070225746
 51
147.49816374026881
  0
ARC
  5
1B6A
  8
0
 10
105.9276700964252
 20
18.227245968748239
 30
0.0
 40
0.0384816605729576
 50
102.4530822047189
 51
113.5370760057841
  0
ARC
  5
1B6B
  8
0
 10
105.91337837183031
 20
18.263769762907
 30
0.0
 40
0.0036686492025616
 50
231.85052029542189
 51
259.66823645230272
  0
ARC
  5
1B6C
  8
0
 10
105.91153365801139
 20
18.261271230836719
 30
0.0
 40
0.0005718538216664
 50
147.4981637402486
 51
222.52197386978349
  0
LINE
  5
1B6D
  8
0
 10
94.595834069895346
 20
18.272830226235861
 30
0.0
 11
94.605880965595361
 21
18.308259822135859
 31
0.0
  0
ARC
  5
1B6E
  8
0
 10
105.9300331172827
 20
18.32252852950861
 30
0.0
 40
0.0647262602576966
 50
254.48588201118159
 51
255.40199760293399
  0
LINE
  5
1B6F
  8
0
 10
95.505308055695366
 20
18.280826238635861
 30
0.0
 11
95.510174323095356
 21
18.308259822135859
 31
0.0
  0
LINE
  5
1B70
  8
0
 10
95.390666170695354
 20
18.280826238635861
 30
0.0
 11
95.385799903295364
 21
18.308259822135859
 31
0.0
  0
ARC
  5
1B71
  8
0
 10
94.578808323256439
 20
18.278116285198021
 30
0.0
 40
0.0178274658003308
 50
277.62847036811797
 51
342.75151644234199
  0
ARC
  5
1B72
  8
0
 10
94.575489005225506
 20
18.64642752539568
 30
0.0
 40
0.3868525965550725
 50
259.73997025852952
 51
269.38952592491592
  0
ARC
  5
1B73
  8
0
 10
94.523931344425577
 20
18.355981637151881
 30
0.0
 40
0.0918732795544045
 50
251.77811412419979
 51
259.11646073820259
  0
ARC
  5
1B74
  8
0
 10
94.567184076849486
 20
18.364906966071999
 30
0.0
 40
0.1053931291113433
 50
272.27473362869512
 51
277.62847036811797
  0
ARC
  5
1B75
  8
0
 10
94.499832651785397
 20
18.286274174921651
 30
0.0
 40
0.0181587673757371
 50
185.98602160902581
 51
255.2284020743754
  0
LINE
  5
1B76
  8
0
 10
94.481772897495347
 20
18.28438047283586
 30
0.0
 11
94.479344988014375
 21
18.308259822135859
 31
0.0
  0
ARC
  5
1B77
  8
0
 10
94.519669941406676
 20
18.086765585329029
 30
0.0
 40
0.1818953605879138
 50
80.090153668878585
 51
84.826355375564717
  0
ARC
  5
1B78
  8
0
 10
94.524344010598924
 20
18.17526601636516
 30
0.0
 40
0.0933932235485928
 50
82.785792902428639
 51
94.082139668916355
  0
ARC
  5
1B79
  8
0
 10
94.556735149242897
 20
18.261254379303661
 30
0.0
 40
0.0031889374880322
 50
51.092019958571029
 51
70.070881568093569
  0
ARC
  5
1B7A
  8
0
 10
94.546376386644326
 20
18.232683988577278
 30
0.0
 40
0.0335792515507788
 50
70.070881568104909
 51
82.130716142018287
  0
ARC
  5
1B7B
  8
0
 10
94.558534593723351
 20
18.26348381984981
 30
0.0
 40
0.0003239059721565
 50
322.26949381571052
 51
51.092019958607253
  0
ARC
  5
1B7C
  8
0
 10
94.558357807692005
 20
18.263620606037971
 30
0.0
 40
0.000547431724932
 50
277.65080154334049
 51
322.2694938157851
  0
ARC
  5
1B7D
  8
0
 10
94.554211386754645
 20
18.417854769072012
 30
0.0
 40
0.1552940708908231
 50
264.50734990462212
 51
269.36551946597251
  0
ARC
  5
1B7E
  8
0
 10
94.553425537295894
 20
18.286630983146939
 30
0.0
 40
0.0240788771978488
 50
267.77744560678019
 51
281.99725781623903
  0
ARC
  5
1B7F
  8
0
 10
94.52075864605662
 20
18.27492937115861
 30
0.0
 40
0.0087132779329368
 50
239.2427320527739
 51
256.63805203709052
  0
ARC
  5
1B80
  8
0
 10
94.550514539351894
 20
18.40402651155874
 30
0.0
 40
0.141195112911992
 50
256.99685233885941
 51
265.46354431657619
  0
ARC
  5
1B81
  8
0
 10
94.516259587141548
 20
18.267782092417111
 30
0.0
 40
0.0001664385777089
 50
131.49552055159401
 51
193.0925989973563
  0
ARC
  5
1B82
  8
0
 10
94.516593559044153
 20
18.267859764638811
 30
0.0
 40
0.0005093236980727
 50
193.0925989973048
 51
235.1693549253776
  0
ARC
  5
1B83
  8
0
 10
94.518697401344426
 20
18.261164523587169
 30
0.0
 40
0.0073265836512223
 50
97.858395093845786
 51
104.6736630050046
  0
ARC
  5
1B84
  8
0
 10
94.517140959381337
 20
18.266785725368841
 30
0.0
 40
0.0014966882986155
 50
101.542485056027
 51
131.49552055158361
  0
ARC
  5
1B85
  8
0
 10
95.443991680762821
 20
18.176655487322321
 30
0.0
 40
0.0933932235485928
 50
88.577351036288832
 51
99.873697802776974
  0
ARC
  5
1B86
  8
0
 10
95.448272022955109
 20
18.088135140016679
 30
0.0
 40
0.1818953605879138
 50
85.881711802738025
 51
90.617913509425222
  0
ARC
  5
1B87
  8
0
 10
95.467540420734707
 20
18.26547351065787
 30
0.0
 40
0.0031889374880322
 50
56.88357809243147
 51
75.86243970195369
  0
ARC
  5
1B88
  8
0
 10
95.460117563433229
 20
18.236003655240609
 30
0.0
 40
0.0335792515507788
 50
75.862439701965442
 51
87.922274275878138
  0
ARC
  5
1B89
  8
0
 10
95.468916021207434
 20
18.267991401191608
 30
0.0
 40
0.000547431724932
 50
283.44235967720073
 51
328.06105194964567
  0
ARC
  5
1B8A
  8
0
 10
95.469105707904831
 20
18.267873152644089
 30
0.0
 40
0.0003239059721565
 50
328.06105194957041
 51
56.883578092467452
  0
ARC
  5
1B8B
  8
0
 10
95.461686956627048
 20
18.29038660985886
 30
0.0
 40
0.0240788771978488
 50
273.56900374064043
 51
287.78881595009869
  0
ARC
  5
1B8C
  8
0
 10
95.449227040341327
 20
18.42101987529319
 30
0.0
 40
0.1552940708908231
 50
270.29890803848212
 51
275.15707759983292
  0
ARC
  5
1B8D
  8
0
 10
95.430367616971395
 20
18.27544832113831
 30
0.0
 40
0.0087132779329368
 50
245.03429018663459
 51
262.42961017095081
  0
ARC
  5
1B8E
  8
0
 10
95.446944468655744
 20
18.40688915510373
 30
0.0
 40
0.141195112911992
 50
262.7884104727197
 51
271.25510245043648
  0
ARC
  5
1B8F
  8
0
 10
95.426612752948245
 20
18.267883526316389
 30
0.0
 40
0.0001664385777089
 50
137.28707868545371
 51
198.8841571312168
  0
ARC
  5
1B90
  8
0
 10
95.426937182238987
 20
18.267994503075538
 30
0.0
 40
0.0005093236980727
 50
198.8841571311651
 51
240.96091305923841
  0
ARC
  5
1B91
  8
0
 10
95.427590169412454
 20
18.266981184155409
 30
0.0
 40
0.0014966882986155
 50
107.3340431898871
 51
137.2870786854441
  0
ARC
  5
1B92
  8
0
 10
95.429705900506576
 20
18.261545735416629
 30
0.0
 40
0.0073265836512223
 50
103.64995322770621
 51
110.4652211388653
  0
ARC
  5
1B93
  8
0
 10
94.987497955899556
 20
18.08789360116705
 30
0.0
 40
0.1818953605879138
 50
83.982010883789613
 51
88.718212590475375
  0
ARC
  5
1B94
  8
0
 10
94.986154412318655
 20
18.17650718989384
 30
0.0
 40
0.0933932235485928
 50
86.677650117340193
 51
97.973996883827624
  0
ARC
  5
1B95
  8
0
 10
95.012634523681044
 20
18.264495758047509
 30
0.0
 40
0.0031889374880322
 50
54.983877173482249
 51
73.9627387830038
  0
ARC
  5
1B96
  8
0
 10
95.004238821496756
 20
18.235288167019409
 30
0.0
 40
0.0335792515507788
 50
73.962738783016405
 51
86.022573356928405
  0
ARC
  5
1B97
  8
0
 10
95.014092836082384
 20
18.266966663618469
 30
0.0
 40
0.000547431724932
 50
281.54265875825081
 51
326.16135103069581
  0
ARC
  5
1B98
  8
0
 10
95.014278498591096
 20
18.266842191954971
 30
0.0
 40
0.0003239059721565
 50
326.16135103062118
 51
54.983877173517392
  0
ARC
  5
1B99
  8
0
 10
94.999487564492455
 20
18.420563720540748
 30
0.0
 40
0.1552940708908231
 50
268.399207119533
 51
273.25737668088289
  0
ARC
  5
1B9A
  8
0
 10
95.007610144976255
 20
18.28958920684374
 30
0.0
 40
0.0240788771978488
 50
271.66930282169091
 51
285.88911503114912
  0
ARC
  5
1B9B
  8
0
 10
94.996737814505806
 20
18.406516433913652
 30
0.0
 40
0.141195112911992
 50
260.88870955377121
 51
269.35540153148651
  0
ARC
  5
1B9C
  8
0
 10
94.975812815081198
 20
18.275697363268851
 30
0.0
 40
0.0087132779329368
 50
243.1345892676849
 51
260.52990925200072
  0
ARC
  5
1B9D
  8
0
 10
94.971809242116976
 20
18.26826119973849
 30
0.0
 40
0.0001664385777089
 50
135.3873777665043
 51
196.98445621226691
  0
ARC
  5
1B9E
  8
0
 10
94.972137171973088
 20
18.268361360685159
 30
0.0
 40
0.0005093236980727
 50
196.9844562122156
 51
239.06121214028869
  0
ARC
  5
1B9F
  8
0
 10
94.974690592124247
 20
18.26182435443646
 30
0.0
 40
0.0073265836512223
 50
101.750252308757
 51
108.5655202199152
  0
ARC
  5
1BA0
  8
0
 10
94.972756208774626
 20
18.267326952196729
 30
0.0
 40
0.0014966882986155
 50
105.43434227093719
 51
135.38737776649469
  0
ARC
  5
1BA1
  8
0
 10
95.408094020055898
 20
18.284255981007451
 30
0.0
 40
0.0177621244807355
 50
191.13334498743421
 51
255.6338956553391
  0
ARC
  5
1BA2
  8
0
 10
95.428471473597355
 20
18.363816292161381
 30
0.0
 40
0.0998905831521615
 50
255.6338956553391
 51
267.26396699625082
  0
ARC
  5
1BA3
  8
0
 10
95.472935996659345
 20
18.331971138731149
 30
0.0
 40
0.0676150832985875
 50
273.71628934302578
 51
288.8135629824946
  0
ARC
  5
1BA4
  8
0
 10
95.447494360989594
 20
18.616890695181151
 30
0.0
 40
0.3536522698156036
 50
266.14264740197518
 51
274.8376089373005
  0
LINE
  5
1BA5
  8
0
 10
95.050327042823156
 20
18.276976478652688
 30
0.0
 11
95.057685694567027
 21
18.308259822135859
 31
0.0
  0
ARC
  5
1BA6
  8
0
 10
95.489644589537093
 20
18.282928027312249
 30
0.0
 40
0.0158038504083924
 50
288.8135629824929
 51
352.35746604997809
  0
LINE
  5
1BA7
  8
0
 10
94.935861475182378
 20
18.283332233605972
 30
0.0
 11
94.932853473073877
 21
18.308259822135859
 31
0.0
  0
ARC
  5
1BA8
  8
0
 10
94.953452665975149
 20
18.28579049977569
 30
0.0
 40
0.0177621244807355
 50
187.95523308676641
 51
252.45578375467159
  0
ARC
  5
1BA9
  8
0
 10
95.011233704052628
 20
18.615729269212981
 30
0.0
 40
0.3536522698156036
 50
262.96453550130758
 51
271.65949703663199
  0
ARC
  5
1BAA
  8
0
 10
94.978209609115069
 20
18.364098720864611
 30
0.0
 40
0.0998905831521615
 50
252.45578375467079
 51
264.08585509558287
  0
ARC
  5
1BAB
  8
0
 10
95.034804190148179
 20
18.27994341858502
 30
0.0
 40
0.0158038504083924
 50
285.6354510818249
 51
349.17935414931031
  0
ARC
  5
1BAC
  8
0
 10
95.020840248697766
 20
18.329837428173061
 30
0.0
 40
0.0676150832985875
 50
270.53817744235789
 51
285.6354510818266
  0
ARC
  5
1BAD
  8
0
 10
94.952168184960726
 20
18.269127906931871
 30
0.0
 40
0.0005114336616835
 50
109.76729159672379
 51
216.1539399203578
  0
ARC
  5
1BAE
  8
0
 10
94.957431215939295
 20
18.274937953624811
 30
0.0
 40
0.0083408926782711
 50
227.11724594617979
 51
256.45832203551743
  0
ARC
  5
1BAF
  8
0
 10
94.98271555394264
 20
17.964372327746251
 30
0.0
 40
0.3077810336842018
 50
81.886921549174573
 51
94.587612171453941
  0
ARC
  5
1BB0
  8
0
 10
94.958635137203217
 20
18.256332484975339
 30
0.0
 40
0.0148445207013547
 50
92.072970667063515
 51
116.57043685393
  0
ARC
  5
1BB1
  8
0
 10
95.020462036950065
 20
18.23101422859126
 30
0.0
 40
0.0384816605729576
 50
70.413228752206308
 51
81.497222553270817
  0
ARC
  5
1BB2
  8
0
 10
95.032862124241134
 20
18.26507017399215
 30
0.0
 40
0.0022551588470103
 50
36.45214101772148
 51
77.183097735415686
  0
ARC
  5
1BB3
  8
0
 10
95.032203638401427
 20
18.26843582298547
 30
0.0
 40
0.0036686492025616
 50
284.28206830568661
 51
312.0997844625681
  0
ARC
  5
1BB4
  8
0
 10
95.034216096418234
 20
18.266070311558671
 30
0.0
 40
0.0005718538216664
 50
321.42833088820629
 51
36.452141017742093
  0
ARC
  5
1BB5
  8
0
 10
94.503486704463725
 20
18.276852140682529
 30
0.0
 40
0.0102003790952296
 50
224.50958177743931
 51
249.19698492964341
  0
ARC
  5
1BB6
  8
0
 10
95.011540498846713
 20
18.325907623569499
 30
0.0
 40
0.0647262602576966
 50
280.51945802697759
 51
289.46442274680902
  0
ARC
  5
1BB7
  8
0
 10
94.496645229615027
 20
18.269973942202022
 30
0.0
 40
0.0005114336616835
 50
105.8169868387341
 51
212.20363516236779
  0
ARC
  5
1BB8
  8
0
 10
94.502215325367231
 20
18.256763403694318
 30
0.0
 40
0.0148445207013547
 50
88.122665909073334
 51
112.62013209593989
  0
ARC
  5
1BB9
  8
0
 10
94.562151129965514
 20
18.227245968748239
 30
0.0
 40
0.0384816605729576
 50
66.46292399421587
 51
77.546917795281075
  0
ARC
  5
1BBA
  8
0
 10
94.506125041409575
 20
17.963837962668709
 30
0.0
 40
0.3077810336842017
 50
77.936616791184903
 51
90.637307413463844
  0
ARC
  5
1BBB
  8
0
 10
94.578287568379281
 20
18.261271230836719
 30
0.0
 40
0.0005718538216664
 50
317.47802613021639
 51
32.501836259751421
  0
ARC
  5
1BBC
  8
0
 10
94.576867912307108
 20
18.260366746207168
 30
0.0
 40
0.0022551588470103
 50
32.501836259731128
 51
73.232792977425319
  0
ARC
  5
1BBD
  8
0
 10
94.576442854560412
 20
18.263769762907
 30
0.0
 40
0.0036686492025616
 50
280.33176354769643
 51
308.1494797045774
  0
ARC
  5
1BBE
  8
0
 10
94.559788109107984
 20
18.32252852950861
 30
0.0
 40
0.0647262602576966
 50
284.59800239706601
 51
285.51411798881838
  0
ARC
  5
1BBF
  8
0
 10
95.407005456515833
 20
18.267998371120662
 30
0.0
 40
0.0005114336616835
 50
111.8347617669634
 51
218.2214100905957
  0
ARC
  5
1BC0
  8
0
 10
95.415610942179782
 20
18.279370332936011
 30
0.0
 40
0.01475633763182
 50
232.38150690036591
 51
249.1233396151965
  0
ARC
  5
1BC1
  8
0
 10
95.44852740360129
 20
17.964543213466829
 30
0.0
 40
0.3077810336842018
 50
83.954391719413735
 51
96.655082341692918
  0
ARC
  5
1BC2
  8
0
 10
95.413929810897685
 20
18.25544458241977
 30
0.0
 40
0.0148445207013547
 50
94.140440837302506
 51
118.6379070241686
  0
ARC
  5
1BC3
  8
0
 10
95.487793255168427
 20
18.266854420917578
 30
0.0
 40
0.0022551588470103
 50
38.519611187959441
 51
79.25056790565371
  0
ARC
  5
1BC4
  8
0
 10
95.476629853447903
 20
18.232373295007879
 30
0.0
 40
0.0384816605729576
 50
72.4806989224451
 51
83.564692723509467
  0
ARC
  5
1BC5
  8
0
 10
95.487013777709649
 20
18.270194123245432
 30
0.0
 40
0.0036686492025616
 50
286.34953847592499
 51
314.16725463280619
  0
ARC
  5
1BC6
  8
0
 10
95.489110264665712
 20
18.26790275378093
 30
0.0
 40
0.0005718538216664
 50
323.49580105844512
 51
38.519611187980381
  0
ARC
  5
1BC7
  8
0
 10
95.464290717358608
 20
18.326883061557151
 30
0.0
 40
0.0647262602576966
 50
287.95066651322031
 51
291.5318929170478
  0
LINE
  5
1BC8
  8
0
 10
96.300140156495345
 20
18.272830226235861
 30
0.0
 11
96.290093260795359
 21
18.308259822135859
 31
0.0
  0
ARC
  5
1BC9
  8
0
 10
96.317165903134295
 20
18.278116285198021
 30
0.0
 40
0.0178274658003308
 50
197.24848355765781
 51
262.37152963188203
  0
ARC
  5
1BCA
  8
0
 10
96.320485221165228
 20
18.64642752539568
 30
0.0
 40
0.3868525965550725
 50
270.61047407508408
 51
280.26002974146968
  0
ARC
  5
1BCB
  8
0
 10
96.372042881965157
 20
18.355981637151881
 30
0.0
 40
0.0918732795544045
 50
280.88353926179661
 51
288.22188587579939
  0
ARC
  5
1BCC
  8
0
 10
96.328790149541234
 20
18.364906966071999
 30
0.0
 40
0.1053931291113433
 50
262.37152963188203
 51
267.72526637130488
  0
ARC
  5
1BCD
  8
0
 10
96.396141574605323
 20
18.286274174921651
 30
0.0
 40
0.0181587673757371
 50
284.77159792562378
 51
354.01397839097388
  0
LINE
  5
1BCE
  8
0
 10
96.414201328895345
 20
18.28438047283586
 30
0.0
 11
96.416629238376345
 21
18.308259822135859
 31
0.0
  0
ARC
  5
1BCF
  8
0
 10
96.376304284984045
 20
18.086765585329029
 30
0.0
 40
0.1818953605879138
 50
95.173644624435283
 51
99.909846331121415
  0
ARC
  5
1BD0
  8
0
 10
96.371630215791797
 20
18.17526601636516
 30
0.0
 40
0.0933932235485928
 50
85.917860331082807
 51
97.214207097570551
  0
ARC
  5
1BD1
  8
0
 10
96.339239077147795
 20
18.261254379303661
 30
0.0
 40
0.0031889374880322
 50
109.9291184319064
 51
128.907980041429
  0
ARC
  5
1BD2
  8
0
 10
96.349597839746394
 20
18.232683988577278
 30
0.0
 40
0.0335792515507788
 50
97.869283857981728
 51
109.9291184318943
  0
ARC
  5
1BD3
  8
0
 10
96.337439632667383
 20
18.26348381984981
 30
0.0
 40
0.0003239059721565
 50
128.9079800413927
 51
217.73050618428951
  0
ARC
  5
1BD4
  8
0
 10
96.337616418698744
 20
18.263620606037971
 30
0.0
 40
0.000547431724932
 50
217.73050618421499
 51
262.34919845665951
  0
ARC
  5
1BD5
  8
0
 10
96.341762839636104
 20
18.417854769072012
 30
0.0
 40
0.1552940708908231
 50
270.63448053402749
 51
275.49265009537788
  0
ARC
  5
1BD6
  8
0
 10
96.342548689094826
 20
18.286630983146939
 30
0.0
 40
0.0240788771978488
 50
258.00274218376097
 51
272.22255439321981
  0
ARC
  5
1BD7
  8
0
 10
96.375215580334114
 20
18.27492937115861
 30
0.0
 40
0.0087132779329368
 50
283.36194796290948
 51
300.75726794722527
  0
ARC
  5
1BD8
  8
0
 10
96.345459687038854
 20
18.40402651155874
 30
0.0
 40
0.141195112911992
 50
274.53645568342381
 51
283.00314766113991
  0
ARC
  5
1BD9
  8
0
 10
96.379714639249201
 20
18.267782092417111
 30
0.0
 40
0.0001664385777089
 50
346.90740100264372
 51
48.504479448405988
  0
ARC
  5
1BDA
  8
0
 10
96.379380667346553
 20
18.267859764638811
 30
0.0
 40
0.0005093236980727
 50
304.8306450746216
 51
346.907401002695
  0
ARC
  5
1BDB
  8
0
 10
96.377276825046295
 20
18.261164523587169
 30
0.0
 40
0.0073265836512223
 50
75.326336994995344
 51
82.141604906153404
  0
ARC
  5
1BDC
  8
0
 10
96.378833267009355
 20
18.266785725368841
 30
0.0
 40
0.0014966882986155
 50
48.504479448416397
 51
78.457514943973806
  0
ARC
  5
1BDD
  8
0
 10
95.909819814072065
 20
18.17650718989384
 30
0.0
 40
0.0933932235485928
 50
82.026003116172376
 51
93.322349882660617
  0
ARC
  5
1BDE
  8
0
 10
95.908476270491178
 20
18.08789360116705
 30
0.0
 40
0.1818953605879138
 50
91.281787409524625
 51
96.017989116210373
  0
ARC
  5
1BDF
  8
0
 10
95.883339702709677
 20
18.264495758047509
 30
0.0
 40
0.0031889374880322
 50
106.0372612169954
 51
125.0161228265176
  0
ARC
  5
1BE0
  8
0
 10
95.891735404893964
 20
18.235288167019409
 30
0.0
 40
0.0335792515507788
 50
93.977426643070785
 51
106.0372612169835
  0
ARC
  5
1BE1
  8
0
 10
95.881881390308308
 20
18.266966663618469
 30
0.0
 40
0.000547431724932
 50
213.83864896930379
 51
258.4573412417484
  0
ARC
  5
1BE2
  8
0
 10
95.881695727799624
 20
18.266842191954971
 30
0.0
 40
0.0003239059721565
 50
125.0161228264819
 51
213.8386489693788
  0
ARC
  5
1BE3
  8
0
 10
95.888364081414466
 20
18.28958920684374
 30
0.0
 40
0.0240788771978488
 50
254.11088496885091
 51
268.33069717830921
  0
ARC
  5
1BE4
  8
0
 10
95.896486661898294
 20
18.420563720540748
 30
0.0
 40
0.1552940708908231
 50
266.74262331911632
 51
271.60079288046711
  0
ARC
  5
1BE5
  8
0
 10
95.920161411309536
 20
18.275697363268851
 30
0.0
 40
0.0087132779329368
 50
279.47009074799939
 51
296.86541073231513
  0
ARC
  5
1BE6
  8
0
 10
95.899236411884914
 20
18.406516433913652
 30
0.0
 40
0.141195112911992
 50
270.6445984685127
 51
279.11129044622891
  0
ARC
  5
1BE7
  8
0
 10
95.924164984273744
 20
18.26826119973849
 30
0.0
 40
0.0001664385777089
 50
343.01554378773289
 51
44.612622233495678
  0
ARC
  5
1BE8
  8
0
 10
95.923837054417632
 20
18.268361360685159
 30
0.0
 40
0.0005093236980727
 50
300.93878785971049
 51
343.01554378778388
  0
ARC
  5
1BE9
  8
0
 10
95.923218017616094
 20
18.267326952196729
 30
0.0
 40
0.0014966882986155
 50
44.612622233505192
 51
74.565657729062735
  0
ARC
  5
1BEA
  8
0
 10
95.921283634266445
 20
18.26182435443646
 30
0.0
 40
0.0073265836512223
 50
71.434479780084743
 51
78.249747691242945
  0
LINE
  5
1BEB
  8
0
 10
95.960112751208356
 20
18.283332233605972
 30
0.0
 11
95.963120753316844
 21
18.308259822135859
 31
0.0
  0
LINE
  5
1BEC
  8
0
 10
95.845647183567564
 20
18.276976478652688
 30
0.0
 11
95.838288531823693
 21
18.308259822135859
 31
0.0
  0
ARC
  5
1BED
  8
0
 10
95.917764617275651
 20
18.364098720864611
 30
0.0
 40
0.0998905831521615
 50
275.91414490441713
 51
287.54421624532921
  0
ARC
  5
1BEE
  8
0
 10
95.942521560415571
 20
18.28579049977569
 30
0.0
 40
0.0177621244807355
 50
287.54421624532841
 51
352.04476691323322
  0
ARC
  5
1BEF
  8
0
 10
95.875133977692968
 20
18.329837428173061
 30
0.0
 40
0.0676150832985875
 50
254.3645489181726
 51
269.4618225576412
  0
ARC
  5
1BF0
  8
0
 10
95.884740522338106
 20
18.615729269212981
 30
0.0
 40
0.3536522698156036
 50
268.3405029633671
 51
277.03546449869242
  0
ARC
  5
1BF1
  8
0
 10
95.938543010451426
 20
18.274937953624811
 30
0.0
 40
0.0083408926782711
 50
283.54167796448257
 51
312.88275405381961
  0
ARC
  5
1BF2
  8
0
 10
95.861170036242541
 20
18.27994341858502
 30
0.0
 40
0.0158038504083924
 50
190.8206458506896
 51
254.3645489181751
  0
ARC
  5
1BF3
  8
0
 10
95.943806041430008
 20
18.269127906931871
 30
0.0
 40
0.0005114336616835
 50
323.84606007964231
 51
70.23270840327541
  0
ARC
  5
1BF4
  8
0
 10
95.937339089187518
 20
18.256332484975339
 30
0.0
 40
0.0148445207013547
 50
63.429563146070031
 51
87.927029332936485
  0
ARC
  5
1BF5
  8
0
 10
95.875512189440641
 20
18.23101422859126
 30
0.0
 40
0.0384816605729576
 50
98.502777446729155
 51
109.58677124779371
  0
ARC
  5
1BF6
  8
0
 10
95.91325867244808
 20
17.964372327746251
 30
0.0
 40
0.3077810336842018
 50
85.412387828546045
 51
98.113078450825427
  0
ARC
  5
1BF7
  8
0
 10
95.8617581299725
 20
18.266070311558671
 30
0.0
 40
0.0005718538216664
 50
143.54785898225791
 51
218.57166911179371
  0
ARC
  5
1BF8
  8
0
 10
95.8631121021496
 20
18.26507017399215
 30
0.0
 40
0.0022551588470103
 50
102.8169022645843
 51
143.5478589822784
  0
ARC
  5
1BF9
  8
0
 10
95.863770587989279
 20
18.26843582298547
 30
0.0
 40
0.0036686492025616
 50
227.9002155374319
 51
255.7179316943126
  0
ARC
  5
1BFA
  8
0
 10
95.884433727544007
 20
18.325907623569499
 30
0.0
 40
0.0647262602576966
 50
250.53557725319101
 51
259.4805419730223
  0
ARC
  5
1BFB
  8
0
 10
96.399328996775694
 20
18.269973942202022
 30
0.0
 40
0.0005114336616835
 50
327.79636483763221
 51
74.183013161265919
  0
ARC
  5
1BFC
  8
0
 10
96.392487521927009
 20
18.276852140682529
 30
0.0
 40
0.0102003790952296
 50
290.80301507035671
 51
315.49041822256072
  0
ARC
  5
1BFD
  8
0
 10
96.389849184981145
 20
17.963837962668709
 30
0.0
 40
0.3077810336842017
 50
89.362692586536156
 51
102.0633832088151
  0
ARC
  5
1BFE
  8
0
 10
96.393758901023503
 20
18.256763403694318
 30
0.0
 40
0.0148445207013547
 50
67.379867904059324
 51
91.877334090925828
  0
ARC
  5
1BFF
  8
0
 10
96.333823096425206
 20
18.227245968748239
 30
0.0
 40
0.0384816605729576
 50
102.4530822047189
 51
113.5370760057841
  0
ARC
  5
1C00
  8
0
 10
96.319106314083612
 20
18.260366746207168
 30
0.0
 40
0.0022551588470103
 50
106.7672070225746
 51
147.49816374026881
  0
ARC
  5
1C01
  8
0
 10
96.319531371830323
 20
18.263769762907
 30
0.0
 40
0.0036686492025616
 50
231.85052029542189
 51
259.66823645230272
  0
ARC
  5
1C02
  8
0
 10
96.317686658011439
 20
18.261271230836719
 30
0.0
 40
0.0005718538216664
 50
147.4981637402486
 51
222.52197386978349
  0
LINE
  5
1C03
  8
0
 10
99.39275756989538
 20
18.272830226235861
 30
0.0
 11
99.402804465595366
 21
18.308259822135859
 31
0.0
  0
ARC
  5
1C04
  8
0
 10
96.33618611728275
 20
18.32252852950861
 30
0.0
 40
0.0647262602576966
 50
254.48588201118159
 51
255.40199760293399
  0
LINE
  5
1C05
  8
0
 10
100.1875896706953
 20
18.280826238635861
 30
0.0
 11
100.1827234032953
 21
18.308259822135859
 31
0.0
  0
LINE
  5
1C06
  8
0
 10
100.3022315556953
 20
18.280826238635861
 30
0.0
 11
100.3070978230953
 21
18.308259822135859
 31
0.0
  0
ARC
  5
1C07
  8
0
 10
99.37573182325643
 20
18.278116285198021
 30
0.0
 40
0.0178274658003308
 50
277.62847036811797
 51
342.75151644234199
  0
ARC
  5
1C08
  8
0
 10
99.372412505225498
 20
18.64642752539568
 30
0.0
 40
0.3868525965550725
 50
259.73997025852952
 51
269.38952592491592
  0
ARC
  5
1C09
  8
0
 10
99.364107576849491
 20
18.364906966071999
 30
0.0
 40
0.1053931291113433
 50
272.27473362869512
 51
277.62847036811797
  0
ARC
  5
1C0A
  8
0
 10
99.320854844425568
 20
18.355981637151881
 30
0.0
 40
0.0918732795544045
 50
251.77811412419979
 51
259.11646073820259
  0
LINE
  5
1C0B
  8
0
 10
99.278696397495381
 20
18.28438047283586
 30
0.0
 11
99.276268488014381
 21
18.308259822135859
 31
0.0
  0
ARC
  5
1C0C
  8
0
 10
99.296756151785402
 20
18.286274174921651
 30
0.0
 40
0.0181587673757371
 50
185.98602160902581
 51
255.2284020743754
  0
ARC
  5
1C0D
  8
0
 10
99.316593441406695
 20
18.086765585329029
 30
0.0
 40
0.1818953605879138
 50
80.090153668878585
 51
84.826355375564717
  0
ARC
  5
1C0E
  8
0
 10
99.321267510598929
 20
18.17526601636516
 30
0.0
 40
0.0933932235485928
 50
82.785792902428639
 51
94.082139668916355
  0
ARC
  5
1C0F
  8
0
 10
99.343299886644331
 20
18.232683988577278
 30
0.0
 40
0.0335792515507788
 50
70.070881568104909
 51
82.130716142018287
  0
ARC
  5
1C10
  8
0
 10
99.353658649242931
 20
18.261254379303661
 30
0.0
 40
0.0031889374880322
 50
51.092019958571029
 51
70.070881568093569
  0
ARC
  5
1C11
  8
0
 10
99.355281307691996
 20
18.263620606037971
 30
0.0
 40
0.000547431724932
 50
277.65080154334049
 51
322.2694938157851
  0
ARC
  5
1C12
  8
0
 10
99.355458093723357
 20
18.26348381984981
 30
0.0
 40
0.0003239059721565
 50
322.26949381571052
 51
51.092019958607253
  0
ARC
  5
1C13
  8
0
 10
99.351134886754636
 20
18.417854769072012
 30
0.0
 40
0.1552940708908231
 50
264.50734990462212
 51
269.36551946597251
  0
ARC
  5
1C14
  8
0
 10
99.350349037295899
 20
18.286630983146939
 30
0.0
 40
0.0240788771978488
 50
267.77744560678019
 51
281.99725781623903
  0
ARC
  5
1C15
  8
0
 10
99.347438039351871
 20
18.40402651155874
 30
0.0
 40
0.141195112911992
 50
256.99685233885941
 51
265.46354431657619
  0
ARC
  5
1C16
  8
0
 10
99.317682146056612
 20
18.27492937115861
 30
0.0
 40
0.0087132779329368
 50
239.2427320527739
 51
256.63805203709052
  0
ARC
  5
1C17
  8
0
 10
99.313183087141525
 20
18.267782092417111
 30
0.0
 40
0.0001664385777089
 50
131.49552055159401
 51
193.0925989973563
  0
ARC
  5
1C18
  8
0
 10
99.313517059044173
 20
18.267859764638811
 30
0.0
 40
0.0005093236980727
 50
193.0925989973048
 51
235.1693549253776
  0
ARC
  5
1C19
  8
0
 10
99.315620901344431
 20
18.261164523587169
 30
0.0
 40
0.0073265836512223
 50
97.858395093845786
 51
104.6736630050046
  0
ARC
  5
1C1A
  8
0
 10
99.31406445938137
 20
18.266785725368841
 30
0.0
 40
0.0014966882986155
 50
101.542485056027
 51
131.49552055158361
  0
ARC
  5
1C1B
  8
0
 10
100.2409151807628
 20
18.176655487322321
 30
0.0
 40
0.0933932235485928
 50
88.577351036288832
 51
99.873697802776974
  0
ARC
  5
1C1C
  8
0
 10
100.2451955229551
 20
18.088135140016679
 30
0.0
 40
0.1818953605879138
 50
85.881711802738025
 51
90.617913509425222
  0
ARC
  5
1C1D
  8
0
 10
100.2644639207347
 20
18.26547351065787
 30
0.0
 40
0.0031889374880322
 50
56.88357809243147
 51
75.86243970195369
  0
ARC
  5
1C1E
  8
0
 10
100.25704106343321
 20
18.236003655240609
 30
0.0
 40
0.0335792515507788
 50
75.862439701965442
 51
87.922274275878138
  0
ARC
  5
1C1F
  8
0
 10
100.2658395212074
 20
18.267991401191608
 30
0.0
 40
0.000547431724932
 50
283.44235967720073
 51
328.06105194964567
  0
ARC
  5
1C20
  8
0
 10
100.26602920790479
 20
18.267873152644089
 30
0.0
 40
0.0003239059721565
 50
328.06105194957041
 51
56.883578092467452
  0
ARC
  5
1C21
  8
0
 10
100.258610456627
 20
18.29038660985886
 30
0.0
 40
0.0240788771978488
 50
273.56900374064043
 51
287.78881595009869
  0
ARC
  5
1C22
  8
0
 10
100.2461505403413
 20
18.42101987529319
 30
0.0
 40
0.1552940708908231
 50
270.29890803848212
 51
275.15707759983292
  0
ARC
  5
1C23
  8
0
 10
100.24386796865571
 20
18.40688915510373
 30
0.0
 40
0.141195112911992
 50
262.7884104727197
 51
271.25510245043648
  0
ARC
  5
1C24
  8
0
 10
100.2272911169714
 20
18.27544832113831
 30
0.0
 40
0.0087132779329368
 50
245.03429018663459
 51
262.42961017095081
  0
ARC
  5
1C25
  8
0
 10
100.22386068223901
 20
18.267994503075538
 30
0.0
 40
0.0005093236980727
 50
198.8841571311651
 51
240.96091305923841
  0
ARC
  5
1C26
  8
0
 10
100.22353625294819
 20
18.267883526316389
 30
0.0
 40
0.0001664385777089
 50
137.28707868545371
 51
198.8841571312168
  0
ARC
  5
1C27
  8
0
 10
100.2245136694124
 20
18.266981184155409
 30
0.0
 40
0.0014966882986155
 50
107.3340431898871
 51
137.2870786854441
  0
ARC
  5
1C28
  8
0
 10
100.2266294005065
 20
18.261545735416629
 30
0.0
 40
0.0073265836512223
 50
103.64995322770621
 51
110.4652211388653
  0
ARC
  5
1C29
  8
0
 10
99.78307791231866
 20
18.17650718989384
 30
0.0
 40
0.0933932235485928
 50
86.677650117340193
 51
97.973996883827624
  0
ARC
  5
1C2A
  8
0
 10
99.784421455899547
 20
18.08789360116705
 30
0.0
 40
0.1818953605879138
 50
83.982010883789613
 51
88.718212590475375
  0
ARC
  5
1C2B
  8
0
 10
99.801162321496761
 20
18.235288167019409
 30
0.0
 40
0.0335792515507788
 50
73.962738783016405
 51
86.022573356929215
  0
ARC
  5
1C2C
  8
0
 10
99.809558023681049
 20
18.264495758047509
 30
0.0
 40
0.0031889374880322
 50
54.983877173482249
 51
73.9627387830038
  0
ARC
  5
1C2D
  8
0
 10
99.811201998591116
 20
18.266842191954971
 30
0.0
 40
0.0003239059721565
 50
326.16135103062118
 51
54.983877173517392
  0
ARC
  5
1C2E
  8
0
 10
99.811016336082403
 20
18.266966663618469
 30
0.0
 40
0.000547431724932
 50
281.54265875825081
 51
326.16135103069581
  0
ARC
  5
1C2F
  8
0
 10
99.804533644976274
 20
18.28958920684374
 30
0.0
 40
0.0240788771978488
 50
271.66930282169091
 51
285.88911503114912
  0
ARC
  5
1C30
  8
0
 10
99.796411064492446
 20
18.420563720540748
 30
0.0
 40
0.1552940708908231
 50
268.399207119533
 51
273.25737668088289
  0
ARC
  5
1C31
  8
0
 10
99.793661314505826
 20
18.406516433913652
 30
0.0
 40
0.141195112911992
 50
260.88870955377121
 51
269.35540153148651
  0
ARC
  5
1C32
  8
0
 10
99.772736315081204
 20
18.275697363268851
 30
0.0
 40
0.0087132779329368
 50
243.1345892676849
 51
260.52990925200072
  0
ARC
  5
1C33
  8
0
 10
99.769060671973094
 20
18.268361360685159
 30
0.0
 40
0.0005093236980727
 50
196.9844562122156
 51
239.06121214028869
  0
ARC
  5
1C34
  8
0
 10
99.768732742116981
 20
18.26826119973849
 30
0.0
 40
0.0001664385777089
 50
135.3873777665043
 51
196.98445621226691
  0
ARC
  5
1C35
  8
0
 10
99.769679708774632
 20
18.267326952196729
 30
0.0
 40
0.0014966882986155
 50
105.43434227093719
 51
135.38737776649469
  0
ARC
  5
1C36
  8
0
 10
99.771614092124281
 20
18.26182435443646
 30
0.0
 40
0.0073265836512223
 50
101.750252308757
 51
108.5655202199152
  0
ARC
  5
1C37
  8
0
 10
100.2050175200559
 20
18.284255981007451
 30
0.0
 40
0.0177621244807355
 50
191.13334498743421
 51
255.6338956553391
  0
ARC
  5
1C38
  8
0
 10
100.2253949735973
 20
18.363816292161381
 30
0.0
 40
0.0998905831521615
 50
255.6338956553391
 51
267.26396699625082
  0
ARC
  5
1C39
  8
0
 10
100.2444178609896
 20
18.616890695181151
 30
0.0
 40
0.3536522698156036
 50
266.14264740197518
 51
274.8376089373005
  0
ARC
  5
1C3A
  8
0
 10
100.26985949665929
 20
18.331971138731149
 30
0.0
 40
0.0676150832985875
 50
273.71628934302578
 51
288.8135629824946
  0
ARC
  5
1C3B
  8
0
 10
100.2865680895371
 20
18.282928027312249
 30
0.0
 40
0.0158038504083924
 50
288.8135629824929
 51
352.35746604997809
  0
LINE
  5
1C3C
  8
0
 10
99.847250542823161
 20
18.276976478652688
 30
0.0
 11
99.854609194567047
 21
18.308259822135859
 31
0.0
  0
LINE
  5
1C3D
  8
0
 10
99.732784975182355
 20
18.283332233605972
 30
0.0
 11
99.729776973073882
 21
18.308259822135859
 31
0.0
  0
ARC
  5
1C3E
  8
0
 10
99.750376165975155
 20
18.28579049977569
 30
0.0
 40
0.0177621244807355
 50
187.95523308676641
 51
252.45578375467159
  0
ARC
  5
1C3F
  8
0
 10
99.775133109115075
 20
18.364098720864611
 30
0.0
 40
0.0998905831521615
 50
252.45578375467079
 51
264.08585509558287
  0
ARC
  5
1C40
  8
0
 10
99.80815720405262
 20
18.615729269212981
 30
0.0
 40
0.3536522698156036
 50
262.96453550130758
 51
271.65949703663199
  0
ARC
  5
1C41
  8
0
 10
99.817763748697757
 20
18.329837428173061
 30
0.0
 40
0.0676150832985875
 50
270.53817744235789
 51
285.6354510818266
  0
ARC
  5
1C42
  8
0
 10
99.831727690148185
 20
18.27994341858502
 30
0.0
 40
0.0158038504083924
 50
285.6354510818249
 51
349.17935414931031
  0
ARC
  5
1C43
  8
0
 10
99.754354715939314
 20
18.274937953624811
 30
0.0
 40
0.0083408926782711
 50
227.11724594617979
 51
256.45832203551743
  0
ARC
  5
1C44
  8
0
 10
99.749091684960717
 20
18.269127906931871
 30
0.0
 40
0.0005114336616835
 50
109.76729159672379
 51
216.1539399203578
  0
ARC
  5
1C45
  8
0
 10
99.755558637203208
 20
18.256332484975339
 30
0.0
 40
0.0148445207013547
 50
92.072970667063515
 51
116.57043685393
  0
ARC
  5
1C46
  8
0
 10
99.779639053942645
 20
17.964372327746251
 30
0.0
 40
0.3077810336842018
 50
81.886921549174573
 51
94.587612171453941
  0
ARC
  5
1C47
  8
0
 10
99.817385536950084
 20
18.23101422859126
 30
0.0
 40
0.0384816605729576
 50
70.413228752206308
 51
81.497222553270817
  0
ARC
  5
1C48
  8
0
 10
99.829785624241126
 20
18.26507017399215
 30
0.0
 40
0.0022551588470103
 50
36.45214101772148
 51
77.183097735415686
  0
ARC
  5
1C49
  8
0
 10
99.831139596418225
 20
18.266070311558671
 30
0.0
 40
0.0005718538216664
 50
321.42833088820629
 51
36.452141017742093
  0
ARC
  5
1C4A
  8
0
 10
99.829127138401432
 20
18.26843582298547
 30
0.0
 40
0.0036686492025616
 50
284.28206830568661
 51
312.0997844625681
  0
ARC
  5
1C4B
  8
0
 10
99.808463998846719
 20
18.325907623569499
 30
0.0
 40
0.0647262602576966
 50
280.51945802697759
 51
289.46442274680902
  0
ARC
  5
1C4C
  8
0
 10
99.300410204463716
 20
18.276852140682529
 30
0.0
 40
0.0102003790952296
 50
224.50958177743931
 51
249.19698492964341
  0
ARC
  5
1C4D
  8
0
 10
99.293568729615046
 20
18.269973942202022
 30
0.0
 40
0.0005114336616835
 50
105.8169868387341
 51
212.20363516236779
  0
ARC
  5
1C4E
  8
0
 10
99.299138825367237
 20
18.256763403694318
 30
0.0
 40
0.0148445207013547
 50
88.122665909073334
 51
112.62013209593989
  0
ARC
  5
1C4F
  8
0
 10
99.303048541409581
 20
17.963837962668709
 30
0.0
 40
0.3077810336842017
 50
77.936616791184903
 51
90.637307413463844
  0
ARC
  5
1C50
  8
0
 10
99.359074629965534
 20
18.227245968748239
 30
0.0
 40
0.0384816605729576
 50
66.46292399421587
 51
77.546917795281075
  0
ARC
  5
1C51
  8
0
 10
99.373791412307114
 20
18.260366746207168
 30
0.0
 40
0.0022551588470103
 50
32.501836259731128
 51
73.232792977425319
  0
ARC
  5
1C52
  8
0
 10
99.375211068379286
 20
18.261271230836719
 30
0.0
 40
0.0005718538216664
 50
317.47802613021639
 51
32.501836259751421
  0
ARC
  5
1C53
  8
0
 10
99.373366354560403
 20
18.263769762907
 30
0.0
 40
0.0036686492025616
 50
280.33176354769643
 51
308.1494797045774
  0
ARC
  5
1C54
  8
0
 10
99.356711609107975
 20
18.32252852950861
 30
0.0
 40
0.0647262602576966
 50
284.59800239706601
 51
285.51411798881838
  0
ARC
  5
1C55
  8
0
 10
100.2125344421798
 20
18.279370332936011
 30
0.0
 40
0.01475633763182
 50
232.38150690036591
 51
249.1233396151965
  0
ARC
  5
1C56
  8
0
 10
100.2039289565158
 20
18.267998371120662
 30
0.0
 40
0.0005114336616835
 50
111.8347617669634
 51
218.2214100905957
  0
ARC
  5
1C57
  8
0
 10
100.2108533108977
 20
18.25544458241977
 30
0.0
 40
0.0148445207013547
 50
94.140440837302506
 51
118.6379070241686
  0
ARC
  5
1C58
  8
0
 10
100.2454509036013
 20
17.964543213466829
 30
0.0
 40
0.3077810336842018
 50
83.954391719413735
 51
96.655082341692918
  0
ARC
  5
1C59
  8
0
 10
100.27355335344789
 20
18.232373295007879
 30
0.0
 40
0.0384816605729576
 50
72.4806989224451
 51
83.564692723509467
  0
ARC
  5
1C5A
  8
0
 10
100.2847167551684
 20
18.266854420917578
 30
0.0
 40
0.0022551588470103
 50
38.519611187959441
 51
79.25056790565371
  0
ARC
  5
1C5B
  8
0
 10
100.2860337646657
 20
18.26790275378093
 30
0.0
 40
0.0005718538216664
 50
323.49580105844512
 51
38.519611187980381
  0
ARC
  5
1C5C
  8
0
 10
100.2839372777096
 20
18.270194123245432
 30
0.0
 40
0.0036686492025616
 50
286.34953847592499
 51
314.16725463280619
  0
ARC
  5
1C5D
  8
0
 10
100.2612142173586
 20
18.326883061557151
 30
0.0
 40
0.0647262602576966
 50
287.95066651322031
 51
291.5318929170478
  0
LINE
  5
1C5E
  8
0
 10
101.09706365649529
 20
18.272830226235861
 30
0.0
 11
101.08701676079529
 21
18.308259822135859
 31
0.0
  0
ARC
  5
1C5F
  8
0
 10
101.11740872116521
 20
18.64642752539568
 30
0.0
 40
0.3868525965550725
 50
270.61047407508329
 51
280.26002974146968
  0
ARC
  5
1C60
  8
0
 10
101.1140894031343
 20
18.278116285198021
 30
0.0
 40
0.0178274658003308
 50
197.24848355765781
 51
262.37152963188203
  0
ARC
  5
1C61
  8
0
 10
101.1257136495412
 20
18.364906966071999
 30
0.0
 40
0.1053931291113433
 50
262.37152963188203
 51
267.72526637130488
  0
ARC
  5
1C62
  8
0
 10
101.16896638196511
 20
18.355981637151881
 30
0.0
 40
0.0918732795544045
 50
280.88353926179661
 51
288.22188587579939
  0
ARC
  5
1C63
  8
0
 10
101.1930650746053
 20
18.286274174921651
 30
0.0
 40
0.0181587673757371
 50
284.77159792562378
 51
354.01397839097388
  0
LINE
  5
1C64
  8
0
 10
101.21112482889529
 20
18.28438047283586
 30
0.0
 11
101.21355273837629
 21
18.308259822135859
 31
0.0
  0
ARC
  5
1C65
  8
0
 10
101.1685537157918
 20
18.17526601636516
 30
0.0
 40
0.0933932235485928
 50
85.917860331082807
 51
97.214207097570551
  0
ARC
  5
1C66
  8
0
 10
101.17322778498399
 20
18.086765585329029
 30
0.0
 40
0.1818953605879138
 50
95.173644624435283
 51
99.909846331121415
  0
ARC
  5
1C67
  8
0
 10
101.1465213397464
 20
18.232683988577278
 30
0.0
 40
0.0335792515507788
 50
97.869283857981728
 51
109.9291184318943
  0
ARC
  5
1C68
  8
0
 10
101.1361625771478
 20
18.261254379303661
 30
0.0
 40
0.0031889374880322
 50
109.9291184319064
 51
128.907980041429
  0
ARC
  5
1C69
  8
0
 10
101.1343631326673
 20
18.26348381984981
 30
0.0
 40
0.0003239059721565
 50
128.9079800413927
 51
217.73050618428951
  0
ARC
  5
1C6A
  8
0
 10
101.13453991869871
 20
18.263620606037971
 30
0.0
 40
0.000547431724932
 50
217.73050618421499
 51
262.34919845665951
  0
ARC
  5
1C6B
  8
0
 10
101.1394721890948
 20
18.286630983146939
 30
0.0
 40
0.0240788771978488
 50
258.00274218376097
 51
272.22255439321981
  0
ARC
  5
1C6C
  8
0
 10
101.138686339636
 20
18.417854769072012
 30
0.0
 40
0.1552940708908231
 50
270.63448053402749
 51
275.49265009537788
  0
ARC
  5
1C6D
  8
0
 10
101.1423831870388
 20
18.40402651155874
 30
0.0
 40
0.141195112911992
 50
274.53645568342381
 51
283.00314766113991
  0
ARC
  5
1C6E
  8
0
 10
101.17213908033411
 20
18.27492937115861
 30
0.0
 40
0.0087132779329368
 50
283.36194796290948
 51
300.75726794722527
  0
ARC
  5
1C6F
  8
0
 10
101.1763041673465
 20
18.267859764638811
 30
0.0
 40
0.0005093236980727
 50
304.8306450746216
 51
346.907401002695
  0
ARC
  5
1C70
  8
0
 10
101.17663813924911
 20
18.267782092417111
 30
0.0
 40
0.0001664385777089
 50
346.90740100264372
 51
48.504479448405988
  0
ARC
  5
1C71
  8
0
 10
101.1757567670094
 20
18.266785725368841
 30
0.0
 40
0.0014966882986155
 50
48.504479448416397
 51
78.457514943973806
  0
ARC
  5
1C72
  8
0
 10
101.1742003250463
 20
18.261164523587169
 30
0.0
 40
0.0073265836512223
 50
75.326336994995344
 51
82.141604906153404
  0
ARC
  5
1C73
  8
0
 10
100.7067433140721
 20
18.17650718989384
 30
0.0
 40
0.0933932235485928
 50
82.026003116172376
 51
93.322349882660617
  0
ARC
  5
1C74
  8
0
 10
100.7053997704911
 20
18.08789360116705
 30
0.0
 40
0.1818953605879138
 50
91.281787409524625
 51
96.017989116210373
  0
ARC
  5
1C75
  8
0
 10
100.688658904894
 20
18.235288167019409
 30
0.0
 40
0.0335792515507788
 50
93.977426643070785
 51
106.0372612169835
  0
ARC
  5
1C76
  8
0
 10
100.6802632027097
 20
18.264495758047509
 30
0.0
 40
0.0031889374880322
 50
106.0372612169954
 51
125.0161228265176
  0
ARC
  5
1C77
  8
0
 10
100.6786192277996
 20
18.266842191954971
 30
0.0
 40
0.0003239059721565
 50
125.0161228264819
 51
213.8386489693788
  0
ARC
  5
1C78
  8
0
 10
100.6788048903083
 20
18.266966663618469
 30
0.0
 40
0.000547431724932
 50
213.83864896930379
 51
258.4573412417484
  0
ARC
  5
1C79
  8
0
 10
100.6852875814144
 20
18.28958920684374
 30
0.0
 40
0.0240788771978488
 50
254.11088496885091
 51
268.33069717830921
  0
ARC
  5
1C7A
  8
0
 10
100.6934101618983
 20
18.420563720540748
 30
0.0
 40
0.1552940708908231
 50
266.74262331911632
 51
271.60079288046711
  0
ARC
  5
1C7B
  8
0
 10
100.69615991188491
 20
18.406516433913652
 30
0.0
 40
0.141195112911992
 50
270.6445984685127
 51
279.11129044622891
  0
ARC
  5
1C7C
  8
0
 10
100.7170849113095
 20
18.275697363268851
 30
0.0
 40
0.0087132779329368
 50
279.47009074799939
 51
296.86541073231513
  0
ARC
  5
1C7D
  8
0
 10
100.72076055441759
 20
18.268361360685159
 30
0.0
 40
0.0005093236980727
 50
300.93878785971049
 51
343.01554378778388
  0
ARC
  5
1C7E
  8
0
 10
100.72108848427369
 20
18.26826119973849
 30
0.0
 40
0.0001664385777089
 50
343.01554378773289
 51
44.612622233495678
  0
ARC
  5
1C7F
  8
0
 10
100.7201415176161
 20
18.267326952196729
 30
0.0
 40
0.0014966882986155
 50
44.612622233505192
 51
74.565657729062735
  0
ARC
  5
1C80
  8
0
 10
100.71820713426639
 20
18.26182435443646
 30
0.0
 40
0.0073265836512223
 50
71.434479780084743
 51
78.249747691242945
  0
LINE
  5
1C81
  8
0
 10
100.6425706835675
 20
18.276976478652688
 30
0.0
 11
100.6352120318237
 21
18.308259822135859
 31
0.0
  0
LINE
  5
1C82
  8
0
 10
100.75703625120831
 20
18.283332233605972
 30
0.0
 11
100.76004425331681
 21
18.308259822135859
 31
0.0
  0
ARC
  5
1C83
  8
0
 10
100.7394450604156
 20
18.28579049977569
 30
0.0
 40
0.0177621244807355
 50
287.54421624532841
 51
352.04476691323322
  0
ARC
  5
1C84
  8
0
 10
100.7146881172756
 20
18.364098720864611
 30
0.0
 40
0.0998905831521615
 50
275.91414490441713
 51
287.54421624532921
  0
ARC
  5
1C85
  8
0
 10
100.6816640223381
 20
18.615729269212981
 30
0.0
 40
0.3536522698156036
 50
268.3405029633671
 51
277.03546449869242
  0
ARC
  5
1C86
  8
0
 10
100.6720574776929
 20
18.329837428173061
 30
0.0
 40
0.0676150832985875
 50
254.3645489181726
 51
269.4618225576412
  0
ARC
  5
1C87
  8
0
 10
100.6580935362425
 20
18.27994341858502
 30
0.0
 40
0.0158038504083924
 50
190.8206458506896
 51
254.3645489181751
  0
ARC
  5
1C88
  8
0
 10
100.7354665104514
 20
18.274937953624811
 30
0.0
 40
0.0083408926782711
 50
283.54167796448257
 51
312.88275405381961
  0
ARC
  5
1C89
  8
0
 10
100.74072954143
 20
18.269127906931871
 30
0.0
 40
0.0005114336616835
 50
323.84606007964231
 51
70.23270840327541
  0
ARC
  5
1C8A
  8
0
 10
100.73426258918749
 20
18.256332484975339
 30
0.0
 40
0.0148445207013547
 50
63.429563146070031
 51
87.927029332936485
  0
ARC
  5
1C8B
  8
0
 10
100.7101821724481
 20
17.964372327746251
 30
0.0
 40
0.3077810336842018
 50
85.412387828546045
 51
98.113078450825427
  0
ARC
  5
1C8C
  8
0
 10
100.6724356894406
 20
18.23101422859126
 30
0.0
 40
0.0384816605729576
 50
98.502777446729155
 51
109.58677124779371
  0
ARC
  5
1C8D
  8
0
 10
100.66003560214961
 20
18.26507017399215
 30
0.0
 40
0.0022551588470103
 50
102.8169022645843
 51
143.5478589822784
  0
ARC
  5
1C8E
  8
0
 10
100.65868162997251
 20
18.266070311558671
 30
0.0
 40
0.0005718538216664
 50
143.54785898225791
 51
218.57166911179269
  0
ARC
  5
1C8F
  8
0
 10
100.6606940879893
 20
18.26843582298547
 30
0.0
 40
0.0036686492025616
 50
227.9002155374319
 51
255.7179316943126
  0
ARC
  5
1C90
  8
0
 10
100.681357227544
 20
18.325907623569499
 30
0.0
 40
0.0647262602576966
 50
250.53557725319101
 51
259.4805419730223
  0
ARC
  5
1C91
  8
0
 10
101.189411021927
 20
18.276852140682529
 30
0.0
 40
0.0102003790952296
 50
290.80301507035671
 51
315.49041822256072
  0
ARC
  5
1C92
  8
0
 10
101.1962524967757
 20
18.269973942202022
 30
0.0
 40
0.0005114336616835
 50
327.79636483763221
 51
74.183013161265919
  0
ARC
  5
1C93
  8
0
 10
101.19068240102349
 20
18.256763403694318
 30
0.0
 40
0.0148445207013547
 50
67.379867904059324
 51
91.877334090925828
  0
ARC
  5
1C94
  8
0
 10
101.18677268498109
 20
17.963837962668709
 30
0.0
 40
0.3077810336842017
 50
89.362692586536156
 51
102.0633832088151
  0
ARC
  5
1C95
  8
0
 10
101.1307465964252
 20
18.227245968748239
 30
0.0
 40
0.0384816605729576
 50
102.4530822047189
 51
113.5370760057841
  0
ARC
  5
1C96
  8
0
 10
101.1160298140836
 20
18.260366746207168
 30
0.0
 40
0.0022551588470103
 50
106.7672070225746
 51
147.49816374026881
  0
ARC
  5
1C97
  8
0
 10
101.1146101580114
 20
18.261271230836719
 30
0.0
 40
0.0005718538216664
 50
147.4981637402486
 51
222.52197386978349
  0
ARC
  5
1C98
  8
0
 10
101.1164548718303
 20
18.263769762907
 30
0.0
 40
0.0036686492025616
 50
231.85052029542189
 51
259.66823645230272
  0
ARC
  5
1C99
  8
0
 10
101.1331096172827
 20
18.32252852950861
 30
0.0
 40
0.0647262602576966
 50
254.48588201118159
 51
255.40199760293399
  0
LINE
  5
1C9A
  8
0
 10
89.866210613195364
 20
18.740459822135861
 30
0.0
 11
89.866210613195364
 21
18.642459822135859
 31
0.0
  0
LINE
  5
1C9B
  8
0
 10
90.202410613195354
 20
18.94045982213586
 30
0.0
 11
90.202410613195354
 21
18.988259822135859
 31
0.0
  0
LINE
  5
1C9C
  8
0
 10
90.302410613195363
 20
18.988259822135859
 30
0.0
 11
90.302410613195363
 21
18.94045982213586
 31
0.0
  0
LINE
  5
1C9D
  8
0
 10
90.470410613195355
 20
18.740459822135861
 30
0.0
 11
90.470410613195355
 21
18.920459822135861
 31
0.0
  0
LINE
  5
1C9E
  8
0
 10
90.599610613195367
 20
19.06545982213586
 30
0.0
 11
90.599610613195367
 21
21.793259822135859
 31
0.0
  0
LINE
  5
1C9F
  8
0
 10
90.621410613195366
 20
18.988259822135859
 30
0.0
 11
90.621410613195366
 21
18.94045982213586
 31
0.0
  0
LINE
  5
1CA0
  8
0
 10
90.652410613195357
 20
18.94045982213586
 30
0.0
 11
90.652410613195357
 21
18.988259822135859
 31
0.0
  0
LINE
  5
1CA1
  8
0
 10
90.652410613195357
 20
18.988259822135859
 30
0.0
 11
90.652410613195357
 21
19.06545982213586
 31
0.0
  0
LINE
  5
1CA2
  8
0
 10
90.702310613195365
 20
19.041559822135859
 30
0.0
 11
90.702310613195365
 21
19.06545982213586
 31
0.0
  0
LINE
  5
1CA3
  8
0
 10
90.731210613195358
 20
21.87205982213586
 30
0.0
 11
90.731210613195358
 21
21.793259822135859
 31
0.0
  0
LINE
  5
1CA4
  8
0
 10
90.889129825095367
 20
18.94045982213586
 30
0.0
 11
90.889129825095367
 21
18.988259822135859
 31
0.0
  0
LINE
  5
1CA5
  8
0
 10
91.601691401395357
 20
18.988259822135859
 30
0.0
 11
91.601691401395357
 21
18.94045982213586
 31
0.0
  0
LINE
  5
1CA6
  8
0
 10
96.889129825095367
 20
18.94045982213586
 30
0.0
 11
96.889129825095367
 21
18.988259822135859
 31
0.0
  0
LINE
  5
1CA7
  8
0
 10
97.601691401395357
 20
18.988259822135859
 30
0.0
 11
97.601691401395357
 21
18.94045982213586
 31
0.0
  0
LINE
  5
1CA8
  8
0
 10
89.990410613195365
 20
18.740459822135861
 30
0.0
 11
89.866210613195364
 21
18.740459822135861
 31
0.0
  0
LINE
  5
1CA9
  8
0
 10
89.990410613195365
 20
18.740459822135861
 30
0.0
 11
110.5004106131953
 21
18.740459822135861
 31
0.0
  0
LINE
  5
1CAA
  8
0
 10
110.5004106131953
 20
18.740459822135861
 30
0.0
 11
110.6246106131953
 21
18.740459822135861
 31
0.0
  0
LINE
  5
1CAB
  8
0
 10
90.202410613195354
 20
18.94045982213586
 30
0.0
 11
90.621410613195366
 21
18.94045982213586
 31
0.0
  0
LINE
  5
1CAC
  8
0
 10
90.621410613195366
 20
18.94045982213586
 30
0.0
 11
90.652410613195357
 21
18.94045982213586
 31
0.0
  0
LINE
  5
1CAD
  8
0
 10
90.652410613195357
 20
18.94045982213586
 30
0.0
 11
109.83841061319529
 21
18.94045982213586
 31
0.0
  0
LINE
  5
1CAE
  8
0
 10
109.83841061319529
 20
18.94045982213586
 30
0.0
 11
109.8694106131953
 21
18.94045982213586
 31
0.0
  0
LINE
  5
1CAF
  8
0
 10
109.8694106131953
 20
18.94045982213586
 30
0.0
 11
110.2884106131953
 21
18.94045982213586
 31
0.0
  0
LINE
  5
1CB0
  8
0
 10
110.2884106131953
 20
18.988259822135859
 30
0.0
 11
109.8694106131953
 21
18.988259822135859
 31
0.0
  0
LINE
  5
1CB1
  8
0
 10
90.202410613195354
 20
18.988259822135859
 30
0.0
 11
90.621410613195366
 21
18.988259822135859
 31
0.0
  0
LINE
  5
1CB2
  8
0
 10
90.652410613195357
 20
18.988259822135859
 30
0.0
 11
91.601529185395364
 21
18.988259822135859
 31
0.0
  0
LINE
  5
1CB3
  8
0
 10
91.601691401395357
 20
18.988259822135859
 30
0.0
 11
97.601529185395364
 21
18.988259822135859
 31
0.0
  0
LINE
  5
1CB4
  8
0
 10
97.601691401395357
 20
18.988259822135859
 30
0.0
 11
103.60152918539529
 21
18.988259822135859
 31
0.0
  0
LINE
  5
1CB5
  8
0
 10
103.6016914013953
 20
18.988259822135859
 30
0.0
 11
109.60152918539529
 21
18.988259822135859
 31
0.0
  0
LINE
  5
1CB6
  8
0
 10
109.6016914013953
 20
18.988259822135859
 30
0.0
 11
109.83841061319529
 21
18.988259822135859
 31
0.0
  0
LINE
  5
1CB7
  8
0
 10
109.83841061319529
 20
19.041559822135859
 30
0.0
 11
109.7885106131953
 21
19.041559822135859
 31
0.0
  0
LINE
  5
1CB8
  8
0
 10
90.652410613195357
 20
19.041559822135859
 30
0.0
 11
90.702310613195365
 21
19.041559822135859
 31
0.0
  0
LINE
  5
1CB9
  8
0
 10
90.599610613195367
 20
19.06545982213586
 30
0.0
 11
90.702310613195365
 21
19.06545982213586
 31
0.0
  0
LINE
  5
1CBA
  8
0
 10
109.7885106131953
 20
19.06545982213586
 30
0.0
 11
109.8912106131953
 21
19.06545982213586
 31
0.0
  0
LINE
  5
1CBB
  8
0
 10
90.599610613195367
 20
21.793259822135859
 30
0.0
 11
109.8912106131953
 21
21.793259822135859
 31
0.0
  0
LINE
  5
1CBC
  8
0
 10
90.731210613195358
 20
21.87205982213586
 30
0.0
 11
109.75961061319531
 21
21.87205982213586
 31
0.0
  0
LINE
  5
1CBD
  8
0
 10
102.8891298250953
 20
18.94045982213586
 30
0.0
 11
102.8891298250953
 21
18.988259822135859
 31
0.0
  0
LINE
  5
1CBE
  8
0
 10
103.6016914013953
 20
18.988259822135859
 30
0.0
 11
103.6016914013953
 21
18.94045982213586
 31
0.0
  0
LINE
  5
1CBF
  8
0
 10
109.6016914013953
 20
18.988259822135859
 30
0.0
 11
109.6016914013953
 21
18.94045982213586
 31
0.0
  0
LINE
  5
1CC0
  8
0
 10
109.75961061319531
 20
21.793259822135859
 30
0.0
 11
109.75961061319531
 21
21.87205982213586
 31
0.0
  0
LINE
  5
1CC1
  8
0
 10
109.7885106131953
 20
19.041559822135859
 30
0.0
 11
109.7885106131953
 21
19.06545982213586
 31
0.0
  0
LINE
  5
1CC2
  8
0
 10
109.83841061319529
 20
19.019259822135862
 30
0.0
 11
109.83841061319529
 21
19.06545982213586
 31
0.0
  0
LINE
  5
1CC3
  8
0
 10
109.8912106131953
 20
21.793259822135859
 30
0.0
 11
109.8912106131953
 21
19.06545982213586
 31
0.0
  0
LINE
  5
1CC4
  8
0
 10
110.0204106131953
 20
18.920459822135861
 30
0.0
 11
110.0204106131953
 21
18.740459822135861
 31
0.0
  0
LINE
  5
1CC5
  8
0
 10
110.2884106131953
 20
18.988259822135859
 30
0.0
 11
110.2884106131953
 21
18.94045982213586
 31
0.0
  0
LINE
  5
1CC6
  8
0
 10
110.6246106131953
 20
18.740459822135861
 30
0.0
 11
110.6246106131953
 21
18.642459822135859
 31
0.0
  0
ARC
  5
1CC7
  8
0
 10
90.618632930170349
 20
19.029647824988821
 30
0.0
 40
0.0414811077858887
 50
273.83954770681771
 51
324.51729466620287
  0
ARC
  5
1CC8
  8
0
 10
90.490410613195365
 20
18.920459822135861
 30
0.0
 40
0.02
 50
89.999999999799684
 51
180.0000000006001
  0
ARC
  5
1CC9
  8
0
 10
90.731210613195358
 20
21.793259822135859
 30
0.0
 40
0.0788
 50
90.0
 51
180.0
  0
ARC
  5
1CCA
  8
0
 10
90.731210613195358
 20
21.793259822135859
 30
0.0
 40
0.031
 50
90.0
 51
180.0
  0
ARC
  5
1CCB
  8
0
 10
109.8694106131953
 20
19.019259822135862
 30
0.0
 40
0.031
 50
180.0
 51
270.0
  0
ARC
  5
1CCC
  8
0
 10
110.0004106131953
 20
18.920459822135861
 30
0.0
 40
0.02
 50
0.0
 51
90.000000000099334
  0
ARC
  5
1CCD
  8
0
 10
109.75961061319531
 20
21.793259822135859
 30
0.0
 40
0.0788
 50
0.0
 51
90.0
  0
LINE
  5
1CCE
  8
0
 10
109.83841061319541
 20
19.019259822135862
 30
0.0
 11
109.83841061319529
 21
18.94045982213586
 31
0.0
  0
ENDSEC
  0
EOF
