  0
SECTION
  2
HEADER
  9
$ACADVER
  1
AC1009
  9
$INSBASE
 10
4789.6897498772623294
 20
238.7561676471104875
 30
0.0
  9
$EXTMIN
 10
4787.366915231562416
 20
237.6058755649605132
 30
0.0
  9
$EXTMAX
 10
4789.6897498772623294
 20
239.897899930660401
 30
0.0
  9
$LIMMIN
 10
0.0
 20
0.0
  9
$LIMMAX
 10
11.6929133858000007
 20
8.2677165353999982
  9
$ORTHOMODE
 70
     0
  9
$REGENMODE
 70
     1
  9
$FILLMODE
 70
     1
  9
$QTEXTMODE
 70
     0
  9
$MIRRTEXT
 70
     0
  9
$DRAGMODE
 70
     2
  9
$LTSCALE
 40
0.6431102362
  9
$OSMODE
 70
  4095
  9
$ATTMODE
 70
     1
  9
$TEXTSIZE
 40
0.2
  9
$TRACEWID
 40
0.05
  9
$TEXTSTYLE
  7
STANDARD
  9
$CLAYER
  8
0
  9
$CELTYPE
  6
BYLAYER
  9
$CECOLOR
 62
   256
  9
$DIMSCALE
 40
1.0
  9
$DIMASZ
 40
0.1875
  9
$DIMEXO
 40
0.0625
  9
$DIMDLI
 40
0.4443307087
  9
$DIMRND
 40
0.0
  9
$DIMDLE
 40
0.0
  9
$DIMEXE
 40
0.125
  9
$DIMTP
 40
0.01
  9
$DIMTM
 40
0.01
  9
$DIMTXT
 40
2.0
  9
$DIMCEN
 40
0.1052362205
  9
$DIMTSZ
 40
0.0
  9
$DIMTOL
 70
     1
  9
$DIMLIM
 70
     0
  9
$DIMTIH
 70
     1
  9
$DIMTOH
 70
     1
  9
$DIMSE1
 70
     0
  9
$DIMSE2
 70
     0
  9
$DIMTAD
 70
     0
  9
$DIMZIN
 70
     0
  9
$DIMBLK
  1

  9
$DIMASO
 70
     1
  9
$DIMSHO
 70
     1
  9
$DIMPOST
  1
\X
  9
$DIMAPOST
  1

  9
$DIMALT
 70
     1
  9
$DIMALTD
 70
     2
  9
$DIMALTF
 40
25.3999999999999986
  9
$DIMLFAC
 40
1.0
  9
$DIMTOFL
 70
     0
  9
$DIMTVP
 40
0.0
  9
$DIMTIX
 70
     0
  9
$DIMSOXD
 70
     0
  9
$DIMSAH
 70
     0
  9
$DIMBLK1
  1

  9
$DIMBLK2
  1

  9
$DIMSTYLE
  2
STANDARD
  9
$DIMCLRD
 70
     0
  9
$DIMCLRE
 70
     0
  9
$DIMCLRT
 70
     0
  9
$DIMTFAC
 40
1.0
  9
$DIMGAP
 40
0.09
  9
$LUNITS
 70
     2
  9
$LUPREC
 70
     4
  9
$SKETCHINC
 40
0.1
  9
$FILLETRAD
 40
0.0
  9
$AUNITS
 70
     0
  9
$AUPREC
 70
     0
  9
$MENU
  1
.
  9
$ELEVATION
 40
0.0
  9
$PELEVATION
 40
0.0
  9
$THICKNESS
 40
0.0
  9
$LIMCHECK
 70
     0
  9
$BLIPMODE
 70
     0
  9
$CHAMFERA
 40
0.0
  9
$CHAMFERB
 40
0.0
  9
$SKPOLY
 70
     0
  9
$TDCREATE
 40
2458060.468368056230247
  9
$TDUPDATE
 40
2459578.7826504628174007
  9
$TDINDWG
 40
0.3730278935
  9
$TDUSRTIMER
 40
0.3730278935
  9
$USRTIMER
 70
     1
  9
$ANGBASE
 50
0.0
  9
$ANGDIR
 70
     0
  9
$PDMODE
 70
     0
  9
$PDSIZE
 40
0.3125
  9
$PLINEWID
 40
0.0
  9
$COORDS
 70
     1
  9
$SPLFRAME
 70
     0
  9
$SPLINETYPE
 70
     6
  9
$SPLINESEGS
 70
     8
  9
$ATTDIA
 70
     1
  9
$ATTREQ
 70
     1
  9
$HANDLING
 70
     1
  9
$HANDSEED
  5
CDD3
  9
$SURFTAB1
 70
     6
  9
$SURFTAB2
 70
     6
  9
$SURFTYPE
 70
     6
  9
$SURFU
 70
     6
  9
$SURFV
 70
     6
  9
$UCSNAME
  2

  9
$UCSORG
 10
0.0
 20
0.0
 30
0.0
  9
$UCSXDIR
 10
1.0
 20
0.0
 30
0.0
  9
$UCSYDIR
 10
0.0
 20
1.0
 30
0.0
  9
$PUCSNAME
  2

  9
$PUCSORG
 10
0.0
 20
0.0
 30
0.0
  9
$PUCSXDIR
 10
1.0
 20
0.0
 30
0.0
  9
$PUCSYDIR
 10
0.0
 20
1.0
 30
0.0
  9
$USERI1
 70
     0
  9
$USERI2
 70
     0
  9
$USERI3
 70
     0
  9
$USERI4
 70
     0
  9
$USERI5
 70
     0
  9
$USERR1
 40
0.0
  9
$USERR2
 40
0.0
  9
$USERR3
 40
0.0
  9
$USERR4
 40
0.0
  9
$USERR5
 40
0.0
  9
$WORLDVIEW
 70
     1
  9
$SHADEDGE
 70
     3
  9
$SHADEDIF
 70
    70
  9
$TILEMODE
 70
     1
  9
$MAXACTVP
 70
    64
  9
$PLIMCHECK
 70
     0
  9
$PEXTMIN
 10
1.0000000000000000E+20
 20
1.0000000000000000E+20
 30
1.0000000000000000E+20
  9
$PEXTMAX
 10
-1.0000000000000000E+20
 20
-1.0000000000000000E+20
 30
-1.0000000000000000E+20
  9
$PLIMMIN
 10
0.0
 20
0.0
  9
$PLIMMAX
 10
12.0
 20
9.0
  9
$UNITMODE
 70
     0
  9
$VISRETAIN
 70
     1
  9
$PLINEGEN
 70
     0
  9
$PSLTSCALE
 70
     1
  0
ENDSEC
  0
SECTION
  2
TABLES
  0
TABLE
  2
VPORT
 70
     1
  0
VPORT
  2
*ACTIVE
 70
     0
 10
0.0
 20
0.0
 11
1.0
 21
1.0
 12
0.0
 22
0.0
 13
0.0
 23
0.0
 14
1.0
 24
1.0
 15
0.0
 25
0.0
 16
0.0
 26
0.0
 36
10.7409098480321106
 17
4788.5283203125
 27
238.7518920898436932
 37
0.0
 40
3.264592243584854
 41
2.5429292929292919
 42
50.0
 43
0.0
 44
0.0
 50
0.0
 51
0.0
 71
     0
 72
   100
 73
     1
 74
     1
 75
     0
 76
     0
 77
     0
 78
     0
  0
ENDTAB
  0
TABLE
  2
LTYPE
 70
     2
  0
LTYPE
  2
CONTINUOUS
 70
     0
  3
Solid line
 72
    65
 73
     0
 40
0.0
  0
LTYPE
  2
PHANTOM2
 70
     0
  3
___ _ _ ___ _ _ ___ _ _ ___ _ _
 72
    65
 73
     6
 40
1.25
 49
0.625
 49
-0.125
 49
0.125
 49
-0.125
 49
0.125
 49
-0.125
  0
ENDTAB
  0
TABLE
  2
LAYER
 70
     2
  0
LAYER
  2
0
 70
     0
 62
   255
  6
CONTINUOUS
  0
LAYER
  2
DEFPOINTS
 70
     0
 62
     7
  6
CONTINUOUS
  0
ENDTAB
  0
TABLE
  2
STYLE
 70
     1
  0
STYLE
  2
STANDARD
 70
     0
 40
0.0
 41
0.8
 50
0.0
 71
     0
 42
0.2
  3
txt
  4

  0
ENDTAB
  0
TABLE
  2
VIEW
 70
     0
  0
ENDTAB
  0
TABLE
  2
UCS
 70
     0
  0
ENDTAB
  0
TABLE
  2
APPID
 70
    10
  0
APPID
  2
ACAD
 70
     0
  0
APPID
  2
ACAD_MLEADERVER
 70
     0
  0
APPID
  2
ACAD_EXEMPT_FROM_CAD_STANDARDS
 70
     0
  0
APPID
  2
ACAD_NAV_VCDISPLAY
 70
     0
  0
APPID
  2
ACAECLAYERSTANDARD
 70
     0
  0
APPID
  2
ACCMTRANSPARENCY
 70
     0
  0
APPID
  2
ACAD_DSTYLE_DIMJAG
 70
     0
  0
APPID
  2
ACAD_DSTYLE_DIMTALN
 70
     0
  0
APPID
  2
ACDBATTR
 70
     0
  0
APPID
  2
ACADANNOTATIVE
 70
     0
  0
ENDTAB
  0
TABLE
  2
DIMSTYLE
 70
     2
  0
DIMSTYLE
  2
STANDARD
 70
     0
  3

  4

  5

  6

  7

 40
1.0
 41
0.1875
 42
0.0625
 43
0.38
 44
0.125
 45
0.0
 46
0.0
 47
0.01
 48
0.01
140
0.15625
141
0.09
142
0.0
143
25.3999999999999986
144
1.0
145
0.0
146
1.0
147
0.09
 71
     1
 72
     0
 73
     1
 74
     1
 75
     0
 76
     0
 77
     0
 78
     4
170
     0
171
     2
172
     0
173
     0
174
     0
175
     0
176
     0
177
     0
178
     0
  0
DIMSTYLE
  2
ANNOTATIVE
 70
     0
  3

  4

  5

  6

  7

 40
0.0
 41
0.18
 42
0.0625
 43
0.38
 44
0.18
 45
0.0
 46
0.0
 47
0.0
 48
0.0
140
0.18
141
0.09
142
0.0
143
25.3999999999999986
144
1.0
145
0.0
146
1.0
147
0.09
 71
     0
 72
     0
 73
     1
 74
     1
 75
     0
 76
     0
 77
     0
 78
     0
170
     0
171
     2
172
     0
173
     0
174
     0
175
     0
176
     0
177
     0
178
     0
  0
ENDTAB
  0
ENDSEC
  0
SECTION
  2
BLOCKS
  0
BLOCK
  8
0
  2
$MODEL_SPACE
 70
     0
 10
0.0
 20
0.0
 30
0.0
  3
$MODEL_SPACE
  1

  0
ENDBLK
  5
21
  8
0
  0
BLOCK
 67
     1
  8
0
  2
$PAPER_SPACE
 70
     0
 10
0.0
 20
0.0
 30
0.0
  3
$PAPER_SPACE
  1

  0
ENDBLK
  5
1D
 67
     1
  8
0
  0
ENDSEC
  0
SECTION
  2
ENTITIES
  0
ATTDEF
  5
3930
  8
DEFPOINTS
 10
4789.6774708475777516
 20
238.7526053140946942
 30
0.0
 40
0.001
  1
K-98351
  3

  2
MODELNUMBER
 70
     0
1001
ACDBATTR
1070
     0
1070
     1
  0
ATTDEF
  5
3931
  8
DEFPOINTS
 10
4789.6774708475777516
 20
238.7509386474280859
 30
0.0
 40
0.001
  1
AWAKEN
  3

  2
TRADENAME
 70
     0
1001
ACDBATTR
1070
     0
1070
     1
  0
ATTDEF
  5
3932
  8
DEFPOINTS
 10
4789.6774708475777516
 20
238.7492719807613923
 30
0.0
 40
0.001
  1
SUPPLY ELBOW
  3

  2
PRODUCT
 70
     0
1001
ACDBATTR
1070
     0
1070
     1
  0
LINE
  5
CCE4
  8
0
 10
4787.366915231562416
 20
238.0291039113604086
 30
0.0
 11
4787.366915231562416
 21
239.4832313828603958
 31
0.0
  0
LINE
  5
CCE5
  8
0
 10
4787.6129782236621395
 20
237.9995763523604921
 30
0.0
 11
4787.6129991401621737
 21
237.9011511554604965
 31
0.0
  0
LINE
  5
CCE6
  8
0
 10
4788.3413246803620495
 20
237.9995763523604921
 30
0.0
 11
4788.3413246803620495
 21
237.9011511554604965
 31
0.0
  0
LINE
  5
CCE7
  8
0
 10
4789.6897498772623294
 20
237.614435363660391
 30
0.0
 11
4789.443686885061652
 21
237.614435363660391
 31
0.0
  0
LINE
  5
CCE8
  8
0
 10
4787.6129783616615896
 20
237.9011511554604965
 30
0.0
 11
4788.3413246803620495
 21
237.9011511554604965
 31
0.0
  0
LINE
  5
CCE9
  8
0
 10
4787.3964439174624204
 20
237.9995763523604921
 30
0.0
 11
4789.4141593260619629
 21
237.9995763523604921
 31
0.0
  0
LINE
  5
CCEA
  8
0
 10
4789.4141593260619629
 20
237.6439629226605064
 30
0.0
 11
4789.4141593260619629
 21
239.8683723715604117
 31
0.0
  0
LINE
  5
CCEB
  8
0
 10
4789.6897498772623294
 20
237.614435363660391
 30
0.0
 11
4789.6897498772623294
 21
239.8978999305604134
 31
0.0
  0
LINE
  5
CCEC
  8
0
 10
4787.3964434262634313
 20
239.5127589419604988
 30
0.0
 11
4789.4141593260619629
 21
239.5127589419604988
 31
0.0
  0
LINE
  5
CCED
  8
0
 10
4789.443686885061652
 20
239.8978999305604134
 30
0.0
 11
4789.6897498772623294
 21
239.8978999305604134
 31
0.0
  0
ARC
  5
CCEE
  8
0
 10
4789.443686885061652
 20
239.8683723715604117
 30
0.0
 40
0.0295275591
 50
90.0
 51
180.0
  0
ARC
  5
CCEF
  8
0
 10
4789.443686885061652
 20
237.6439629226605064
 30
0.0
 40
0.0295275591
 50
180.0
 51
270.0
  0
ARC
  5
CCF0
  8
0
 10
4787.3964427906739729
 20
239.4832313828555925
 30
0.0
 40
0.0295275591116811
 50
89.9987666935876547
 51
179.9999999906104051
  0
ARC
  5
CCF1
  8
0
 10
4787.3964427906621495
 20
238.0291039113604086
 30
0.0
 40
0.0295275591
 50
180.0
 51
270.0
  0
LINE
  5
CCF2
  8
0
 10
4787.6129991401621737
 20
237.9011511554604965
 30
0.0
 11
4787.5707123537622465
 21
237.8588852855604046
 31
0.0
  0
LINE
  5
CCF3
  8
0
 10
4787.5707123537622465
 20
237.8588852855604046
 30
0.0
 11
4787.6130102836632432
 21
237.8306792821105091
 31
0.0
  0
LINE
  5
CCF4
  8
0
 10
4787.6130102836632432
 20
237.8306792821105091
 30
0.0
 11
4787.5637656252620218
 21
237.794831531810388
 31
0.0
  0
LINE
  5
CCF5
  8
0
 10
4787.5637656252620218
 20
237.794831531810388
 30
0.0
 11
4787.6129982150623619
 21
237.7592799779604888
 31
0.0
  0
LINE
  5
CCF6
  8
0
 10
4787.6129982150623619
 20
237.7592799779604888
 30
0.0
 11
4787.5637656252620218
 21
237.7234142089604916
 31
0.0
  0
LINE
  5
CCF7
  8
0
 10
4787.5637656252620218
 20
237.7234142089604916
 30
0.0
 11
4787.6130023745627113
 21
237.687863071310403
 31
0.0
  0
LINE
  5
CCF8
  8
0
 10
4787.6130023745627113
 20
237.687863071310403
 30
0.0
 11
4787.5637656252620218
 21
237.6550881633604888
 31
0.0
  0
LINE
  5
CCF9
  8
0
 10
4787.5637656252620218
 20
237.6550881633604888
 30
0.0
 11
4787.6129917306634525
 21
237.6162971402604001
 31
0.0
  0
LINE
  5
CCFA
  8
0
 10
4787.6129917306634525
 20
237.6162971402604001
 30
0.0
 11
4787.6089403848618531
 21
237.6101714247604946
 31
0.0
  0
LINE
  5
CCFB
  8
0
 10
4787.6089403848618531
 20
237.6101714247604946
 30
0.0
 11
4787.6129838234619456
 21
237.6058755649605132
 31
0.0
  0
LINE
  5
CCFC
  8
0
 10
4787.6129838234619456
 20
237.6058755649605132
 30
0.0
 11
4788.3413246803620495
 21
237.6058755649605132
 31
0.0
  0
LINE
  5
CCFD
  8
0
 10
4788.3413246803620495
 20
237.6058755649605132
 30
0.0
 11
4788.3680684633627607
 21
237.6326193479604001
 31
0.0
  0
LINE
  5
CCFE
  8
0
 10
4788.3680684633627607
 20
237.6326193479604001
 30
0.0
 11
4788.3413006506625607
 21
237.6518466321604137
 31
0.0
  0
LINE
  5
CCFF
  8
0
 10
4788.3413006506625607
 20
237.6518466321604137
 30
0.0
 11
4788.3905372787621673
 21
237.6877055475603981
 31
0.0
  0
LINE
  5
CD00
  8
0
 10
4788.3905372787621673
 20
237.6877055475603981
 30
0.0
 11
4788.3413109436623927
 21
237.7232588435603873
 31
0.0
  0
LINE
  5
CD01
  8
0
 10
4788.3413109436623927
 20
237.7232588435603873
 30
0.0
 11
4788.3905372787621673
 21
237.7591228703603861
 31
0.0
  0
LINE
  5
CD02
  8
0
 10
4788.3905372787621673
 20
237.7591228703603861
 30
0.0
 11
4788.3412784363617902
 21
237.7946665702104099
 31
0.0
  0
LINE
  5
CD03
  8
0
 10
4788.3412784363617902
 20
237.7946665702104099
 30
0.0
 11
4788.3905372787621673
 21
237.8305402513603894
 31
0.0
  0
LINE
  5
CD04
  8
0
 10
4788.3905372787621673
 20
237.8305402513603894
 30
0.0
 11
4788.341323445962189
 21
237.8660950206104019
 31
0.0
  0
LINE
  5
CD05
  8
0
 10
4788.341323445962189
 20
237.8660950206104019
 30
0.0
 11
4788.3608845190110515
 21
237.881333630960512
 31
0.0
  0
LINE
  5
CD06
  8
0
 10
4788.3608845190110515
 20
237.881333630960512
 30
0.0
 11
4788.3413246803620495
 21
237.9011511554604965
 31
0.0
  0
LINE
  5
CD07
  8
0
 10
4788.341323445962189
 20
237.8660950206104019
 30
0.0
 11
4787.6130102836632432
 21
237.8306792821105091
 31
0.0
  0
LINE
  5
CD08
  8
0
 10
4788.3412784363617902
 20
237.7946665702104099
 30
0.0
 11
4787.6129982150623619
 21
237.7592799779604888
 31
0.0
  0
LINE
  5
CD09
  8
0
 10
4788.3413109436623927
 20
237.7232588435603873
 30
0.0
 11
4787.6130023745627113
 21
237.687863071310403
 31
0.0
  0
LINE
  5
CD0A
  8
0
 10
4788.3413006506625607
 20
237.6518466321604137
 30
0.0
 11
4787.6129917306634525
 21
237.6162971402604001
 31
0.0
  0
ENDSEC
  0
EOF
