  0
SECTION
  2
HEADER
  9
$ACADVER
  1
AC1009
  9
$INSBASE
 10
21.3036607377
 20
2.6996518470500011
 30
0.0
  9
$EXTMIN
 10
18.2905609289
 20
-12.12731662590409
 30
0.0
  9
$EXTMAX
 10
21.324899707428131
 20
17.526226650199991
 30
0.0
  9
$LIMMIN
 10
0.0
 20
0.0
  9
$LIMMAX
 10
11.692913385800001
 20
8.2677165353999982
  9
$ORTHOMODE
 70
     0
  9
$REGENMODE
 70
     1
  9
$FILLMODE
 70
     1
  9
$QTEXTMODE
 70
     0
  9
$MIRRTEXT
 70
     0
  9
$DRAGMODE
 70
     2
  9
$LTSCALE
 40
0.6431102362
  9
$OSMODE
 70
  3071
  9
$ATTMODE
 70
     1
  9
$TEXTSIZE
 40
0.2
  9
$TRACEWID
 40
0.05
  9
$TEXTSTYLE
  7
STANDARD
  9
$CLAYER
  8
0
  9
$CELTYPE
  6
BYLAYER
  9
$CECOLOR
 62
   256
  9
$DIMSCALE
 40
1.0
  9
$DIMASZ
 40
0.1875
  9
$DIMEXO
 40
0.0625
  9
$DIMDLI
 40
0.4443307087
  9
$DIMRND
 40
0.0
  9
$DIMDLE
 40
0.0
  9
$DIMEXE
 40
0.125
  9
$DIMTP
 40
0.01
  9
$DIMTM
 40
0.01
  9
$DIMTXT
 40
1.0
  9
$DIMCEN
 40
0.1052362205
  9
$DIMTSZ
 40
0.0
  9
$DIMTOL
 70
     1
  9
$DIMLIM
 70
     0
  9
$DIMTIH
 70
     1
  9
$DIMTOH
 70
     1
  9
$DIMSE1
 70
     0
  9
$DIMSE2
 70
     0
  9
$DIMTAD
 70
     0
  9
$DIMZIN
 70
     0
  9
$DIMBLK
  1

  9
$DIMASO
 70
     1
  9
$DIMSHO
 70
     1
  9
$DIMPOST
  1
\X
  9
$DIMAPOST
  1

  9
$DIMALT
 70
     1
  9
$DIMALTD
 70
     2
  9
$DIMALTF
 40
25.399999999999999
  9
$DIMLFAC
 40
1.0
  9
$DIMTOFL
 70
     0
  9
$DIMTVP
 40
0.0
  9
$DIMTIX
 70
     0
  9
$DIMSOXD
 70
     0
  9
$DIMSAH
 70
     0
  9
$DIMBLK1
  1

  9
$DIMBLK2
  1

  9
$DIMSTYLE
  2
STANDARD
  9
$DIMCLRD
 70
     0
  9
$DIMCLRE
 70
     0
  9
$DIMCLRT
 70
     0
  9
$DIMTFAC
 40
1.0
  9
$DIMGAP
 40
0.09
  9
$LUNITS
 70
     2
  9
$LUPREC
 70
     4
  9
$SKETCHINC
 40
0.1
  9
$FILLETRAD
 40
0.0
  9
$AUNITS
 70
     0
  9
$AUPREC
 70
     0
  9
$MENU
  1
.
  9
$ELEVATION
 40
0.0
  9
$PELEVATION
 40
0.0
  9
$THICKNESS
 40
0.0
  9
$LIMCHECK
 70
     0
  9
$BLIPMODE
 70
     0
  9
$CHAMFERA
 40
0.0
  9
$CHAMFERB
 40
0.0
  9
$SKPOLY
 70
     0
  9
$TDCREATE
 40
2457893.7036184138
  9
$TDUPDATE
 40
2457919.7362776971
  9
$TDINDWG
 40
0.0988543634
  9
$TDUSRTIMER
 40
0.0988543634
  9
$USRTIMER
 70
     1
  9
$ANGBASE
 50
0.0
  9
$ANGDIR
 70
     0
  9
$PDMODE
 70
     0
  9
$PDSIZE
 40
0.3125
  9
$PLINEWID
 40
0.0
  9
$COORDS
 70
     1
  9
$SPLFRAME
 70
     0
  9
$SPLINETYPE
 70
     6
  9
$SPLINESEGS
 70
     8
  9
$ATTDIA
 70
     1
  9
$ATTREQ
 70
     1
  9
$HANDLING
 70
     1
  9
$HANDSEED
  5
F07
  9
$SURFTAB1
 70
     6
  9
$SURFTAB2
 70
     6
  9
$SURFTYPE
 70
     6
  9
$SURFU
 70
     6
  9
$SURFV
 70
     6
  9
$UCSNAME
  2

  9
$UCSORG
 10
0.0
 20
0.0
 30
0.0
  9
$UCSXDIR
 10
1.0
 20
0.0
 30
0.0
  9
$UCSYDIR
 10
0.0
 20
1.0
 30
0.0
  9
$PUCSNAME
  2

  9
$PUCSORG
 10
0.0
 20
0.0
 30
0.0
  9
$PUCSXDIR
 10
1.0
 20
0.0
 30
0.0
  9
$PUCSYDIR
 10
0.0
 20
1.0
 30
0.0
  9
$USERI1
 70
     0
  9
$USERI2
 70
     0
  9
$USERI3
 70
     0
  9
$USERI4
 70
     0
  9
$USERI5
 70
     0
  9
$USERR1
 40
0.0
  9
$USERR2
 40
0.0
  9
$USERR3
 40
0.0
  9
$USERR4
 40
0.0
  9
$USERR5
 40
0.0
  9
$WORLDVIEW
 70
     1
  9
$SHADEDGE
 70
     3
  9
$SHADEDIF
 70
    70
  9
$TILEMODE
 70
     1
  9
$MAXACTVP
 70
    48
  9
$PLIMCHECK
 70
     0
  9
$PEXTMIN
 10
1.0000000000000000E+020
 20
1.0000000000000000E+020
 30
1.0000000000000000E+020
  9
$PEXTMAX
 10
-1.0000000000000000E+020
 20
-1.0000000000000000E+020
 30
-1.0000000000000000E+020
  9
$PLIMMIN
 10
0.0
 20
0.0
  9
$PLIMMAX
 10
12.0
 20
9.0
  9
$UNITMODE
 70
     0
  9
$VISRETAIN
 70
     1
  9
$PLINEGEN
 70
     0
  9
$PSLTSCALE
 70
     1
  0
ENDSEC
  0
SECTION
  2
TABLES
  0
TABLE
  2
VPORT
 70
     1
  0
VPORT
  2
*ACTIVE
 70
     0
 10
0.0
 20
0.0
 11
1.0
 21
1.0
 12
0.0
 22
0.0
 13
0.0
 23
0.0
 14
1.0
 24
1.0
 15
0.0
 25
0.0
 16
-0.0000000000000178
 26
0.0
 36
74.522731266636853
 17
19.807730318164069
 27
2.699583811741034
 37
0.0
 40
29.813910355570108
 41
1.798307475317348
 42
50.0
 43
0.0
 44
0.0
 50
0.0
 51
0.0
 71
     0
 72
   100
 73
     1
 74
     1
 75
     0
 76
     0
 77
     0
 78
     0
  0
ENDTAB
  0
TABLE
  2
LTYPE
 70
     8
  0
LTYPE
  2
CONTINUOUS
 70
     0
  3
Solid line
 72
    65
 73
     0
 40
0.0
  0
LTYPE
  2
PHANTOM2
 70
     0
  3
___ _ _ ___ _ _ ___ _ _ ___ _ _
 72
    65
 73
     6
 40
1.25
 49
0.625
 49
-0.125
 49
0.125
 49
-0.125
 49
0.125
 49
-0.125
  0
ENDTAB
  0
TABLE
  2
LAYER
 70
    49
  0
LAYER
  2
0
 70
     0
 62
     7
  6
CONTINUOUS
  0
LAYER
  2
DEFPOINTS
 70
     0
 62
     7
  6
CONTINUOUS
  0
ENDTAB
  0
TABLE
  2
STYLE
 70
     2
  0
STYLE
  2
STANDARD
 70
     0
 40
0.0
 41
0.8
 50
0.0
 71
     0
 42
0.2
  3
txt
  4

  0
ENDTAB
  0
TABLE
  2
VIEW
 70
     0
  0
ENDTAB
  0
TABLE
  2
UCS
 70
     0
  0
ENDTAB
  0
TABLE
  2
APPID
 70
     7
  0
APPID
  2
ACAD
 70
     0
  0
APPID
  2
ACAD_MLEADERVER
 70
     0
  0
APPID
  2
ACAD_NAV_VCDISPLAY
 70
     0
  0
APPID
  2
ACAD_DSTYLE_DIMJAG
 70
     0
  0
APPID
  2
ACAD_DSTYLE_DIMTALN
 70
     0
  0
APPID
  2
ACAD_EXEMPT_FROM_CAD_STANDARDS
 70
     0
  0
APPID
  2
AcDbAttr
 70
     0
  0
ENDTAB
  0
TABLE
  2
DIMSTYLE
 70
     2
  0
DIMSTYLE
  2
STANDARD
 70
     0
  3

  4

  5

  6

  7

 40
1.0
 41
0.1875
 42
0.0625
 43
0.38
 44
0.125
 45
0.0
 46
0.0
 47
0.01
 48
0.01
140
0.15625
141
0.09
142
0.0
143
25.399999999999999
144
1.0
145
0.0
146
1.0
147
0.09
 71
     1
 72
     0
 73
     1
 74
     1
 75
     0
 76
     0
 77
     0
 78
     4
170
     0
171
     2
172
     0
173
     0
174
     0
175
     0
176
     0
177
     0
178
     0
  0
ENDTAB
  0
ENDSEC
  0
SECTION
  2
BLOCKS
  0
BLOCK
  8
0
  2
$MODEL_SPACE
 70
     0
 10
0.0
 20
0.0
 30
0.0
  3
$MODEL_SPACE
  1

  0
ENDBLK
  5
21
  8
0
  0
BLOCK
 67
     1
  8
0
  2
$PAPER_SPACE
 70
     0
 10
0.0
 20
0.0
 30
0.0
  3
$PAPER_SPACE
  1

  0
ENDBLK
  5
1D
 67
     1
  8
0
  0
ENDSEC
  0
SECTION
  2
ENTITIES
  0
LINE
  5
525
  8
0
 10
18.893947985000001
 20
11.372124664999999
 30
0.0
 11
18.9137469749
 21
11.391923654799999
 31
0.0
  0
LINE
  5
526
  8
0
 10
18.869639138899998
 20
11.3042087657
 30
0.0
 11
18.981662874200001
 21
11.416232501
 31
0.0
  0
LINE
  5
527
  8
0
 10
18.945449996400001
 20
11.360220633300001
 30
0.0
 11
18.925651006599999
 21
11.340421643399999
 31
0.0
  0
LINE
  5
528
  8
0
 10
18.889438128799998
 20
11.2844097758
 30
0.0
 11
19.001461864100001
 21
11.3964335111
 31
0.0
  0
LINE
  5
529
  8
0
 10
18.977153017999999
 20
11.328517611800001
 30
0.0
 11
18.957354028099999
 21
11.308718621900001
 31
0.0
  0
LINE
  5
542
  8
0
 10
18.9355505015
 20
11.3305221485
 30
0.0
 11
18.9355505015
 21
11.3701201283
 31
0.0
  0
LINE
  5
612
  8
0
 10
18.9137469749
 20
11.308718621900001
 30
0.0
 11
18.893947985000001
 21
11.328517611800001
 31
0.0
  0
LINE
  5
613
  8
0
 10
18.869639138899998
 20
11.3964335111
 30
0.0
 11
18.981662874200001
 21
11.2844097758
 31
0.0
  0
LINE
  5
614
  8
0
 10
18.925651006599999
 20
11.360220633300001
 30
0.0
 11
18.945449996400001
 21
11.340421643399999
 31
0.0
  0
LINE
  5
615
  8
0
 10
19.001461864100001
 20
11.3042087657
 30
0.0
 11
18.889438128799998
 21
11.416232501
 31
0.0
  0
LINE
  5
616
  8
0
 10
18.957354028099999
 20
11.391923654799999
 30
0.0
 11
18.977153017999999
 21
11.372124664999999
 31
0.0
  0
LINE
  5
63B
  8
0
 10
18.9157515116
 20
11.3503211384
 30
0.0
 11
18.9553494914
 21
11.3503211384
 31
0.0
  0
CIRCLE
  5
6D3
  8
0
 10
18.9355505015
 20
11.3503211384
 30
0.0
 40
0.17
  0
CIRCLE
  5
6D6
  8
0
 10
18.9355505015
 20
11.3503211384
 30
0.0
 40
0.1259459459
  0
ARC
  5
AFB
  8
0
 10
18.9355505015
 20
-2.8871591766016942
 30
0.0
 40
20.41338582680169
 50
88.489274710000117
 51
91.510725289999868
  0
ARC
  5
AFC
  8
0
 10
19.472952076304011
 20
17.489613811909319
 30
0.0
 40
0.0295275590959876
 50
359.9999999819039
 51
88.489274709995556
  0
LINE
  5
AFD
  8
0
 10
19.5024796354
 20
17.4896138119
 30
0.0
 11
19.502479634812222
 21
15.6285888549
 31
0.0
  0
ARC
  5
AFE
  8
0
 10
20.18941995835581
 20
15.593293374889919
 30
0.0
 40
0.6878464792519563
 50
177.05868880893399
 51
194.40159515059241
  0
ARC
  5
AFF
  8
0
 10
19.714803037481389
 20
15.489411310761479
 30
0.0
 40
0.2030558402221591
 50
199.3251362421982
 51
262.5184585944682
  0
ARC
  5
B00
  8
0
 10
19.824025314007141
 20
15.9436958119244
 30
0.0
 40
0.6695003722256667
 50
258.30914550041331
 51
270.78419169726652
  0
LINE
  5
B01
  8
0
 10
19.8331882968
 20
15.274258146299999
 30
0.0
 11
20.624526879499999
 21
15.274258146299999
 31
0.0
  0
ARC
  5
B02
  8
0
 10
20.758385147199998
 20
15.8254352792768
 30
0.0
 40
0.5671986140217306
 50
256.34948623926618
 51
283.65051376073382
  0
LINE
  5
B03
  8
0
 10
20.892243414900001
 20
15.274258146299999
 30
0.0
 11
21.023326186698341
 21
15.274258146299999
 31
0.0
  0
LINE
  5
B04
  8
0
 10
21.3036607377
 20
15.9557542092
 30
0.0
 11
21.060727451000002
 21
15.951513793
 31
0.0
  0
ARC
  5
B05
  8
0
 10
21.057874296727022
 20
15.9217867551493
 30
0.0
 40
0.0298636445981158
 50
84.517634425813498
 51
179.15524824338081
  0
LINE
  5
B06
  8
0
 10
21.028013897899999
 20
15.922227039799999
 30
0.0
 11
21.023326186698341
 21
15.274258146299999
 31
0.0
  0
LINE
  5
B07
  8
0
 10
21.023326186698341
 20
15.274258146299831
 30
0.0
 11
21.0247885293
 21
14.3299696422
 31
0.0
  0
ARC
  5
B08
  8
0
 10
20.977569084162059
 20
14.32989651729595
 30
0.0
 40
0.0472195017591983
 50
345.7470707026024
 51
0.0887292304566634
  0
LINE
  5
B09
  8
0
 10
21.023335090500002
 20
14.3182709416
 30
0.0
 11
21.028019199799999
 21
13.7057100422
 31
0.0
  0
ARC
  5
B0A
  8
0
 10
21.05762966061236
 20
13.706145519712731
 30
0.0
 40
0.0296136628971195
 50
180.8425814457531
 51
276.02146780974721
  0
LINE
  5
B0B
  8
0
 10
21.060736166049999
 20
13.67669524545
 30
0.0
 11
21.3036607377
 21
13.672289642300001
 31
0.0
  0
LINE
  5
B0C
  8
0
 10
21.3036607377
 20
13.672289642300001
 30
0.0
 11
21.3036607377
 21
15.9557542092
 31
0.0
  0
LINE
  5
B0D
  8
0
 10
21.024765060535881
 20
14.345124287999999
 30
0.0
 11
19.4434245172
 21
14.345124287999999
 31
0.0
  0
ARC
  5
B0E
  8
0
 10
18.935582475948291
 20
-6.0370024833775133
 30
0.0
 40
20.388452498003449
 50
88.572710938536275
 51
91.421218901990343
  0
LINE
  5
B0F
  8
0
 10
18.42989980708931
 20
14.34517797656649
 30
0.0
 11
18.39816816148516
 21
14.34512454902198
 31
0.0
  0
ARC
  5
B10
  8
0
 10
18.398258415581051
 20
14.374761658996039
 30
0.0
 40
0.0296372473994528
 50
180.2101849231438
 51
269.825517305956
  0
LINE
  5
B11
  8
0
 10
18.368621367599999
 20
14.3746529374
 30
0.0
 11
18.368621367599999
 21
17.489613812156051
 31
0.0
  0
ARC
  5
B12
  8
0
 10
18.39814892670903
 20
17.489613811896621
 30
0.0
 40
0.0295275591090279
 50
91.51072531464645
 51
179.99999949659789
  0
LINE
  5
B13
  8
0
 10
19.427672593244449
 20
14.345510673242851
 30
0.0
 11
19.427672593244449
 21
12.0303211384
 31
0.0
  0
LINE
  5
B14
  8
0
 10
18.4434245172
 20
12.0303211384
 30
0.0
 11
18.4434245172
 21
14.345509035250011
 31
0.0
  0
LINE
  5
B15
  8
0
 10
18.329309834499998
 20
12.0303211384
 30
0.0
 11
19.5417909337
 21
12.0303211384
 31
0.0
  0
ARC
  5
B16
  8
0
 10
19.5417909337
 20
11.995319716366719
 30
0.0
 40
0.0350014220332788
 50
1.0023003212491579
 51
90.00000000000081
  0
ARC
  5
B17
  8
0
 10
-759.64835172942674
 20
-1.636787434324086
 30
0.0
 40
779.34438335500579
 50
0.9864017587412199
 51
1.002300321249125
  0
LINE
  5
B19
  8
0
 10
19.580539839299998
 20
11.7797103042
 30
0.0
 11
19.554793618525402
 21
10.304710303884031
 31
0.0
  0
ARC
  5
B1A
  8
0
 10
19.519798948474271
 20
10.305321138608461
 30
0.0
 40
0.0350000007292581
 50
269.99011586549398
 51
358.99999920363172
  0
LINE
  5
B1B
  8
0
 10
19.5197929106
 20
10.2703211384
 30
0.0
 11
19.180550441914608
 21
10.2703211384
 31
0.0
  0
LINE
  5
B1C
  8
0
 10
18.406166822500001
 20
11.8303211384
 30
0.0
 11
19.464933801800001
 21
11.8303211384
 31
0.0
  0
ARC
  5
B1D
  8
0
 10
19.464933801800001
 20
11.795320759697949
 30
0.0
 40
0.0350003787020459
 50
0.0006199369754345
 51
89.999999999998977
  0
LINE
  5
B1E
  8
0
 10
19.499934180499999
 20
11.7953211384
 30
0.0
 11
19.484393842030471
 21
10.90471030417469
 31
0.0
  0
ARC
  5
B1F
  8
0
 10
19.449399172700002
 20
10.905321138399991
 30
0.0
 40
0.0349999999999931
 50
270.00000181480777
 51
359.00000000000438
  0
LINE
  5
B20
  8
0
 10
19.449399173808601
 20
10.8703211384
 30
0.0
 11
18.421701829288772
 21
10.8703211384
 31
0.0
  0
ARC
  5
B21
  8
0
 10
19.324960925629568
 20
11.79528797941532
 30
0.0
 40
0.0350331626474617
 50
90.026200157655197
 51
177.94762961059919
  0
LINE
  5
B22
  8
0
 10
19.289950236399999
 20
11.7965426207
 30
0.0
 11
19.274415228599999
 21
10.9065426186
 31
0.0
  0
ARC
  5
B23
  8
0
 10
19.309422476308988
 20
10.905348735944481
 30
0.0
 40
0.0350275998029262
 50
178.0467491575707
 51
269.97942508856562
  0
ARC
  5
B24
  8
0
 10
18.750421761277899
 20
11.165192398177879
 30
0.0
 40
0.3413115666519278
 50
42.649168395411643
 51
47.350831604592599
  0
ARC
  5
B25
  8
0
 10
18.750421761275661
 20
11.53544987862433
 30
0.0
 40
0.3413115666550735
 50
312.6491683954311
 51
317.35083160456861
  0
ARC
  5
B26
  8
0
 10
19.122102981632839
 20
11.53687361853286
 30
0.0
 40
0.3433233543340322
 50
222.66295133894491
 51
227.3370486610593
  0
ARC
  5
B27
  8
0
 10
19.283787888355441
 20
11.0020837515445
 30
0.0
 40
0.5718661727510911
 50
133.5971874210081
 51
136.40281257898431
  0
LINE
  5
B28
  8
0
 10
19.180550501500001
 20
10.8703211384
 30
0.0
 11
19.1805504228
 21
10.0778450194
 31
0.0
  0
ARC
  5
B29
  8
0
 10
19.111652323438879
 20
10.08039365588345
 30
0.0
 40
0.0689452220498135
 50
255.9942352320426
 51
357.88151539121827
  0
ARC
  5
B2A
  8
0
 10
18.935763307452959
 20
9.2589445122117304
 30
0.0
 40
0.7711657789361628
 50
78.085928760962503
 51
101.9575093376625
  0
ARC
  5
B2B
  8
0
 10
18.329309834499998
 20
11.995319716366719
 30
0.0
 40
0.0350014220332788
 50
89.999999999999204
 51
178.99769967875079
  0
ARC
  5
B2C
  8
0
 10
797.51945249762673
 20
-1.636787434324086
 30
0.0
 40
779.34438335500579
 50
178.99769967875079
 51
179.01359824125871
  0
LINE
  5
B2D
  8
0
 10
18.2905609289
 20
11.7797103042
 30
0.0
 11
18.3163071496746
 21
10.304710303884031
 31
0.0
  0
ARC
  5
B2E
  8
0
 10
18.35130181972573
 20
10.305321138608461
 30
0.0
 40
0.0350000007292581
 50
181.00000079636831
 51
270.00988413450608
  0
ARC
  5
B2F
  8
0
 10
18.406166966400001
 20
11.795320759697949
 30
0.0
 40
0.0350003787020459
 50
90.000000000001222
 51
179.9993800630246
  0
LINE
  5
B30
  8
0
 10
18.371166587699999
 20
11.7953211384
 30
0.0
 11
18.38670692616952
 21
10.90471030417469
 31
0.0
  0
ARC
  5
B31
  8
0
 10
18.4217015955
 20
10.905321138399991
 30
0.0
 40
0.0349999999999931
 50
180.99999999999559
 51
269.9999981851924
  0
ARC
  5
B32
  8
0
 10
18.546139842570419
 20
11.79528797941532
 30
0.0
 40
0.0350331626474617
 50
2.0523703894007461
 51
89.973799842344718
  0
LINE
  5
B33
  8
0
 10
18.581150531799999
 20
11.7965426207
 30
0.0
 11
18.596685539599999
 21
10.9065426186
 31
0.0
  0
ARC
  5
B34
  8
0
 10
18.56167829189101
 20
10.905348735944481
 30
0.0
 40
0.0350275998029262
 50
270.02057491143449
 51
1.9532508424292609
  0
LINE
  5
B35
  8
0
 10
18.690550266700001
 20
10.8703211384
 30
0.0
 11
18.690550345399998
 21
10.0778450194
 31
0.0
  0
ARC
  5
B36
  8
0
 10
18.759557968815191
 20
10.080450890078851
 30
0.0
 40
0.0690568074226319
 50
182.16257967738829
 51
283.76415699494601
  0
LINE
  5
B37
  8
0
 10
18.69055032628539
 20
10.2703211384
 30
0.0
 11
18.351306256600001
 21
10.2703211384
 31
0.0
  0
ARC
  5
B7A
  8
0
 10
18.935550501499989
 20
7.2134246812130618
 30
0.0
 40
19.340741307117149
 50
268.40546826978408
 51
271.59453173021592
  0
ARC
  5
B7B
  8
0
 10
19.472952076304011
 20
-12.090310117809331
 30
0.0
 40
0.0295275590959876
 50
271.51072529000447
 51
0.0000000180960839
  0
LINE
  5
B7C
  8
0
 10
19.5024796354
 20
-12.0903101178
 30
0.0
 11
19.502479634812222
 21
-10.2292851608
 31
0.0
  0
ARC
  5
B7D
  8
0
 10
20.18941995835581
 20
-10.193989680789921
 30
0.0
 40
0.6878464792519563
 50
165.59840484940759
 51
182.94131119106601
  0
ARC
  5
B7E
  8
0
 10
19.714803037481389
 20
-10.090107616661481
 30
0.0
 40
0.2030558402221591
 50
97.481541405531715
 51
160.6748637578018
  0
ARC
  5
B7F
  8
0
 10
19.824025314007141
 20
-10.544392117824399
 30
0.0
 40
0.6695003722256667
 50
89.215808302733564
 51
101.69085449958661
  0
LINE
  5
B80
  8
0
 10
19.8331882968
 20
-9.8749544522000008
 30
0.0
 11
20.624526879499999
 21
-9.8749544522000008
 31
0.0
  0
ARC
  5
B81
  8
0
 10
20.758385147199998
 20
-10.426131585176799
 30
0.0
 40
0.5671986140217306
 50
76.349486239266213
 51
103.6505137607338
  0
LINE
  5
B82
  8
0
 10
20.892243414900001
 20
-9.8749544522000008
 30
0.0
 11
21.023326186698341
 21
-9.8749544522000008
 31
0.0
  0
LINE
  5
B83
  8
0
 10
21.3036607377
 20
-10.5564505151
 30
0.0
 11
21.060727451000002
 21
-10.5522100989
 31
0.0
  0
ARC
  5
B84
  8
0
 10
21.057874296727022
 20
-10.522483061049289
 30
0.0
 40
0.0298636445981158
 50
180.8447517566191
 51
275.48236557418647
  0
LINE
  5
B85
  8
0
 10
21.028013897899999
 20
-10.522923345700001
 30
0.0
 11
21.023326186698341
 21
-9.8749544522000008
 31
0.0
  0
LINE
  5
B86
  8
0
 10
21.023326186698341
 20
-9.8749544521998338
 30
0.0
 11
21.0247885293
 21
-8.9306659480999997
 31
0.0
  0
ARC
  5
B87
  8
0
 10
20.977569084162059
 20
-8.9305928231959566
 30
0.0
 40
0.0472195017591983
 50
359.91127076954331
 51
14.252929297397589
  0
LINE
  5
B88
  8
0
 10
21.023335090500002
 20
-8.9189672475000012
 30
0.0
 11
21.028019199799999
 21
-8.3064063480999994
 31
0.0
  0
ARC
  5
B89
  8
0
 10
21.05762966061236
 20
-8.3068418256127305
 30
0.0
 40
0.0296136628971195
 50
83.978532190252821
 51
179.15741855424679
  0
LINE
  5
B8A
  8
0
 10
21.060736166049999
 20
-8.2773915513499983
 30
0.0
 11
21.3036607377
 21
-8.2729859482000005
 31
0.0
  0
LINE
  5
B8B
  8
0
 10
21.3036607377
 20
-8.2729859482000005
 30
0.0
 11
21.3036607377
 21
-10.5564505151
 31
0.0
  0
LINE
  5
B8C
  8
0
 10
21.024765060535881
 20
-8.9458205938999988
 30
0.0
 11
19.4434245172
 21
-8.9458205938999988
 31
0.0
  0
ARC
  5
B8D
  8
0
 10
18.935582475948291
 20
11.43630617747751
 30
0.0
 40
20.388452498003449
 50
268.57878109800959
 51
271.42728906146368
  0
LINE
  5
B8E
  8
0
 10
18.42989980708931
 20
-8.9458742824664892
 30
0.0
 11
18.39816816148516
 21
-8.9458208549219815
 31
0.0
  0
ARC
  5
B8F
  8
0
 10
18.398258415581051
 20
-8.9754579648960444
 30
0.0
 40
0.0296372473994528
 50
90.174482694043945
 51
179.78981507685609
  0
LINE
  5
B90
  8
0
 10
18.368621367599999
 20
-8.9753492433000002
 30
0.0
 11
18.368621367599999
 21
-12.09031011805606
 31
0.0
  0
ARC
  5
B91
  8
0
 10
18.39814892670903
 20
-12.090310117796619
 30
0.0
 40
0.0295275591090279
 50
180.00000050340199
 51
268.48927468535351
  0
LINE
  5
B92
  8
0
 10
19.427676485799999
 20
10.2703211384
 30
0.0
 11
19.427676485799999
 21
-8.9462068851654504
 31
0.0
  0
LINE
  5
B93
  8
0
 10
18.4434245172
 20
10.2703211384
 30
0.0
 11
18.4434245172
 21
-8.9462053411500069
 31
0.0
  0
ATTDEF
  5
DF7
  8
DEFPOINTS
 10
21.314233040761469
 20
2.701749334708563
 30
0.0
 40
0.001
  1
K-98342
  3

  2
MODELNUMBER
 70
     0
1001
AcDbAttr
1070
     0
1070
     1
  0
ATTDEF
  5
DF8
  8
DEFPOINTS
 10
21.314233040761469
 20
2.7000826680418979
 30
0.0
 40
0.001
  1
AWAKEN
  3

  2
TRADENAME
 70
     0
1001
AcDbAttr
1070
     0
1070
     1
  0
ATTDEF
  5
DF9
  8
DEFPOINTS
 10
21.314233040761469
 20
2.6984160013752332
 30
0.0
 40
0.001
  1
SLIDEBAR
  3

  2
PRODUCT
 70
     0
1001
AcDbAttr
1070
     0
1070
     1
  0
ATTDEF
  5
DFA
  8
DEFPOINTS
 10
21.314233040761469
 20
2.696749334708568
 30
0.0
 40
0.001
  1
METAL
  3

  2
MATERIAL
 70
     0
1001
AcDbAttr
1070
     0
1070
     1
  0
ENDSEC
  0
EOF
