  0
SECTION
  2
HEADER
  9
$ACADVER
  1
AC1009
  9
$INSBASE
 10
4.962086534
 20
-1.476119265299999
 30
0.0
  9
$EXTMIN
 10
-1.06733556884516
 20
-1.485951701787209
 30
0.0
  9
$EXTMAX
 10
10.991508636845159
 20
2.709307158665359
 30
0.0
  9
$LIMMIN
 10
0.0
 20
0.0
  9
$LIMMAX
 10
11.692913385800001
 20
8.2677165353999982
  9
$ORTHOMODE
 70
     0
  9
$REGENMODE
 70
     1
  9
$FILLMODE
 70
     1
  9
$QTEXTMODE
 70
     0
  9
$MIRRTEXT
 70
     0
  9
$DRAGMODE
 70
     2
  9
$LTSCALE
 40
0.6431102362
  9
$OSMODE
 70
    47
  9
$ATTMODE
 70
     1
  9
$TEXTSIZE
 40
0.001
  9
$TRACEWID
 40
0.05
  9
$TEXTSTYLE
  7
STANDARD
  9
$CLAYER
  8
0
  9
$CELTYPE
  6
BYLAYER
  9
$CECOLOR
 62
   256
  9
$DIMSCALE
 40
1.0
  9
$DIMASZ
 40
0.1875
  9
$DIMEXO
 40
0.0625
  9
$DIMDLI
 40
0.4443307087
  9
$DIMRND
 40
0.0
  9
$DIMDLE
 40
0.0
  9
$DIMEXE
 40
0.125
  9
$DIMTP
 40
0.0
  9
$DIMTM
 40
0.0
  9
$DIMTXT
 40
0.15625
  9
$DIMCEN
 40
0.1052362205
  9
$DIMTSZ
 40
0.0
  9
$DIMTOL
 70
     0
  9
$DIMLIM
 70
     0
  9
$DIMTIH
 70
     1
  9
$DIMTOH
 70
     1
  9
$DIMSE1
 70
     0
  9
$DIMSE2
 70
     0
  9
$DIMTAD
 70
     0
  9
$DIMZIN
 70
     0
  9
$DIMBLK
  1

  9
$DIMASO
 70
     1
  9
$DIMSHO
 70
     1
  9
$DIMPOST
  1

  9
$DIMAPOST
  1

  9
$DIMALT
 70
     0
  9
$DIMALTD
 70
     2
  9
$DIMALTF
 40
25.399999999999999
  9
$DIMLFAC
 40
1.0
  9
$DIMTOFL
 70
     0
  9
$DIMTVP
 40
0.0
  9
$DIMTIX
 70
     0
  9
$DIMSOXD
 70
     0
  9
$DIMSAH
 70
     0
  9
$DIMBLK1
  1

  9
$DIMBLK2
  1

  9
$DIMSTYLE
  2
STANDARD
  9
$DIMCLRD
 70
     0
  9
$DIMCLRE
 70
     0
  9
$DIMCLRT
 70
     0
  9
$DIMTFAC
 40
1.0
  9
$DIMGAP
 40
0.09
  9
$LUNITS
 70
     2
  9
$LUPREC
 70
     4
  9
$SKETCHINC
 40
0.1
  9
$FILLETRAD
 40
0.0
  9
$AUNITS
 70
     0
  9
$AUPREC
 70
     0
  9
$MENU
  1
.
  9
$ELEVATION
 40
0.0
  9
$PELEVATION
 40
0.0
  9
$THICKNESS
 40
0.0
  9
$LIMCHECK
 70
     0
  9
$BLIPMODE
 70
     0
  9
$CHAMFERA
 40
0.0
  9
$CHAMFERB
 40
0.0
  9
$SKPOLY
 70
     0
  9
$TDCREATE
 40
2457413.4554072688
  9
$TDUPDATE
 40
2457416.4990322678
  9
$TDINDWG
 40
0.2257780671
  9
$TDUSRTIMER
 40
0.2257780671
  9
$USRTIMER
 70
     1
  9
$ANGBASE
 50
0.0
  9
$ANGDIR
 70
     0
  9
$PDMODE
 70
     0
  9
$PDSIZE
 40
0.3125
  9
$PLINEWID
 40
0.0
  9
$COORDS
 70
     0
  9
$SPLFRAME
 70
     0
  9
$SPLINETYPE
 70
     6
  9
$SPLINESEGS
 70
     8
  9
$ATTDIA
 70
     1
  9
$ATTREQ
 70
     1
  9
$HANDLING
 70
     1
  9
$HANDSEED
  5
25C8
  9
$SURFTAB1
 70
     6
  9
$SURFTAB2
 70
     6
  9
$SURFTYPE
 70
     6
  9
$SURFU
 70
     6
  9
$SURFV
 70
     6
  9
$UCSNAME
  2

  9
$UCSORG
 10
0.0
 20
0.0
 30
0.0
  9
$UCSXDIR
 10
1.0
 20
0.0
 30
0.0
  9
$UCSYDIR
 10
0.0
 20
1.0
 30
0.0
  9
$PUCSNAME
  2

  9
$PUCSORG
 10
0.0
 20
0.0
 30
0.0
  9
$PUCSXDIR
 10
1.0
 20
0.0
 30
0.0
  9
$PUCSYDIR
 10
0.0
 20
1.0
 30
0.0
  9
$USERI1
 70
     0
  9
$USERI2
 70
     0
  9
$USERI3
 70
     0
  9
$USERI4
 70
     0
  9
$USERI5
 70
     0
  9
$USERR1
 40
0.0
  9
$USERR2
 40
0.0
  9
$USERR3
 40
0.0
  9
$USERR4
 40
0.0
  9
$USERR5
 40
0.0
  9
$WORLDVIEW
 70
     1
  9
$SHADEDGE
 70
     3
  9
$SHADEDIF
 70
    70
  9
$TILEMODE
 70
     1
  9
$MAXACTVP
 70
    48
  9
$PLIMCHECK
 70
     0
  9
$PEXTMIN
 10
1.0000000000000000E+020
 20
1.0000000000000000E+020
 30
1.0000000000000000E+020
  9
$PEXTMAX
 10
-1.0000000000000000E+020
 20
-1.0000000000000000E+020
 30
-1.0000000000000000E+020
  9
$PLIMMIN
 10
0.0
 20
0.0
  9
$PLIMMAX
 10
12.0
 20
9.0
  9
$UNITMODE
 70
     0
  9
$VISRETAIN
 70
     1
  9
$PLINEGEN
 70
     0
  9
$PSLTSCALE
 70
     1
  0
ENDSEC
  0
SECTION
  2
TABLES
  0
TABLE
  2
VPORT
 70
     1
  0
VPORT
  2
*ACTIVE
 70
     0
 10
0.0
 20
0.0
 11
1.0
 21
1.0
 12
30.395039878797078
 22
5.4146343121041367
 13
0.0
 23
0.0
 14
1.0
 24
1.0
 15
0.0
 25
0.0
 16
0.0
 26
0.0
 36
1.0
 17
0.0
 27
0.0
 37
0.0
 40
44.840465559480329
 41
2.1244343891402711
 42
50.0
 43
0.0
 44
0.0
 50
0.0
 51
0.0
 71
     0
 72
   100
 73
     1
 74
     1
 75
     0
 76
     0
 77
     0
 78
     0
  0
ENDTAB
  0
TABLE
  2
LTYPE
 70
     1
  0
LTYPE
  2
CONTINUOUS
 70
     0
  3
Solid line
 72
    65
 73
     0
 40
0.0
  0
ENDTAB
  0
TABLE
  2
LAYER
 70
     2
  0
LAYER
  2
0
 70
     0
 62
     7
  6
CONTINUOUS
  0
LAYER
  2
DEFPOINTS
 70
     0
 62
     7
  6
CONTINUOUS
  0
ENDTAB
  0
TABLE
  2
STYLE
 70
     1
  0
STYLE
  2
STANDARD
 70
     0
 40
0.0
 41
0.8
 50
0.0
 71
     0
 42
0.001
  3
txt
  4

  0
ENDTAB
  0
TABLE
  2
VIEW
 70
     1
  0
ENDTAB
  0
TABLE
  2
UCS
 70
     0
  0
ENDTAB
  0
TABLE
  2
APPID
 70
     5
  0
APPID
  2
ACAD
 70
     0
  0
APPID
  2
ACAD_MLEADERVER
 70
     0
  0
APPID
  2
ACAD_NAV_VCDISPLAY
 70
     0
  0
APPID
  2
ACAD_EXEMPT_FROM_CAD_STANDARDS
 70
     0
  0
APPID
  2
ACDBATTR
 70
     0
  0
ENDTAB
  0
TABLE
  2
DIMSTYLE
 70
     1
  0
DIMSTYLE
  2
STANDARD
 70
     0
  3

  4

  5

  6

  7

 40
1.0
 41
0.1875
 42
0.0625
 43
0.38
 44
0.125
 45
0.0
 46
0.0
 47
1.5
 48
1.5
140
0.15625
141
0.09
142
0.0
143
25.399999999999999
144
1.0
145
0.0
146
1.0
147
0.09
 71
     0
 72
     0
 73
     1
 74
     1
 75
     0
 76
     0
 77
     0
 78
     4
170
     0
171
     2
172
     0
173
     0
174
     0
175
     0
176
     0
177
     0
178
     0
  0
ENDTAB
  0
ENDSEC
  0
SECTION
  2
BLOCKS
  0
BLOCK
  8
0
  2
$MODEL_SPACE
 70
     2
 10
0.0
 20
0.0
 30
0.0
  3
$MODEL_SPACE
  1

  0
ENDBLK
  5
21
  8
0
  0
BLOCK
 67
     1
  8
0
  2
$PAPER_SPACE
 70
     0
 10
0.0
 20
0.0
 30
0.0
  3
$PAPER_SPACE
  1

  0
ENDBLK
  5
1D
 67
     1
  8
0
  0
ENDSEC
  0
SECTION
  2
ENTITIES
  0
LINE
  5
39F
  8
0
 10
-1.0223993406999989
 20
2.2397930384999989
 30
0.0
 11
-1.022396831
 21
1.8078690899000001
 31
0.0
  0
LINE
  5
3E2
  8
0
 10
-0.4005668864
 20
2.241380734399999
 30
0.0
 11
-0.4005668864
 21
1.8063812425000001
 31
0.0
  0
LINE
  5
3F2
  8
0
 10
0.0651818504
 20
2.2738807347000001
 30
0.0
 11
0.0651818504
 21
1.7738807347000001
 31
0.0
  0
LINE
  5
3F3
  8
0
 10
0.1727888674
 20
1.7318807346999989
 30
0.0
 11
0.1727888674
 21
2.315880734699999
 31
0.0
  0
LINE
  5
402
  8
0
 10
0.5327034896000001
 20
2.3798807346999991
 30
0.0
 11
0.5327034896000001
 21
1.6678807346999991
 31
0.0
  0
LINE
  5
403
  8
0
 10
0.5850787296
 20
2.3873018831000001
 30
0.0
 11
0.5850787296
 21
1.7365819799999991
 31
0.0
  0
LINE
  5
424
  8
0
 10
1.3950992359000001
 20
2.2738807347000001
 30
0.0
 11
1.3950992359000001
 21
1.7738807347000001
 31
0.0
  0
LINE
  5
427
  8
0
 10
1.4521759578999991
 20
1.7849262586000001
 30
0.0
 11
1.4521759578999991
 21
2.2628352109000001
 31
0.0
  0
LINE
  5
448
  8
0
 10
1.963492814099999
 20
2.3287217001
 30
0.0
 11
1.9635221061999999
 21
1.7190348506999991
 31
0.0
  0
LINE
  5
449
  8
0
 10
1.999522033799999
 20
2.346555310956461
 30
0.0
 11
1.999522033799999
 21
1.7008818227999991
 31
0.0
  0
LINE
  5
49E
  8
0
 10
0.472086534
 20
-0.9261192653
 30
0.0
 11
1.452086534
 21
-0.9261192653
 31
0.0
  0
LINE
  5
4A1
  8
0
 10
1.452086534
 20
-0.8629804317000001
 30
0.0
 11
0.472086534
 21
-0.8629804317000001
 31
0.0
  0
LINE
  5
4BE
  8
0
 10
0.472086534
 20
-0.366713106
 30
0.0
 11
1.452086534
 21
-0.366713106
 31
0.0
  0
LINE
  5
4C1
  8
0
 10
1.452086534
 20
-0.3076257701
 30
0.0
 11
0.472086534
 21
-0.3076257701
 31
0.0
  0
ARC
  5
9C6
  8
0
 10
-0.3565597875811039
 20
2.0238807346135941
 30
0.0
 40
0.6999999993147779
 50
183.64856041478961
 51
197.97416127227569
  0
ARC
  5
9C7
  8
0
 10
-1.042666486549372
 20
1.9801308694210951
 30
0.0
 40
0.0124998516258281
 50
95.178479904309185
 51
183.64922256418521
  0
ARC
  5
9CA
  8
0
 10
-1.045271733935643
 20
2.0058564899327549
 30
0.0
 40
0.013362219927591
 50
276.52559753442068
 51
358.60646765833269
  0
LINE
  5
9CB
  8
0
 10
-1.031913466
 20
2.0055315296999972
 30
0.0
 11
-1.0319140007000001
 21
2.0423329026500001
 31
0.0
  0
ARC
  5
9CC
  8
0
 10
-1.044913376743402
 20
2.0422301508614278
 30
0.0
 40
0.0129997821307838
 50
0.4528772148688644
 51
84.940459004228885
  0
ARC
  5
9CD
  8
0
 10
-1.042666329203028
 20
2.0676307346941321
 30
0.0
 40
0.0124999999938832
 50
176.35143930245081
 51
264.81986186869568
  0
ARC
  5
9CE
  8
0
 10
-0.3583584228398127
 20
2.0241089441946949
 30
0.0
 40
0.698190496303766
 50
162.0059221130486
 51
176.36073638247339
  0
ARC
  5
9CF
  8
0
 10
-1.010054540767513
 20
2.2359522783763972
 30
0.0
 40
0.0129284772382582
 50
89.896940184399725
 51
162.71784275389879
  0
LINE
  5
9D0
  8
0
 10
-1.0100312859
 20
2.2488807346999988
 30
0.0
 11
-0.9669134659999999
 21
2.2488807346999988
 31
0.0
  0
ARC
  5
9D1
  8
0
 10
-0.9669013730636921
 20
2.238912759081261
 30
0.0
 40
0.0099679829541823
 50
359.82110022216762
 51
90.069509988681673
  0
LINE
  5
9D2
  8
0
 10
-0.9569334386999999
 20
2.2388816351999998
 30
0.0
 11
-0.9569273462648773
 21
1.808354034941317
 31
0.0
  0
ARC
  5
9D3
  8
0
 10
-0.9329807740413306
 20
2.2401904544278328
 30
0.0
 40
0.0239883961952817
 50
132.62824619167031
 51
183.12764024687129
  0
ARC
  5
9D4
  8
0
 10
-0.6887782589411668
 20
2.0237314622388989
 30
0.0
 40
0.3502003431669127
 50
113.5750343307602
 51
138.04863388640439
  0
ARC
  5
9D5
  8
0
 10
-0.8370707020409787
 20
2.3698749448794021
 30
0.0
 40
0.0264831098796312
 50
288.10510118790671
 51
8.4584243122292566
  0
ARC
  5
9D6
  8
0
 10
-0.9163351008795334
 20
2.3798900090495678
 30
0.0
 40
0.1056319010653394
 50
356.69497197316878
 51
72.205437822361858
  0
ARC
  5
9D7
  8
0
 10
-0.8778904068534957
 20
2.505886780852185
 30
0.0
 40
0.0261551052706246
 50
173.8163584929674
 51
256.37520898863482
  0
LINE
  5
9D8
  8
0
 10
-0.9038933354000001
 20
2.5087040913999989
 30
0.0
 11
-0.903888493
 21
2.5602874553000001
 31
0.0
  0
ARC
  5
9D9
  8
0
 10
-0.8789359109425037
 20
2.5641402192299432
 30
0.0
 40
0.0252482700642233
 50
96.30996537758935
 51
188.7773502294184
  0
ARC
  5
9DA
  8
0
 10
-0.9343381630909096
 20
2.7491773308645628
 30
0.0
 40
0.1683775827172487
 50
288.21328520615589
 51
317.15819688003609
  0
ARC
  5
9DB
  8
0
 10
-0.252937918048329
 20
2.0567574103556518
 30
0.0
 40
0.8033037440173521
 50
128.3767658543571
 51
133.99191115937029
  0
ARC
  5
9DC
  8
0
 10
-0.6889940186774768
 20
2.6118193287132918
 30
0.0
 40
0.0974878299520672
 50
74.141921014030274
 51
129.99611709748021
  0
ARC
  5
9DD
  8
0
 10
-0.7606418191045754
 20
2.4777495476404199
 30
0.0
 40
0.248000645491196
 50
41.361173739513951
 51
66.992595324730232
  0
ARC
  5
9DE
  8
0
 10
-0.3707328447939491
 20
2.8458454006869038
 30
0.0
 40
0.2884898625565684
 50
225.06268099066611
 51
238.32323615727651
  0
ARC
  5
9DF
  8
0
 10
-0.466742930519459
 20
2.6948075553728641
 30
0.0
 40
0.1095616980109923
 50
239.5747219156768
 51
254.44890169137921
  0
ARC
  5
9E0
  8
0
 10
-0.4989539484961194
 20
2.564088852788835
 30
0.0
 40
0.02532734855251
 50
351.36836403609061
 51
83.566832373506344
  0
LINE
  5
9E1
  8
0
 10
-0.4739134660000004
 20
2.5602876922999989
 30
0.0
 11
-0.4739134660000001
 21
2.5087038952
 31
0.0
  0
ARC
  5
9E2
  8
0
 10
-0.4972298959916322
 20
2.504003380061476
 30
0.0
 40
0.023785515553004
 50
278.36438830623553
 51
11.397870471243881
  0
ARC
  5
9E3
  8
0
 10
-0.4657546947779466
 20
2.3863980720249391
 30
0.0
 40
0.098155699586362
 50
106.5836919398938
 51
166.6034324179146
  0
ARC
  5
9E4
  8
0
 10
-0.3195153256525675
 20
2.3519842719394908
 30
0.0
 40
0.2483895106281401
 50
166.6967963608522
 51
174.9681844436108
  0
ARC
  5
9E5
  8
0
 10
-0.5409874397676626
 20
2.369465110365867
 30
0.0
 40
0.0263146925741334
 50
170.58397607232689
 51
256.48460836561469
  0
ARC
  5
9E6
  8
0
 10
-0.689714945514461
 20
2.0227996429680899
 30
0.0
 40
0.3513124196889192
 50
40.688268997740607
 51
66.056052673785103
  0
ARC
  5
9E7
  8
0
 10
-0.4029652620412297
 20
2.2661414902640078
 30
0.0
 40
0.0248842551522066
 50
215.09307342306471
 51
275.53082450769199
  0
LINE
  5
9E8
  8
0
 10
-0.4005668864
 20
2.241373084001923
 30
0.0
 11
0.0651818504
 21
2.241380734699999
 31
0.0
  0
ARC
  5
A2E
  8
0
 10
0.1271818504000002
 20
2.2738807347000001
 30
0.0
 40
0.0620000000000002
 50
42.642309961306218
 51
180.0
  0
ARC
  5
A2F
  8
0
 10
0.2862994666111586
 20
2.4270909652154291
 30
0.0
 40
0.1589099477835525
 50
224.4135086883646
 51
270.75490334581212
  0
ARC
  5
A30
  8
0
 10
0.2817403505862228
 20
2.6058021843137542
 30
0.0
 40
0.3376729164989327
 50
271.128905910051
 51
318.0058981988189
  0
ARC
  5
A31
  8
0
 10
0.5631008579622379
 20
2.3538807345866091
 30
0.0
 40
0.0400000001210003
 50
56.670931322443948
 51
139.45839816568321
  0
ARC
  5
A32
  8
0
 10
0.6015621333962504
 20
2.4123677445087388
 30
0.0
 40
0.0300000002083292
 50
236.6709313148427
 51
312.86198725640082
  0
ARC
  5
A33
  8
0
 10
0.962086534000001
 20
2.023880734699997
 30
0.0
 40
0.500000000000002
 50
116.1038811146491
 51
132.8619874607999
  0
ARC
  5
A34
  8
0
 10
0.5870391757604042
 20
2.7892596982986801
 30
0.0
 40
0.3523294431880124
 50
296.10793824700119
 51
312.65126822852039
  0
ARC
  5
A35
  8
0
 10
0.9786609745007572
 20
2.380799238329065
 30
0.0
 40
0.2137251416506478
 50
94.447768449654689
 51
135.67887913350461
  0
ARC
  5
A36
  8
0
 10
0.9564444606621297
 20
2.404176286206364
 30
0.0
 40
0.1897883314901736
 50
41.576906170082609
 51
88.296446246761136
  0
ARC
  5
A37
  8
0
 10
1.321033678076607
 20
2.7657279626289988
 30
0.0
 40
0.3241395686647591
 50
226.6236328140603
 51
244.61716067825981
  0
ARC
  5
A38
  8
0
 10
0.9620865341004382
 20
2.0238807348457142
 30
0.0
 40
0.4999999998249562
 50
29.999999995916291
 51
63.896118888338137
  0
ARC
  5
A39
  8
0
 10
1.418416825380111
 20
2.2413801191176259
 30
0.0
 40
0.0399999998692953
 50
32.437364510650497
 51
125.6575749671679
  0
ARC
  5
A3A
  8
0
 10
1.6415009561909559
 20
2.428956204345309
 30
0.0
 40
0.2518732607071645
 50
221.2649522725965
 51
261.76163295296038
  0
ARC
  5
A3B
  8
0
 10
1.6633020080140439
 20
2.4761209783266591
 30
0.0
 40
0.30203891910969
 50
258.94962513819331
 51
287.85770587977822
  0
ARC
  5
A3C
  8
0
 10
1.7026841668550621
 20
2.3220838712051952
 30
0.0
 40
0.1436777529464036
 50
291.74933551539732
 51
320.98793831102671
  0
ARC
  5
A3D
  8
0
 10
1.8351489202925539
 20
2.2195084839901669
 30
0.0
 40
0.0241016137583456
 50
91.408939685464048
 51
149.775376062173
  0
ARC
  5
A3E
  8
0
 10
1.8088702576084901
 20
2.4508316988372671
 30
0.0
 40
0.2088051194268298
 50
277.06534733679268
 51
301.30748089103918
  0
ARC
  5
A3F
  8
0
 10
1.8484436749129891
 20
2.3759450280448542
 30
0.0
 40
0.1243637693617378
 50
303.6587997446635
 51
337.68370121929451
  0
ARC
  5
A40
  8
0
 10
1.9879778581473371
 20
2.323885553605987
 30
0.0
 40
0.0249305015192468
 50
78.972789969031595
 51
168.8028549559771
  0
ARC
  5
A41
  8
0
 10
1.910109469207943
 20
2.02371856690017
 30
0.0
 40
0.3349898058445892
 50
285.48055355162882
 51
75.718563615913794
  0
ARC
  5
A43
  8
0
 10
1.989071775674206
 20
1.7249304317178451
 30
0.0
 40
0.0262210504324141
 50
192.99355955670961
 51
293.48722604228851
  0
ARC
  5
A44
  8
0
 10
1.827956917547523
 20
1.653887709904678
 30
0.0
 40
0.1504063506910098
 50
25.667054777988689
 51
87.486270746852469
  0
ARC
  5
A45
  8
0
 10
1.8351760844709579
 20
1.828279975754342
 30
0.0
 40
0.0241386737816681
 50
210.24752200246101
 51
268.5221977619089
  0
ARC
  5
A47
  8
0
 10
1.6812402038352201
 20
1.6917157723221641
 30
0.0
 40
0.1821750333699238
 50
43.069531514340447
 51
93.462919457336682
  0
ARC
  5
A48
  8
0
 10
1.6692247365359589
 20
1.532058373373741
 30
0.0
 40
0.3415012970551245
 50
89.830272415863405
 51
120.5183557538776
  0
ARC
  5
A49
  8
0
 10
1.5824098912908009
 20
1.691120413214229
 30
0.0
 40
0.1605005110115812
 50
122.6557123595167
 51
144.2352739843214
  0
ARC
  5
A4A
  8
0
 10
1.418416825261219
 20
1.806381350556941
 30
0.0
 40
0.0400000000632722
 50
234.3424254280574
 51
327.56263542244358
  0
ARC
  5
A4B
  8
0
 10
2.5794030948890501
 20
0.9853300515161407
 30
0.0
 40
1.4228098293137219
 50
146.34294356040459
 51
151.45194480276501
  0
ARC
  5
A4C
  8
0
 10
2.6299460581012082
 20
1.288720938938225
 30
0.0
 40
1.354179765725555
 50
163.96801160185859
 51
183.39304026626539
  0
ARC
  5
A4D
  8
0
 10
10.03012801290644
 20
1.046177204697829
 30
0.0
 40
8.7534944107025137
 50
178.93697711954081
 51
185.19884835079921
  0
ARC
  5
A4E
  8
0
 10
2.9573521074672779
 20
0.3644294040942505
 30
0.0
 40
1.6484788757600251
 50
183.87585772105859
 51
204.05930495674161
  0
LINE
  5
A4F
  8
0
 10
1.452086534000004
 20
-0.3076257701000101
 30
0.0
 11
1.452086534
 21
-0.366713106
 31
0.0
  0
ARC
  5
A50
  8
0
 10
1.4820865340059211
 20
-0.3667131059983465
 30
0.0
 40
0.030000000005922
 50
180.00000000315791
 51
242.39852514675999
  0
ARC
  5
A51
  8
0
 10
1.3525345471159791
 20
-0.6148467689262184
 30
0.0
 40
0.2499179074638004
 50
297.56545535533019
 51
62.434544659942951
  0
ARC
  5
A52
  8
0
 10
1.482086534
 20
-0.8629804317000006
 30
0.0
 40
0.0300000000000009
 50
117.60173787797071
 51
179.99999999999889
  0
LINE
  5
A53
  8
0
 10
1.452086534
 20
-0.8629804317000001
 30
0.0
 11
1.452086534
 21
-0.9261192653
 31
0.0
  0
ARC
  5
A54
  8
0
 10
1.5345231510427559
 20
-1.04178809282929
 30
0.0
 40
0.1420389858153561
 50
125.4772893397954
 51
160.41122105490049
  0
ARC
  5
A55
  8
0
 10
1.4818788017195581
 20
-1.002886994466583
 30
0.0
 40
0.0816408776023952
 50
173.86865898362089
 51
243.40836117884049
  0
ARC
  5
A56
  8
0
 10
1.666389449197601
 20
-0.6431702279310501
 30
0.0
 40
0.4859151389096644
 50
242.9398258129651
 51
266.06441166761442
  0
ARC
  5
A57
  8
0
 10
1.497805347220581
 20
-2.2516869914147222
 30
0.0
 40
1.131855324431889
 50
69.062959221831434
 51
83.137945096246554
  0
ARC
  5
A58
  8
0
 10
1.8026418700569791
 20
-1.460217916643199
 30
0.0
 40
0.2837194637336255
 50
12.61404438255204
 51
69.443475179376875
  0
LINE
  5
A59
  8
0
 10
2.0795132712000002
 20
-1.3982585644000021
 30
0.0
 11
2.0870865339999991
 21
-1.476119265299999
 31
0.0
  0
LINE
  5
A5A
  8
0
 10
2.0870865339999991
 20
-1.476119265299999
 30
0.0
 11
-0.162913466
 21
-1.476119265299999
 31
0.0
  0
LINE
  5
A5B
  8
0
 10
-0.162913466
 20
-1.476119265299999
 30
0.0
 11
-0.1552380976185426
 21
-1.3982585644000001
 31
0.0
  0
ARC
  5
A5C
  8
0
 10
0.1100598489924017
 20
-1.454557503376027
 30
0.0
 40
0.2713085696377082
 50
120.72610744482471
 51
167.82683785503511
  0
ARC
  5
A5D
  8
0
 10
0.25789696554757
 20
-1.698560398036943
 30
0.0
 40
0.55659857084511
 50
98.663602664093887
 51
120.97461750145069
  0
ARC
  5
A5E
  8
0
 10
-0.1853031172269755
 20
1.3530041348753039
 30
0.0
 40
2.5269990755920348
 50
278.17560118046117
 51
284.01839790923299
  0
ARC
  5
A5F
  8
0
 10
0.4032300880970629
 20
-0.9668429313028681
 30
0.0
 40
0.1339860095113027
 50
280.14074896616103
 51
330.59067375697612
  0
ARC
  5
A60
  8
0
 10
0.4507575462087571
 20
-1.0078792504192631
 30
0.0
 40
0.0734879493546543
 50
340.3128550981636
 51
44.830245825438759
  0
LINE
  5
A61
  8
0
 10
0.5028751020690662
 20
-0.9560696077694654
 30
0.0
 11
0.472086534
 21
-0.9261192653
 31
0.0
  0
LINE
  5
A62
  8
0
 10
0.4720865340000002
 20
-0.9261192653000001
 30
0.0
 11
0.472086534
 21
-0.8629804317000001
 31
0.0
  0
ARC
  5
A63
  8
0
 10
0.4420865342998265
 20
-0.8629804316162894
 30
0.0
 40
0.0299999997001736
 50
359.9999998401243
 51
62.398525588631522
  0
ARC
  5
A64
  8
0
 10
0.5718158110209629
 20
-0.6148467688500001
 30
0.0
 40
0.2499999999209629
 50
117.60147484170049
 51
242.39852520446769
  0
ARC
  5
A65
  8
0
 10
0.4420865339934596
 20
-0.3667131059981739
 30
0.0
 40
0.0300000000065404
 50
297.60147476571831
 51
359.99999999651237
  0
LINE
  5
A66
  8
0
 10
0.472086534
 20
-0.366713106
 30
0.0
 11
0.472086534
 21
-0.3076257701
 31
0.0
  0
ARC
  5
A67
  8
0
 10
-0.4007025978567298
 20
0.1525307694498964
 30
0.0
 40
0.9866635239927335
 50
332.200666090249
 51
350.90523426565619
  0
ARC
  5
A68
  8
0
 10
-6.6998163478425781
 20
1.063411604135978
 30
0.0
 40
7.3494274613557957
 50
351.5865335373162
 51
2.992821502585024
  0
ARC
  5
A69
  8
0
 10
-0.0262350122933628
 20
1.427245830843374
 30
0.0
 40
0.6661190104045077
 50
1.7106962286241989
 51
18.21441980409368
  0
ARC
  5
A73
  8
0
 10
0.5781978576882505
 20
1.6255281793504861
 30
0.0
 40
0.0299999300390954
 50
19.327742886470691
 51
102.45501000517019
  0
ARC
  5
A75
  8
0
 10
0.2827692521485004
 20
1.440446321180882
 30
0.0
 40
0.3379253401318808
 50
42.301474242207739
 51
66.514963491265036
  0
ARC
  5
A76
  8
0
 10
0.2967297581216841
 20
1.507907239763201
 30
0.0
 40
0.2708554047643275
 50
63.535241913527813
 51
102.98005026441039
  0
ARC
  5
A77
  8
0
 10
0.2772751428544635
 20
1.636688611233498
 30
0.0
 40
0.1413468150597969
 50
107.0241155205935
 51
137.6649433254085
  0
ARC
  5
A78
  8
0
 10
0.1271818503999999
 20
1.7738807347000001
 30
0.0
 40
0.0620000000000002
 50
180.0000000000002
 51
317.3576900386953
  0
LINE
  5
A79
  8
0
 10
0.0651818504
 20
1.8063807347
 30
0.0
 11
-0.4005668864
 21
1.8063807347
 31
0.0
  0
ARC
  5
A7A
  8
0
 10
-0.4029749716501468
 20
1.7816204746602211
 30
0.0
 40
0.0248770848736229
 50
84.445108562169267
 51
144.91187346485009
  0
ARC
  5
A7B
  8
0
 10
-0.6894208397761313
 20
2.0245172530290318
 30
0.0
 40
0.3507992593962803
 50
297.38055223941069
 51
319.3342659603378
  0
ARC
  5
A7C
  8
0
 10
-0.522181654776029
 20
1.6972463186602
 30
0.0
 40
0.0168411574528252
 50
110.53365896023649
 51
186.96579494561709
  0
ARC
  5
A7D
  8
0
 10
0.3948797596612208
 20
1.683647623396759
 30
0.0
 40
0.9338497689649198
 50
179.29095503572111
 51
185.32344996110069
  0
ARC
  5
A7E
  8
0
 10
-0.4249609592599687
 20
1.604235602497275
 30
0.0
 40
0.1102184875411035
 50
183.7605028591216
 51
209.9780649509797
  0
ARC
  5
A7F
  8
0
 10
-0.4814213547990418
 20
1.5747518866253629
 30
0.0
 40
0.0466560516261422
 50
213.26143103471671
 51
259.14532623703462
  0
ARC
  5
A80
  8
0
 10
-0.4741168238041013
 20
1.582727983345847
 30
0.0
 40
0.0561521997811989
 50
253.3481386373424
 51
264.29048011642982
  0
ARC
  5
A81
  8
0
 10
-0.4792554157747257
 20
1.509525374972849
 30
0.0
 40
0.0173347592680808
 50
351.6074728252799
 51
91.479973398623613
  0
LINE
  5
A82
  8
0
 10
-0.4621062879000001
 20
1.5069952975000001
 30
0.0
 11
-0.4621062879000001
 21
1.465882037499999
 31
0.0
  0
ARC
  5
A83
  8
0
 10
-0.479034577439047
 20
1.4630847520168739
 30
0.0
 40
0.0171578493055485
 50
274.03155663638222
 51
9.3829520603410614
  0
ARC
  5
A84
  8
0
 10
-0.5134461670705131
 20
1.2291976627413881
 30
0.0
 40
0.2196784074763086
 50
35.390711969738163
 51
80.669072037610746
  0
ARC
  5
A85
  8
0
 10
-0.3535041240413847
 20
1.3385196231515539
 30
0.0
 40
0.0262123632992505
 50
312.90585742001952
 51
43.083103793493478
  0
ARC
  5
A86
  8
0
 10
0.0584308554093597
 20
0.9938062635973031
 30
0.0
 40
0.5111212330881273
 50
140.44482362113541
 51
174.21760619397949
  0
ARC
  5
A87
  8
0
 10
0.8511992845839507
 20
0.9087463119728093
 30
0.0
 40
1.3084343111026511
 50
174.00937476771281
 51
192.3372668491013
  0
ARC
  5
A88
  8
0
 10
-76.422149651462291
 20
-13.4952569606063
 30
0.0
 40
77.296568794031359
 50
10.14144966425755
 51
10.52884042364659
  0
ARC
  5
A89
  8
0
 10
-1.534320412885614
 20
-0.1075835602966766
 30
0.0
 40
1.221519976483874
 50
343.29017923260852
 51
10.50082303955554
  0
ARC
  5
A8A
  8
0
 10
-0.7376994870751162
 20
-0.3537421992326751
 30
0.0
 40
0.3878192514875561
 50
300.38240432332572
 51
344.28243494639861
  0
ARC
  5
A8B
  8
0
 10
-0.6881013269530315
 20
-0.4149911943082037
 30
0.0
 40
0.3101213507085823
 50
225.4054731937272
 51
298.20013818646038
  0
ARC
  5
A8C
  8
0
 10
-0.3063798150865651
 20
-0.1670944867762023
 30
0.0
 40
0.7609557537585956
 50
173.83713821898539
 51
218.0230163258862
  0
ARC
  5
A8D
  8
0
 10
4.180481219632191
 20
-0.5420967179717579
 30
0.0
 40
5.2632701995656213
 50
167.14187997679409
 51
175.02217853742491
  0
ARC
  5
A8E
  8
0
 10
-2.1196381573698351
 20
0.8962855837531008
 30
0.0
 40
1.198962248011523
 50
347.12752477303508
 51
10.52087255358181
  0
ARC
  5
A8F
  8
0
 10
-1.419717249305368
 20
1.0046817041671561
 30
0.0
 40
0.491474272933742
 50
12.996313300152391
 51
39.824212317037578
  0
ARC
  5
A90
  8
0
 10
-1.0247300984298711
 20
1.3385359354135571
 30
0.0
 40
0.0259220870623849
 50
136.37112935981639
 51
227.4525118230215
  0
ARC
  5
A91
  8
0
 10
-0.8546631043432506
 20
1.2154248213179999
 30
0.0
 40
0.2356627246487381
 50
102.0591961966972
 51
143.2517771552188
  0
ARC
  5
A92
  8
0
 10
-0.8985684653691453
 20
1.4633089226282039
 30
0.0
 40
0.0173441101056997
 50
171.46829331301689
 51
267.82355208073022
  0
LINE
  5
A93
  8
0
 10
-0.9157206440999999
 20
1.465882037499999
 30
0.0
 11
-0.9157206440999997
 21
1.5069952975000001
 31
0.0
  0
ARC
  5
A94
  8
0
 10
-0.8986099479405476
 20
1.509542890053972
 30
0.0
 40
0.0172993107054051
 50
88.402811558041662
 51
188.46849442995
  0
ARC
  5
A95
  8
0
 10
-0.8991390648308005
 20
1.5773458089328021
 30
0.0
 40
0.0505204520329072
 50
271.14699519544729
 51
339.45907958415131
  0
ARC
  5
A97
  8
0
 10
-1.102321807564987
 20
1.639319217838763
 30
0.0
 40
0.2628648011575456
 50
342.35027216265388
 51
1.696667014504845
  0
ARC
  5
A98
  8
0
 10
-2.6354912388349412
 20
1.695194941406978
 30
0.0
 40
1.7965628098571731
 50
358.46604668131431
 51
0.000285039902818
  0
ARC
  5
A99
  8
0
 10
-0.8564627557289103
 20
1.696749687036597
 30
0.0
 40
0.0176023332547964
 50
354.96188902892862
 51
67.543550095800313
  0
ARC
  5
A9A
  8
0
 10
-0.6702575147801388
 20
2.0480089041619949
 30
0.0
 40
0.3800434436819411
 50
222.77334660016581
 51
241.8185312574598
  0
ARC
  5
A9B
  8
0
 10
-1.0100312859123779
 20
1.8118807346619139
 30
0.0
 40
0.0129999999619149
 50
197.9741609912289
 51
270.00000005455769
  0
LINE
  5
A9C
  8
0
 10
-1.0100312859
 20
1.7988807346999991
 30
0.0
 11
-0.9669134659999999
 21
1.7988807346999991
 31
0.0
  0
ARC
  5
A9D
  8
0
 10
-0.9669134660000001
 20
1.8088807347
 30
0.0
 40
0.0100000000000002
 50
270.00000000000131
 51
356.98083565302198
  0
ARC
  5
A9E
  8
0
 10
-0.929815724273418
 20
1.8086938447940279
 30
0.0
 40
0.027113751450948
 50
180.71809244661341
 51
224.03290835583309
  0
LINE
  5
AE4
  8
0
 10
-0.8817108772999983
 20
2.5892355316
 30
0.0
 11
-0.4961161662393874
 21
2.5892567207272141
 31
0.0
  0
ARC
  5
AEE
  8
0
 10
-0.8943514149552193
 20
1.073772725671279
 30
0.0
 40
0.3722367247042646
 50
90.059937342460543
 51
91.469641730429174
  0
ARC
  5
AEF
  8
0
 10
-0.8814136401936037
 20
9.2356507315402059
 30
0.0
 40
7.789652885455415
 50
269.90197366303022
 51
270.46377337845649
  0
LINE
  5
AF0
  8
0
 10
-0.8183619771000683
 20
1.446253029299998
 30
0.0
 11
-0.49726166655
 21
1.446088234749999
 31
0.0
  0
ARC
  5
AF1
  8
0
 10
-0.4923064844099434
 20
0.667626156437245
 30
0.0
 40
0.7784778488827121
 50
88.934346223321285
 51
90.364702657810795
  0
ARC
  5
AF2
  8
0
 10
-0.8492650367532071
 20
1.711890350599085
 30
0.0
 40
0.0012225029480745
 50
81.633691907022154
 51
112.81126775337469
  0
ARC
  5
AF3
  8
0
 10
-0.8456088905449485
 20
1.8516694439344139
 30
0.0
 40
0.1386132477833666
 50
268.56210613580299
 51
269.98740524539772
  0
ARC
  5
AF4
  8
0
 10
-0.833368002039797
 20
0.9073338816517091
 30
0.0
 40
0.8058157604051194
 50
90.255612305451933
 51
90.872562019214456
  0
ARC
  5
AF5
  8
0
 10
-0.7079656694422779
 20
-27.041047999931969
 30
0.0
 40
28.75447897583436
 50
89.862289901368513
 51
90.257039083819265
  0
ARC
  5
AF6
  8
0
 10
-0.5220277450991863
 20
30.850287713225448
 30
0.0
 40
29.137174003421329
 50
269.77026948710488
 51
269.9734538295707
  0
ARC
  5
AF7
  8
0
 10
-0.533973851418762
 20
1.5509018140147159
 30
0.0
 40
0.1622224633935769
 50
87.920993477654704
 51
90.548754128265514
  0
ARC
  5
B3F
  8
0
 10
-0.8268011635932476
 20
3.1985726028884298
 30
0.0
 40
0.8538719739345715
 50
269.86313909926139
 51
271.01297153096442
  0
ARC
  5
B40
  8
0
 10
-0.7472889405081002
 20
-15.588486196459661
 30
0.0
 40
17.933435962740891
 50
89.904471027125496
 51
90.205806617606015
  0
ARC
  5
B41
  8
0
 10
-0.6336130919375275
 20
15.98696778388187
 30
0.0
 40
13.642300173501051
 50
269.64815210490082
 51
270.28327250821178
  0
ARC
  5
B42
  8
0
 10
-0.561705891745705
 20
1.8530635433932521
 30
0.0
 40
0.4917910183407776
 50
88.61111173446362
 51
90.519549433181609
  0
ARC
  5
B88
  8
0
 10
-0.8827990974502927
 20
2.655360648426861
 30
0.0
 40
0.1748968356107338
 50
269.5890670039343
 51
272.27708315166649
  0
ARC
  5
B89
  8
0
 10
-0.8599849401498717
 20
11.53099477170114
 30
0.0
 40
9.0504067601479434
 50
269.89956190821141
 51
270.43382572324361
  0
LINE
  5
B8A
  8
0
 10
-0.7914587454502183
 20
2.48084744225
 30
0.0
 11
-0.5147473800500001
 21
2.480675372499999
 31
0.0
  0
ARC
  5
B8B
  8
0
 10
-0.5098205952853463
 20
1.910028272326399
 30
0.0
 40
0.5706683679201579
 50
88.388274793175796
 51
90.494661166164946
  0
LINE
  5
BD1
  8
0
 10
1.834554705824142
 20
2.2436025270660922
 30
0.0
 11
1.8345535563999991
 21
1.8041493306999989
 31
0.0
  0
ARC
  5
C17
  8
0
 10
0.3464344213886179
 20
1.7335815371484811
 30
0.0
 40
0.2386631695486221
 50
340.73106932535637
 51
0.7203341899516785
  0
ARC
  5
C18
  8
0
 10
0.563099829245464
 20
1.693879208494353
 30
0.0
 40
0.0399982262541487
 50
220.5408982704962
 51
282.4572461928002
  0
ARC
  5
C5E
  8
0
 10
-0.9916894698315187
 20
-1.6408188258005081
 30
0.0
 40
2.9976882440936561
 50
89.800904141669335
 51
90.990189390975402
  0
ARC
  5
C5F
  8
0
 10
-0.9427809300403545
 20
356.29559053700967
 30
0.0
 40
354.93874130407397
 50
269.99378645792359
 51
270.06766988108598
  0
ARC
  5
C60
  8
0
 10
-0.5175990929204478
 20
-27.441116646427531
 30
0.0
 40
28.798214053073679
 50
89.643155794074403
 51
90.011891986132838
  0
ARC
  5
C61
  8
0
 10
-0.3284701473330588
 20
1.6215803246843981
 30
0.0
 40
0.265221523227548
 50
267.8885283645119
 51
268.72760523212509
  0
ARC
  5
CA7
  8
0
 10
-0.8701376289162988
 20
-0.0259678139459416
 30
0.0
 40
1.553055542095626
 50
89.877492850506727
 51
91.032676436932405
  0
ARC
  5
CA8
  8
0
 10
-0.7041279673474169
 20
-56.179045280846097
 30
0.0
 40
57.706358790355772
 50
89.946881524074755
 51
90.161531679476738
  0
ARC
  5
CA9
  8
0
 10
-0.6442510394070085
 20
-39.981005252509974
 30
0.0
 40
41.508294452690613
 50
89.804202064204105
 51
90.008803586778541
  0
ARC
  5
CAA
  8
0
 10
-0.5017038918609761
 20
0.2708674303089964
 30
0.0
 40
1.2561795970246119
 50
88.996468926808362
 51
90.031943986121703
  0
ATTDEF
  5
13F0
  8
DEFPOINTS
 10
4.958626094389464
 20
-1.4809517017872089
 30
0.0
 40
0.001
  1
K-98068-9M
  3

  2
MODELNUMBER
 70
     0
1001
ACDBATTR
1070
     0
1070
     1
  0
ATTDEF
  5
13F1
  8
DEFPOINTS
 10
4.958626094389464
 20
-1.4826183684538761
 30
0.0
 40
0.001
  1
ARTIFACTS
  3

  2
TRADENAME
 70
     0
1001
ACDBATTR
1070
     0
1070
     1
  0
ATTDEF
  5
13F2
  8
DEFPOINTS
 10
4.958626094389464
 20
-1.4842850351205421
 30
0.0
 40
0.001
  1
BATHROOM SINK FAUCET HANDLES
  3

  2
PRODUCT
 70
     0
1001
ACDBATTR
1070
     0
1070
     1
  0
ATTDEF
  5
13F3
  8
DEFPOINTS
 10
4.958626094389464
 20
-1.485951701787209
 30
0.0
 40
0.001
  1
METAL
  3

  2
MATERIAL
 70
     0
1001
ACDBATTR
1070
     0
1070
     1
  0
LINE
  5
1CC9
  8
0
 10
10.9465724087
 20
2.2397930385000002
 30
0.0
 11
10.946569899
 21
1.8078690899000001
 31
0.0
  0
LINE
  5
1CCA
  8
0
 10
10.3247399544
 20
2.2413807343999999
 30
0.0
 11
10.3247399544
 21
1.8063812425000001
 31
0.0
  0
LINE
  5
1CCB
  8
0
 10
9.8589912176000016
 20
2.2738807347000001
 30
0.0
 11
9.8589912176000016
 21
1.7738807347000001
 31
0.0
  0
LINE
  5
1CCC
  8
0
 10
9.7513842006000022
 20
1.7318807347
 30
0.0
 11
9.7513842006000022
 21
2.3158807346999999
 31
0.0
  0
LINE
  5
1CCD
  8
0
 10
9.3914695784000024
 20
2.3798807346999999
 30
0.0
 11
9.3914695784000024
 21
1.6678807347
 31
0.0
  0
LINE
  5
1CCE
  8
0
 10
9.3390943384000025
 20
2.3873018831000001
 30
0.0
 11
9.3390943384000025
 21
1.73658198
 31
0.0
  0
LINE
  5
1CCF
  8
0
 10
8.5290738321000017
 20
2.2738807347000001
 30
0.0
 11
8.5290738321000017
 21
1.7738807347000001
 31
0.0
  0
LINE
  5
1CD0
  8
0
 10
8.471997110100002
 20
1.7849262586000001
 30
0.0
 11
8.471997110100002
 21
2.2628352109000001
 31
0.0
  0
LINE
  5
1CD1
  8
0
 10
7.9606802539000006
 20
2.3287217001
 30
0.0
 11
7.9606509618000016
 21
1.7190348507
 31
0.0
  0
LINE
  5
1CD2
  8
0
 10
7.9246510342000009
 20
2.3465553109564619
 30
0.0
 11
7.9246510342000009
 21
1.7008818228
 31
0.0
  0
LINE
  5
1CD3
  8
0
 10
9.4520865340000029
 20
-0.9261192652999994
 30
0.0
 11
8.4720865340000024
 21
-0.9261192652999994
 31
0.0
  0
LINE
  5
1CD4
  8
0
 10
8.4720865340000024
 20
-0.8629804316999996
 30
0.0
 11
9.4520865340000029
 21
-0.8629804316999996
 31
0.0
  0
LINE
  5
1CD5
  8
0
 10
9.4520865340000029
 20
-0.3667131059999995
 30
0.0
 11
8.4720865340000024
 21
-0.3667131059999995
 31
0.0
  0
LINE
  5
1CD6
  8
0
 10
8.4720865340000024
 20
-0.3076257700999996
 30
0.0
 11
9.4520865340000029
 21
-0.3076257700999996
 31
0.0
  0
ARC
  5
1CD7
  8
0
 10
10.2807328555811
 20
2.0238807346135941
 30
0.0
 40
0.6999999993147779
 50
342.02583872772431
 51
356.35143958521041
  0
ARC
  5
1CD8
  8
0
 10
10.96683955454937
 20
1.9801308694210951
 30
0.0
 40
0.0124998516258281
 50
356.3507774358149
 51
84.821520095690843
  0
ARC
  5
1CD9
  8
0
 10
10.969444801935641
 20
2.0058564899327558
 30
0.0
 40
0.013362219927591
 50
181.3935323416672
 51
263.4744024655792
  0
LINE
  5
1CDA
  8
0
 10
10.956086534000001
 20
2.005531529699998
 30
0.0
 11
10.9560870687
 21
2.0423329026500001
 31
0.0
  0
ARC
  5
1CDB
  8
0
 10
10.9690864447434
 20
2.0422301508614278
 30
0.0
 40
0.0129997821307838
 50
95.059540995771187
 51
179.54712278513111
  0
ARC
  5
1CDC
  8
0
 10
10.96683939720303
 20
2.0676307346941321
 30
0.0
 40
0.0124999999938832
 50
275.18013813130432
 51
3.648560697549168
  0
ARC
  5
1CDD
  8
0
 10
10.28253149083981
 20
2.0241089441946958
 30
0.0
 40
0.698190496303766
 50
3.6392636175265389
 51
17.994077886951409
  0
ARC
  5
1CDE
  8
0
 10
10.934227608767509
 20
2.2359522783763972
 30
0.0
 40
0.0129284772382582
 50
17.282157246101089
 51
90.103059815600204
  0
LINE
  5
1CDF
  8
0
 10
10.9342043539
 20
2.2488807347000002
 30
0.0
 11
10.891086533999999
 21
2.2488807347000002
 31
0.0
  0
ARC
  5
1CE0
  8
0
 10
10.89107444106369
 20
2.238912759081261
 30
0.0
 40
0.0099679829541823
 50
89.930490011318426
 51
180.17889977783241
  0
LINE
  5
1CE1
  8
0
 10
10.8811065067
 20
2.2388816351999998
 30
0.0
 11
10.88110041426488
 21
1.8083540349413181
 31
0.0
  0
ARC
  5
1CE2
  8
0
 10
10.857153842041329
 20
2.2401904544278342
 30
0.0
 40
0.0239883961952817
 50
356.87235975312859
 51
47.371753808329657
  0
ARC
  5
1CE3
  8
0
 10
10.61295132694117
 20
2.0237314622388989
 30
0.0
 40
0.3502003431669127
 50
41.95136611359554
 51
66.424965669239882
  0
ARC
  5
1CE4
  8
0
 10
10.761243770040981
 20
2.3698749448794021
 30
0.0
 40
0.0264831098796312
 50
171.54157568777069
 51
251.89489881209329
  0
ARC
  5
1CE5
  8
0
 10
10.840508168879531
 20
2.3798900090495678
 30
0.0
 40
0.1056319010653394
 50
107.7945621776381
 51
183.3050280268312
  0
ARC
  5
1CE6
  8
0
 10
10.802063474853499
 20
2.505886780852185
 30
0.0
 40
0.0261551052706246
 50
283.62479101136529
 51
6.183641507032589
  0
LINE
  5
1CE7
  8
0
 10
10.828066403399999
 20
2.5087040913999998
 30
0.0
 11
10.828061561
 21
2.5602874553000001
 31
0.0
  0
ARC
  5
1CE8
  8
0
 10
10.8031089789425
 20
2.5641402192299441
 30
0.0
 40
0.0252482700642233
 50
351.2226497705816
 51
83.690034622410735
  0
ARC
  5
1CE9
  8
0
 10
10.85851123109091
 20
2.7491773308645642
 30
0.0
 40
0.1683775827172487
 50
222.84180311996391
 51
251.78671479384431
  0
ARC
  5
1CEA
  8
0
 10
10.17711098604833
 20
2.0567574103556518
 30
0.0
 40
0.8033037440173521
 50
46.008088840629803
 51
51.62323414564294
  0
ARC
  5
1CEB
  8
0
 10
10.61316708667748
 20
2.6118193287132918
 30
0.0
 40
0.0974878299520672
 50
50.003882902519862
 51
105.8580789859698
  0
ARC
  5
1CEC
  8
0
 10
10.684814887104579
 20
2.4777495476404212
 30
0.0
 40
0.248000645491196
 50
113.0074046752696
 51
138.6388262604861
  0
ARC
  5
1CED
  8
0
 10
10.294905912793951
 20
2.8458454006869052
 30
0.0
 40
0.2884898625565684
 50
301.67676384272357
 51
314.93731900933398
  0
ARC
  5
1CEE
  8
0
 10
10.390915998519461
 20
2.6948075553728641
 30
0.0
 40
0.1095616980109923
 50
285.55109830862062
 51
300.42527808432311
  0
ARC
  5
1CEF
  8
0
 10
10.423127016496119
 20
2.564088852788835
 30
0.0
 40
0.02532734855251
 50
96.433167626493599
 51
188.63163596390939
  0
LINE
  5
1CF0
  8
0
 10
10.398086534000001
 20
2.5602876922999989
 30
0.0
 11
10.398086534000001
 21
2.5087038952
 31
0.0
  0
ARC
  5
1CF1
  8
0
 10
10.42140296399163
 20
2.504003380061476
 30
0.0
 40
0.023785515553004
 50
168.60212952875611
 51
261.6356116937647
  0
ARC
  5
1CF2
  8
0
 10
10.389927762777949
 20
2.3863980720249391
 30
0.0
 40
0.098155699586362
 50
13.396567582085369
 51
73.416308060106118
  0
ARC
  5
1CF3
  8
0
 10
10.243688393652571
 20
2.3519842719394921
 30
0.0
 40
0.2483895106281401
 50
5.0318155563891898
 51
13.30320363914781
  0
ARC
  5
1CF4
  8
0
 10
10.46516050776766
 20
2.369465110365867
 30
0.0
 40
0.0263146925741334
 50
283.51539163438531
 51
9.4160239276730504
  0
ARC
  5
1CF5
  8
0
 10
10.61388801351446
 20
2.0227996429680908
 30
0.0
 40
0.3513124196889192
 50
113.9439473262147
 51
139.31173100225931
  0
ARC
  5
1CF6
  8
0
 10
10.32713833004123
 20
2.2661414902640078
 30
0.0
 40
0.0248842551522066
 50
264.46917549230801
 51
324.90692657693529
  0
LINE
  5
1CF7
  8
0
 10
10.3247399544
 20
2.241373084001923
 30
0.0
 11
9.8589912176000016
 21
2.2413807346999999
 31
0.0
  0
ARC
  5
1CF8
  8
0
 10
9.7969912176000022
 20
2.2738807347000001
 30
0.0
 40
0.0620000000000002
 50
0.0000000000000064
 51
137.3576900386937
  0
ARC
  5
1CF9
  8
0
 10
9.6378736013888435
 20
2.42709096521543
 30
0.0
 40
0.1589099477835525
 50
269.24509665418799
 51
315.5864913116356
  0
ARC
  5
1CFA
  8
0
 10
9.6424327174137794
 20
2.6058021843137542
 30
0.0
 40
0.3376729164989327
 50
221.9941018011811
 51
268.87109408994911
  0
ARC
  5
1CFB
  8
0
 10
9.361072210037765
 20
2.35388073458661
 30
0.0
 40
0.0400000001210003
 50
40.541601834316673
 51
123.32906867755609
  0
ARC
  5
1CFC
  8
0
 10
9.3226109346037518
 20
2.4123677445087401
 30
0.0
 40
0.0300000002083292
 50
227.1380127435994
 51
303.32906868515721
  0
ARC
  5
1CFD
  8
0
 10
8.9620865340000009
 20
2.0238807346999979
 30
0.0
 40
0.500000000000002
 50
47.138012539200069
 51
63.896118885350838
  0
ARC
  5
1CFE
  8
0
 10
9.3371338922395974
 20
2.789259698298681
 30
0.0
 40
0.3523294431880124
 50
227.34873177147961
 51
243.8920617529989
  0
ARC
  5
1CFF
  8
0
 10
8.9455120934992447
 20
2.3807992383290659
 30
0.0
 40
0.2137251416506478
 50
44.321120866495427
 51
85.552231550345354
  0
ARC
  5
1D00
  8
0
 10
8.9677286073378717
 20
2.404176286206364
 30
0.0
 40
0.1897883314901736
 50
91.703553753238765
 51
138.42309382991741
  0
ARC
  5
1D01
  8
0
 10
8.6031393899233954
 20
2.7657279626290001
 30
0.0
 40
0.3241395686647591
 50
295.38283932174022
 51
313.37636718593978
  0
ARC
  5
1D02
  8
0
 10
8.9620865338995621
 20
2.0238807348457142
 30
0.0
 40
0.4999999998249562
 50
116.10388111166201
 51
150.0000000040836
  0
ARC
  5
1D03
  8
0
 10
8.5057562426198903
 20
2.2413801191176259
 30
0.0
 40
0.0399999998692953
 50
54.342425032832139
 51
147.5626354893495
  0
ARC
  5
1D04
  8
0
 10
8.2826721118090454
 20
2.428956204345309
 30
0.0
 40
0.2518732607071645
 50
278.23836704703967
 51
318.73504772740353
  0
ARC
  5
1D05
  8
0
 10
8.2608710599859574
 20
2.47612097832666
 30
0.0
 40
0.30203891910969
 50
252.14229412022189
 51
281.05037486180669
  0
ARC
  5
1D06
  8
0
 10
8.221488901144939
 20
2.3220838712051952
 30
0.0
 40
0.1436777529464036
 50
219.0120616889734
 51
248.25066448460271
  0
ARC
  5
1D07
  8
0
 10
8.0890241477074483
 20
2.2195084839901669
 30
0.0
 40
0.0241016137583456
 50
30.22462393782698
 51
88.591060314535994
  0
ARC
  5
1D08
  8
0
 10
8.1153028103915101
 20
2.450831698837268
 30
0.0
 40
0.2088051194268298
 50
238.69251910896091
 51
262.93465266320732
  0
ARC
  5
1D09
  8
0
 10
8.0757293930870127
 20
2.3759450280448542
 30
0.0
 40
0.1243637693617378
 50
202.31629878070561
 51
236.3412002553365
  0
ARC
  5
1D0A
  8
0
 10
7.936195209852662
 20
2.323885553605987
 30
0.0
 40
0.0249305015192468
 50
11.197145044022861
 51
101.0272100309685
  0
ARC
  5
1D0B
  8
0
 10
8.0140635987920579
 20
2.0237185669001709
 30
0.0
 40
0.3349898058445892
 50
104.28143638408611
 51
254.5194464483713
  0
ARC
  5
1D0C
  8
0
 10
7.9351012923257951
 20
1.724930431717846
 30
0.0
 40
0.0262210504324141
 50
246.5127739577114
 51
347.00644044329027
  0
ARC
  5
1D0D
  8
0
 10
8.0962161504524772
 20
1.653887709904678
 30
0.0
 40
0.1504063506910098
 50
92.513729253147574
 51
154.3329452220112
  0
ARC
  5
1D0E
  8
0
 10
8.0889969835290412
 20
1.828279975754342
 30
0.0
 40
0.0241386737816681
 50
271.47780223809099
 51
329.75247799753902
  0
ARC
  5
1D0F
  8
0
 10
8.2429328641647821
 20
1.691715772322165
 30
0.0
 40
0.1821750333699238
 50
86.537080542663304
 51
136.9304684856595
  0
ARC
  5
1D10
  8
0
 10
8.2549483314640426
 20
1.532058373373741
 30
0.0
 40
0.3415012970551245
 50
59.481644246122379
 51
90.169727584136623
  0
ARC
  5
1D11
  8
0
 10
8.3417631767092004
 20
1.691120413214229
 30
0.0
 40
0.1605005110115812
 50
35.764726015678491
 51
57.344287640483437
  0
ARC
  5
1D12
  8
0
 10
8.5057562427387836
 20
1.8063813505569419
 30
0.0
 40
0.0400000000632722
 50
212.43736457755639
 51
305.6575745719424
  0
ARC
  5
1D13
  8
0
 10
7.3447699731109513
 20
0.9853300515161414
 30
0.0
 40
1.4228098293137219
 50
28.548055197234842
 51
33.65705643959533
  0
ARC
  5
1D14
  8
0
 10
7.294227009898794
 20
1.288720938938225
 30
0.0
 40
1.354179765725555
 50
356.60695973373458
 51
16.031988398141468
  0
ARC
  5
1D15
  8
0
 10
-0.1059549449064399
 20
1.0461772046978299
 30
0.0
 40
8.7534944107025137
 50
354.80115164920068
 51
1.063022880459191
  0
ARC
  5
1D16
  8
0
 10
6.9668209605327229
 20
0.3644294040942508
 30
0.0
 40
1.6484788757600251
 50
335.94069504325842
 51
356.12414227894141
  0
LINE
  5
1D17
  8
0
 10
8.4720865339999971
 20
-0.3076257701000096
 30
0.0
 11
8.4720865340000024
 21
-0.3667131059999995
 31
0.0
  0
ARC
  5
1D18
  8
0
 10
8.4420865339940772
 20
-0.3667131059983459
 30
0.0
 40
0.030000000005922
 50
297.60147485324012
 51
359.99999999684212
  0
ARC
  5
1D19
  8
0
 10
8.5716385208840222
 20
-0.6148467689262179
 30
0.0
 40
0.2499179074638004
 50
117.565455340057
 51
242.4345446446699
  0
ARC
  5
1D1A
  8
0
 10
8.4420865340000013
 20
-0.8629804317000001
 30
0.0
 40
0.0300000000000009
 50
0.000000000001075
 51
62.398262122029209
  0
LINE
  5
1D1B
  8
0
 10
8.4720865340000024
 20
-0.8629804316999996
 30
0.0
 11
8.4720865340000024
 21
-0.9261192652999994
 31
0.0
  0
ARC
  5
1D1C
  8
0
 10
8.3896499169572447
 20
-1.04178809282929
 30
0.0
 40
0.1420389858153561
 50
19.58877894509941
 51
54.52271066020468
  0
ARC
  5
1D1D
  8
0
 10
8.4422942662804434
 20
-1.002886994466583
 30
0.0
 40
0.0816408776023952
 50
296.59163882115962
 51
6.1313410163790802
  0
ARC
  5
1D1E
  8
0
 10
8.2577836188023994
 20
-0.6431702279310496
 30
0.0
 40
0.4859151389096644
 50
273.93558833238569
 51
297.06017418703482
  0
ARC
  5
1D1F
  8
0
 10
8.4263677207794192
 20
-2.2516869914147208
 30
0.0
 40
1.131855324431889
 50
96.862054903753474
 51
110.93704077816859
  0
ARC
  5
1D20
  8
0
 10
8.1215311979430211
 20
-1.4602179166431981
 30
0.0
 40
0.2837194637336255
 50
110.556524820623
 51
167.38595561744791
  0
LINE
  5
1D21
  8
0
 10
7.844659796800002
 20
-1.398258564400001
 30
0.0
 11
7.837086534
 21
-1.476119265299999
 31
0.0
  0
LINE
  5
1D22
  8
0
 10
7.837086534
 20
-1.476119265299999
 30
0.0
 11
10.087086534000001
 21
-1.476119265299999
 31
0.0
  0
LINE
  5
1D23
  8
0
 10
10.087086534000001
 20
-1.476119265299999
 30
0.0
 11
10.07941116561854
 21
-1.398258564399999
 31
0.0
  0
ARC
  5
1D24
  8
0
 10
9.8141132190076004
 20
-1.454557503376027
 30
0.0
 40
0.2713085696377082
 50
12.173162144964831
 51
59.273892555175422
  0
ARC
  5
1D25
  8
0
 10
9.6662761024524322
 20
-1.6985603980369419
 30
0.0
 40
0.55659857084511
 50
59.025382498549249
 51
81.336397335906213
  0
ARC
  5
1D26
  8
0
 10
10.109476185226971
 20
1.3530041348753039
 30
0.0
 40
2.5269990755920348
 50
255.9816020907671
 51
261.82439881953883
  0
ARC
  5
1D27
  8
0
 10
9.520942979902939
 20
-0.9668429313028676
 30
0.0
 40
0.1339860095113027
 50
209.40932624302391
 51
259.85925103383897
  0
ARC
  5
1D28
  8
0
 10
9.4734155217912441
 20
-1.0078792504192631
 30
0.0
 40
0.0734879493546543
 50
135.16975417456129
 51
199.68714490183649
  0
LINE
  5
1D29
  8
0
 10
9.4212979659309362
 20
-0.956069607769465
 30
0.0
 11
9.4520865340000029
 21
-0.9261192652999994
 31
0.0
  0
LINE
  5
1D2A
  8
0
 10
9.4520865340000011
 20
-0.9261192652999996
 30
0.0
 11
9.4520865340000029
 21
-0.8629804316999996
 31
0.0
  0
ARC
  5
1D2B
  8
0
 10
9.4820865337001763
 20
-0.8629804316162889
 30
0.0
 40
0.0299999997001736
 50
117.6014744113684
 51
180.0000001598757
  0
ARC
  5
1D2C
  8
0
 10
9.3523572569790385
 20
-0.6148467688499996
 30
0.0
 40
0.2499999999209629
 50
297.6014747955324
 51
62.398525158299442
  0
ARC
  5
1D2D
  8
0
 10
9.482086534006541
 20
-0.3667131059981734
 30
0.0
 40
0.0300000000065404
 50
180.0000000034876
 51
242.39852523428181
  0
LINE
  5
1D2E
  8
0
 10
9.4520865340000029
 20
-0.3667131059999995
 30
0.0
 11
9.4520865340000029
 21
-0.3076257700999996
 31
0.0
  0
ARC
  5
1D2F
  8
0
 10
10.32487566585673
 20
0.1525307694498967
 30
0.0
 40
0.9866635239927335
 50
189.09476573434381
 51
207.799333909751
  0
ARC
  5
1D30
  8
0
 10
16.62398941584258
 20
1.063411604135978
 30
0.0
 40
7.3494274613557957
 50
177.00717849741491
 51
188.4134664626838
  0
ARC
  5
1D31
  8
0
 10
9.9504080802933643
 20
1.4272458308433751
 30
0.0
 40
0.6661190104045077
 50
161.78558019590631
 51
178.28930377137581
  0
ARC
  5
1D32
  8
0
 10
9.3459752103117513
 20
1.6255281793504861
 30
0.0
 40
0.0299999300390954
 50
77.544989994829919
 51
160.6722571135293
  0
ARC
  5
1D33
  8
0
 10
9.6414038158515005
 20
1.4404463211808829
 30
0.0
 40
0.3379253401318808
 50
113.48503650873501
 51
137.69852575779211
  0
ARC
  5
1D34
  8
0
 10
9.6274433098783181
 20
1.507907239763201
 30
0.0
 40
0.2708554047643275
 50
77.019949735589549
 51
116.4647580864723
  0
ARC
  5
1D35
  8
0
 10
9.646897925145538
 20
1.6366886112334991
 30
0.0
 40
0.1413468150597969
 50
42.335056674591542
 51
72.975884479406616
  0
ARC
  5
1D36
  8
0
 10
9.7969912176000022
 20
1.7738807347000001
 30
0.0
 40
0.0620000000000002
 50
222.64230996130479
 51
359.99999999999977
  0
LINE
  5
1D37
  8
0
 10
9.8589912176000016
 20
1.8063807347
 30
0.0
 11
10.3247399544
 21
1.8063807347
 31
0.0
  0
ARC
  5
1D38
  8
0
 10
10.327148039650149
 20
1.7816204746602211
 30
0.0
 40
0.0248770848736229
 50
35.088126535149918
 51
95.554891437830634
  0
ARC
  5
1D39
  8
0
 10
10.61359390777613
 20
2.0245172530290318
 30
0.0
 40
0.3507992593962803
 50
220.66573403966211
 51
242.61944776058931
  0
ARC
  5
1D3A
  8
0
 10
10.44635472277603
 20
1.6972463186602009
 30
0.0
 40
0.0168411574528252
 50
353.03420505438282
 51
69.466341039763464
  0
ARC
  5
1D3B
  8
0
 10
9.5292933083387812
 20
1.683647623396759
 30
0.0
 40
0.9338497689649198
 50
354.67655003889928
 51
0.7090449642788849
  0
ARC
  5
1D3C
  8
0
 10
10.34913402725997
 20
1.604235602497275
 30
0.0
 40
0.1102184875411035
 50
330.02193504902033
 51
356.23949714087843
  0
ARC
  5
1D3D
  8
0
 10
10.405594422799039
 20
1.5747518866253629
 30
0.0
 40
0.0466560516261422
 50
280.85467376296549
 51
326.73856896528338
  0
ARC
  5
1D3E
  8
0
 10
10.398289891804099
 20
1.5827279833458481
 30
0.0
 40
0.0561521997811989
 50
275.70951988357029
 51
286.6518613626576
  0
ARC
  5
1D3F
  8
0
 10
10.40342848377473
 20
1.509525374972849
 30
0.0
 40
0.0173347592680808
 50
88.520026601376443
 51
188.39252717472019
  0
LINE
  5
1D40
  8
0
 10
10.386279355899999
 20
1.5069952975000001
 30
0.0
 11
10.386279355899999
 21
1.4658820374999999
 31
0.0
  0
ARC
  5
1D41
  8
0
 10
10.403207645439039
 20
1.463084752016875
 30
0.0
 40
0.0171578493055485
 50
170.6170479396589
 51
265.96844336361789
  0
ARC
  5
1D42
  8
0
 10
10.43761923507051
 20
1.2291976627413881
 30
0.0
 40
0.2196784074763086
 50
99.330927962389225
 51
144.60928803026189
  0
ARC
  5
1D43
  8
0
 10
10.277677192041381
 20
1.3385196231515539
 30
0.0
 40
0.0262123632992505
 50
136.91689620650649
 51
227.09414257998071
  0
ARC
  5
1D44
  8
0
 10
9.8657422125906429
 20
0.9938062635973036
 30
0.0
 40
0.5111212330881273
 50
5.7823938060204716
 51
39.555176378864623
  0
ARC
  5
1D45
  8
0
 10
9.0729737834160513
 20
0.9087463119728095
 30
0.0
 40
1.3084343111026511
 50
347.6627331508987
 51
5.9906252322871119
  0
ARC
  5
1D46
  8
0
 10
86.346322719462293
 20
-13.4952569606063
 30
0.0
 40
77.296568794031359
 50
169.47115957635339
 51
169.85855033574239
  0
ARC
  5
1D47
  8
0
 10
11.458493480885609
 20
-0.1075835602966761
 30
0.0
 40
1.221519976483874
 50
169.4991769604444
 51
196.70982076739151
  0
ARC
  5
1D48
  8
0
 10
10.661872555075121
 20
-0.3537421992326746
 30
0.0
 40
0.3878192514875561
 50
195.71756505360119
 51
239.61759567667431
  0
ARC
  5
1D49
  8
0
 10
10.61227439495303
 20
-0.4149911943082032
 30
0.0
 40
0.3101213507085823
 50
241.79986181353959
 51
314.59452680627288
  0
ARC
  5
1D4A
  8
0
 10
10.23055288308656
 20
-0.1670944867762019
 30
0.0
 40
0.7609557537585956
 50
321.97698367411402
 51
6.1628617810145636
  0
ARC
  5
1D4B
  8
0
 10
5.743691848367809
 20
-0.5420967179717575
 30
0.0
 40
5.2632701995656213
 50
4.9778214625750561
 51
12.85812002320595
  0
ARC
  5
1D4C
  8
0
 10
12.04381122536984
 20
0.8962855837531012
 30
0.0
 40
1.198962248011523
 50
169.47912744641809
 51
192.87247522696489
  0
ARC
  5
1D4D
  8
0
 10
11.34389031730537
 20
1.004681704167157
 30
0.0
 40
0.491474272933742
 50
140.17578768296241
 51
167.00368669984761
  0
ARC
  5
1D4E
  8
0
 10
10.94890316642987
 20
1.3385359354135571
 30
0.0
 40
0.0259220870623849
 50
312.5474881769785
 51
43.628870640183649
  0
ARC
  5
1D4F
  8
0
 10
10.778836172343251
 20
1.215424821318001
 30
0.0
 40
0.2356627246487381
 50
36.748222844781161
 51
77.940803803302813
  0
ARC
  5
1D50
  8
0
 10
10.82274153336914
 20
1.4633089226282039
 30
0.0
 40
0.0173441101056997
 50
272.17644791926978
 51
8.5317066869831368
  0
LINE
  5
1D51
  8
0
 10
10.8398937121
 20
1.4658820374999999
 30
0.0
 11
10.8398937121
 21
1.5069952975000001
 31
0.0
  0
ARC
  5
1D52
  8
0
 10
10.82278301594055
 20
1.509542890053972
 30
0.0
 40
0.0172993107054051
 50
351.53150557004989
 51
91.597188441958465
  0
ARC
  5
1D53
  8
0
 10
10.8233121328308
 20
1.5773458089328021
 30
0.0
 40
0.0505204520329072
 50
200.54092041584869
 51
268.85300480455282
  0
ARC
  5
1D54
  8
0
 10
11.026494875564991
 20
1.639319217838763
 30
0.0
 40
0.2628648011575456
 50
178.3033329854951
 51
197.64972783734609
  0
ARC
  5
1D55
  8
0
 10
12.559664306834939
 20
1.695194941406978
 30
0.0
 40
1.7965628098571731
 50
179.99971496009721
 51
181.5339533186858
  0
ARC
  5
1D56
  8
0
 10
10.780635823728909
 20
1.6967496870365979
 30
0.0
 40
0.0176023332547964
 50
112.4564499041996
 51
185.0381109710714
  0
ARC
  5
1D57
  8
0
 10
10.59443058278014
 20
2.0480089041619962
 30
0.0
 40
0.3800434436819411
 50
298.18146874254018
 51
317.22665339983411
  0
ARC
  5
1D58
  8
0
 10
10.93420435391238
 20
1.811880734661915
 30
0.0
 40
0.0129999999619149
 50
269.99999994544231
 51
342.02583900877107
  0
LINE
  5
1D59
  8
0
 10
10.9342043539
 20
1.7988807347
 30
0.0
 11
10.891086533999999
 21
1.7988807347
 31
0.0
  0
ARC
  5
1D5A
  8
0
 10
10.891086533999999
 20
1.8088807347
 30
0.0
 40
0.0100000000000002
 50
183.0191643469779
 51
269.99999999999881
  0
ARC
  5
1D5B
  8
0
 10
10.85398879227342
 20
1.8086938447940279
 30
0.0
 40
0.027113751450948
 50
315.96709164416689
 51
359.2819075533867
  0
LINE
  5
1D5C
  8
0
 10
10.8058839453
 20
2.5892355316
 30
0.0
 11
10.420289234239389
 21
2.589256720727215
 31
0.0
  0
ARC
  5
1D5D
  8
0
 10
10.818524482955221
 20
1.073772725671279
 30
0.0
 40
0.3722367247042646
 50
88.530358269570797
 51
89.940062657539471
  0
ARC
  5
1D5E
  8
0
 10
10.8055867081936
 20
9.2356507315402059
 30
0.0
 40
7.789652885455415
 50
269.53622662154362
 51
270.09802633696972
  0
LINE
  5
1D5F
  8
0
 10
10.74253504510007
 20
1.446253029299998
 30
0.0
 11
10.421434734549999
 21
1.4460882347499999
 31
0.0
  0
ARC
  5
1D60
  8
0
 10
10.416479552409941
 20
0.6676261564372452
 30
0.0
 40
0.7784778488827121
 50
89.635297342189162
 51
91.065653776678744
  0
ARC
  5
1D61
  8
0
 10
10.773438104753209
 20
1.7118903505990859
 30
0.0
 40
0.0012225029480745
 50
67.188732246625264
 51
98.366308092977832
  0
ARC
  5
1D62
  8
0
 10
10.76978195854495
 20
1.851669443934415
 30
0.0
 40
0.1386132477833666
 50
270.01259475460228
 51
271.43789386419712
  0
ARC
  5
1D63
  8
0
 10
10.7575410700398
 20
0.9073338816517097
 30
0.0
 40
0.8058157604051194
 50
89.127437980785544
 51
89.744387694548124
  0
ARC
  5
1D64
  8
0
 10
10.632138737442281
 20
-27.041047999931969
 30
0.0
 40
28.75447897583436
 50
89.742960916180735
 51
90.137710098631459
  0
ARC
  5
1D65
  8
0
 10
10.44620081309918
 20
30.850287713225448
 30
0.0
 40
29.137174003421329
 50
270.0265461704293
 51
270.22973051289489
  0
ARC
  5
1D66
  8
0
 10
10.458146919418761
 20
1.5509018140147171
 30
0.0
 40
0.1622224633935769
 50
89.451245871734443
 51
92.079006522345352
  0
ARC
  5
1D67
  8
0
 10
10.750974231593251
 20
3.1985726028884298
 30
0.0
 40
0.8538719739345715
 50
268.98702846903569
 51
270.13686090073872
  0
ARC
  5
1D68
  8
0
 10
10.671462008508099
 20
-15.588486196459661
 30
0.0
 40
17.933435962740891
 50
89.794193382393999
 51
90.095528972874547
  0
ARC
  5
1D69
  8
0
 10
10.55778615993753
 20
15.98696778388187
 30
0.0
 40
13.642300173501051
 50
269.71672749178811
 51
270.3518478950993
  0
ARC
  5
1D6A
  8
0
 10
10.485878959745699
 20
1.853063543393253
 30
0.0
 40
0.4917910183407776
 50
89.480450566818476
 51
91.388888265536366
  0
ARC
  5
1D6B
  8
0
 10
10.80697216545029
 20
2.6553606484268619
 30
0.0
 40
0.1748968356107338
 50
267.72291684833363
 51
270.4109329960657
  0
ARC
  5
1D6C
  8
0
 10
10.78415800814987
 20
11.53099477170114
 30
0.0
 40
9.0504067601479434
 50
269.5661742767565
 51
270.10043809178859
  0
LINE
  5
1D6D
  8
0
 10
10.715631813450219
 20
2.4808474422500009
 30
0.0
 11
10.43892044805
 21
2.4806753724999999
 31
0.0
  0
ARC
  5
1D6E
  8
0
 10
10.433993663285349
 20
1.910028272326399
 30
0.0
 40
0.5706683679201579
 50
89.505338833835097
 51
91.611725206824318
  0
LINE
  5
1D6F
  8
0
 10
8.0896183621758588
 20
2.2436025270660931
 30
0.0
 11
8.0896195116000023
 21
1.8041493306999989
 31
0.0
  0
ARC
  5
1D70
  8
0
 10
9.5777386466113832
 20
1.7335815371484811
 30
0.0
 40
0.2386631695486221
 50
179.2796658100483
 51
199.2689306746436
  0
ARC
  5
1D71
  8
0
 10
9.3610732387545372
 20
1.693879208494353
 30
0.0
 40
0.0399982262541487
 50
257.5427538071998
 51
319.4591017295038
  0
ARC
  5
1D72
  8
0
 10
10.91586253783152
 20
-1.640818825800507
 30
0.0
 40
2.9976882440936561
 50
89.009810609024655
 51
90.199095858330594
  0
ARC
  5
1D73
  8
0
 10
10.86695399804035
 20
356.29559053700967
 30
0.0
 40
354.93874130407397
 50
269.93233011891408
 51
270.00621354207618
  0
ARC
  5
1D74
  8
0
 10
10.441772160920451
 20
-27.441116646427531
 30
0.0
 40
28.798214053073679
 50
89.988108013867219
 51
90.356844205925583
  0
ARC
  5
1D75
  8
0
 10
10.252643215333061
 20
1.6215803246843981
 30
0.0
 40
0.265221523227548
 50
271.27239476787503
 51
272.1114716354881
  0
ARC
  5
1D76
  8
0
 10
10.7943106969163
 20
-0.0259678139459412
 30
0.0
 40
1.553055542095626
 50
88.967323563067609
 51
90.122507149493273
  0
ARC
  5
1D77
  8
0
 10
10.62830103534742
 20
-56.179045280846097
 30
0.0
 40
57.706358790355772
 50
89.838468320523333
 51
90.053118475925302
  0
ARC
  5
1D78
  8
0
 10
10.56842410740701
 20
-39.981005252509974
 30
0.0
 40
41.508294452690613
 50
89.991196413221573
 51
90.19579793579598
  0
ARC
  5
1D79
  8
0
 10
10.425876959860981
 20
0.2708674303089968
 30
0.0
 40
1.2561795970246119
 50
89.968056013878325
 51
91.003531073191624
  0
ENDSEC
  0
EOF
